ISO-10303-21;
HEADER;
/* RV_Disc_D15.5mm_W4.3mm_P7.5mm.step 3D STEP model for use in ECAD systems
 * Copyright (C) 2018, kicad StepUp
 * 
 * This work is licensed under the [Creative Commons CC-BY-SA 4.0 License](https://creativecommons.org/licenses/by-sa/4.0/legalcode), 
 * with the following exception:
 * To the extent that the creation of electronic designs that use 'Licensed Material' can be considered to be 'Adapted Material', 
 * then the copyright holder waives article 3 of the license with respect to these designs and any generated files which use data provided 
 * as part of the 'Licensed Material'.
 * You are free to use the library data in your own projects without the obligation to share your project files under this or any other license agreement.
 * However, if you wish to redistribute these libraries, or parts thereof (including in modified form) as a collection then the exception above does not apply. 
 * Please refer to https://github.com/KiCad/kicad-packages3D/blob/master/LICENSE.md for further clarification of the exception.
 * Disclaimer of Warranties and Limitation of Liability.
 * These libraries are provided in the hope that they will be useful, but are provided without warranty of any kind, express or implied.
 * *USE 3D CAD DATA AT YOUR OWN RISK*
 * *DO NOT RELY UPON ANY INFORMATION FOUND HERE WITHOUT INDEPENDENT VERIFICATION.*
 * 
 */

FILE_DESCRIPTION(
/* description */ ('model of RV_Disc_D15.5mm_W4.3mm_P7.5mm'),
/* implementation_level */ '2;1');

FILE_NAME(
/* name */ 'RV_Disc_D15.5mm_W4.3mm_P7.5mm.step',
/* time_stamp */ '2018-11-11T20:58:02',
/* author */ ('kicad StepUp','ksu'),
/* organization */ ('FreeCAD'),
/* preprocessor_version */ 'OCC',
/* originating_system */ 'kicad StepUp',
/* authorisation */ '');

FILE_SCHEMA(('AUTOMOTIVE_DESIGN { 1 0 10303 214 1 1 1 1 }'));
ENDSEC;

DATA;
#1 = APPLICATION_PROTOCOL_DEFINITION('international standard',
'automotive_design',2000,#2);
#2 = APPLICATION_CONTEXT(
'core data for automotive mechanical design processes');
#3 = SHAPE_DEFINITION_REPRESENTATION(#4,#10);
#4 = PRODUCT_DEFINITION_SHAPE('','',#5);
#5 = PRODUCT_DEFINITION('design','',#6,#9);
#6 = PRODUCT_DEFINITION_FORMATION('','',#7);
#7 = PRODUCT('RV_Disc_D155mm_W43mm_P75mm','RV_Disc_D155mm_W43mm_P75mm',
'',(#8));
#8 = PRODUCT_CONTEXT('',#2,'mechanical');
#9 = PRODUCT_DEFINITION_CONTEXT('part definition',#2,'design');
#10 = ADVANCED_BREP_SHAPE_REPRESENTATION('',(#11,#15),#385);
#11 = AXIS2_PLACEMENT_3D('',#12,#13,#14);
#12 = CARTESIAN_POINT('',(0.E+000,0.E+000,0.E+000));
#13 = DIRECTION('',(0.E+000,0.E+000,1.));
#14 = DIRECTION('',(1.,0.E+000,-0.E+000));
#15 = MANIFOLD_SOLID_BREP('',#16);
#16 = CLOSED_SHELL('',(#17,#50,#140,#245,#254,#280,#289,#315,#341,#367,
#376));
#17 = ADVANCED_FACE('',(#18),#45,.T.);
#18 = FACE_BOUND('',#19,.F.);
#19 = EDGE_LOOP('',(#20,#30,#37,#38));
#20 = ORIENTED_EDGE('',*,*,#21,.T.);
#21 = EDGE_CURVE('',#22,#24,#26,.T.);
#22 = VERTEX_POINT('',#23);
#23 = CARTESIAN_POINT('',(11.5,-0.94756097561,7.78));
#24 = VERTEX_POINT('',#25);
#25 = CARTESIAN_POINT('',(11.5,-1.05243902439,7.78));
#26 = LINE('',#27,#28);
#27 = CARTESIAN_POINT('',(11.5,1.15,7.78));
#28 = VECTOR('',#29,1.);
#29 = DIRECTION('',(0.E+000,-1.,0.E+000));
#30 = ORIENTED_EDGE('',*,*,#31,.T.);
#31 = EDGE_CURVE('',#24,#24,#32,.T.);
#32 = CIRCLE('',#33,7.75);
#33 = AXIS2_PLACEMENT_3D('',#34,#35,#36);
#34 = CARTESIAN_POINT('',(3.75,-1.05243902439,7.78));
#35 = DIRECTION('',(0.E+000,-1.,0.E+000));
#36 = DIRECTION('',(1.,0.E+000,0.E+000));
#37 = ORIENTED_EDGE('',*,*,#21,.F.);
#38 = ORIENTED_EDGE('',*,*,#39,.F.);
#39 = EDGE_CURVE('',#22,#22,#40,.T.);
#40 = CIRCLE('',#41,7.75);
#41 = AXIS2_PLACEMENT_3D('',#42,#43,#44);
#42 = CARTESIAN_POINT('',(3.75,-0.94756097561,7.78));
#43 = DIRECTION('',(0.E+000,-1.,0.E+000));
#44 = DIRECTION('',(1.,0.E+000,0.E+000));
#45 = CYLINDRICAL_SURFACE('',#46,7.75);
#46 = AXIS2_PLACEMENT_3D('',#47,#48,#49);
#47 = CARTESIAN_POINT('',(3.75,1.15,7.78));
#48 = DIRECTION('',(0.E+000,1.,0.E+000));
#49 = DIRECTION('',(1.,0.E+000,0.E+000));
#50 = ADVANCED_FACE('',(#51,#71),#135,.T.);
#51 = FACE_BOUND('',#52,.F.);
#52 = EDGE_LOOP('',(#53,#54,#63,#70));
#53 = ORIENTED_EDGE('',*,*,#39,.T.);
#54 = ORIENTED_EDGE('',*,*,#55,.T.);
#55 = EDGE_CURVE('',#22,#56,#58,.T.);
#56 = VERTEX_POINT('',#57);
#57 = CARTESIAN_POINT('',(9.40243902439,1.15,7.78));
#58 = CIRCLE('',#59,2.09756097561);
#59 = AXIS2_PLACEMENT_3D('',#60,#61,#62);
#60 = CARTESIAN_POINT('',(9.40243902439,-0.94756097561,7.78));
#61 = DIRECTION('',(0.E+000,0.E+000,1.));
#62 = DIRECTION('',(1.,0.E+000,0.E+000));
#63 = ORIENTED_EDGE('',*,*,#64,.F.);
#64 = EDGE_CURVE('',#56,#56,#65,.T.);
#65 = CIRCLE('',#66,5.65243902439);
#66 = AXIS2_PLACEMENT_3D('',#67,#68,#69);
#67 = CARTESIAN_POINT('',(3.75,1.15,7.78));
#68 = DIRECTION('',(0.E+000,-1.,0.E+000));
#69 = DIRECTION('',(1.,0.E+000,0.E+000));
#70 = ORIENTED_EDGE('',*,*,#55,.F.);
#71 = FACE_BOUND('',#72,.F.);
#72 = EDGE_LOOP('',(#73,#94));
#73 = ORIENTED_EDGE('',*,*,#74,.T.);
#74 = EDGE_CURVE('',#75,#77,#79,.T.);
#75 = VERTEX_POINT('',#76);
#76 = CARTESIAN_POINT('',(0.36,0.E+000,1.06322564577));
#77 = VERTEX_POINT('',#78);
#78 = CARTESIAN_POINT('',(-4.974878731536E-002,-0.356546011281,
1.12309613578));
#79 = B_SPLINE_CURVE_WITH_KNOTS('',7,(#80,#81,#82,#83,#84,#85,#86,#87,
#88,#89,#90,#91,#92,#93),.UNSPECIFIED.,.F.,.F.,(8,6,8),(0.E+000,
0.341276734265,1.),.UNSPECIFIED.);
#80 = CARTESIAN_POINT('',(0.36,-5.551115123126E-017,1.06322564577));
#81 = CARTESIAN_POINT('',(0.36,-2.791498878923E-002,1.047392461181));
#82 = CARTESIAN_POINT('',(0.357474599163,-5.617243817754E-002,
1.033332215933));
#83 = CARTESIAN_POINT('',(0.35231262909,-8.451502885649E-002,
1.021241531454));
#84 = CARTESIAN_POINT('',(0.34442767539,-0.112641070279,1.011301018422)
);
#85 = CARTESIAN_POINT('',(0.333782918195,-0.140202356313,1.003656464342)
);
#86 = CARTESIAN_POINT('',(0.320415019715,-0.16681869064,0.998400402825)
);
#87 = CARTESIAN_POINT('',(0.273655427556,-0.240923921689,0.990060138216)
);
#88 = CARTESIAN_POINT('',(0.233244489253,-0.284735378517,0.993551138168)
);
#89 = CARTESIAN_POINT('',(0.184140019616,-0.32095781234,1.006125194455)
);
#90 = CARTESIAN_POINT('',(0.12823463942,-0.347247086658,1.027016082838)
);
#91 = CARTESIAN_POINT('',(6.834866416857E-002,-0.361911125639,
1.054725010983));
#92 = CARTESIAN_POINT('',(7.97230518295E-003,-0.364599822749,
1.087425784605));
#93 = CARTESIAN_POINT('',(-4.974878731536E-002,-0.356546011281,
1.12309613578));
#94 = ORIENTED_EDGE('',*,*,#95,.T.);
#95 = EDGE_CURVE('',#77,#75,#96,.T.);
#96 = B_SPLINE_CURVE_WITH_KNOTS('',7,(#97,#98,#99,#100,#101,#102,#103,
#104,#105,#106,#107,#108,#109,#110,#111,#112,#113,#114,#115,#116,
#117,#118,#119,#120,#121,#122,#123,#124,#125,#126,#127,#128,#129,
#130,#131,#132,#133,#134),.UNSPECIFIED.,.F.,.F.,(8,6,6,6,6,6,8),(
0.E+000,0.203043168993,0.429268687962,0.564866674703,0.681078858331,
0.819531371572,1.),.UNSPECIFIED.);
#97 = CARTESIAN_POINT('',(-4.974878731536E-002,-0.356546011281,
1.12309613578));
#98 = CARTESIAN_POINT('',(-9.99462477163E-002,-0.349541970562,
1.15411704968));
#99 = CARTESIAN_POINT('',(-0.147919952067,-0.33444265853,1.187251220623)
);
#100 = CARTESIAN_POINT('',(-0.19224329165,-0.312094165463,1.221512841502
));
#101 = CARTESIAN_POINT('',(-0.231869832514,-0.28356506632,1.256192123715
));
#102 = CARTESIAN_POINT('',(-0.266093022741,-0.249950245683,
1.290782592001));
#103 = CARTESIAN_POINT('',(-0.294449106257,-0.212264861661,
1.324893651918));
#104 = CARTESIAN_POINT('',(-0.341202250447,-0.125929559312,
1.395200055269));
#105 = CARTESIAN_POINT('',(-0.358044586772,-7.660777649662E-002,
1.431116232225));
#106 = CARTESIAN_POINT('',(-0.366615322885,-2.478747786758E-002,
1.465365741724));
#107 = CARTESIAN_POINT('',(-0.3665246858,2.82065884871E-002,
1.497313178966));
#108 = CARTESIAN_POINT('',(-0.357492408789,8.092871600229E-002,
1.526100844732));
#109 = CARTESIAN_POINT('',(-0.33939037399,0.131782612584,1.550456438839)
);
#110 = CARTESIAN_POINT('',(-0.296195210649,0.207193487965,1.579572742772
));
#111 = CARTESIAN_POINT('',(-0.276817350571,0.234106998498,1.588267978223
));
#112 = CARTESIAN_POINT('',(-0.254309567147,0.259252689277,1.59437245508)
);
#113 = CARTESIAN_POINT('',(-0.228809830844,0.282145411652,1.597451482929
));
#114 = CARTESIAN_POINT('',(-0.200602309003,0.302268745786,1.597064393542
));
#115 = CARTESIAN_POINT('',(-0.170147343242,0.319148967072,1.592881870874
));
#116 = CARTESIAN_POINT('',(-0.110584510222,0.34388517962,1.577996464208)
);
#117 = CARTESIAN_POINT('',(-8.187213426322E-002,0.352700573038,
1.568302501187));
#118 = CARTESIAN_POINT('',(-5.239236600207E-002,0.358675171021,
1.555761596072));
#119 = CARTESIAN_POINT('',(-2.265581058494E-002,0.361714513779,
1.540532196147));
#120 = CARTESIAN_POINT('',(6.828642858791E-003,0.361871760059,
1.522960945101));
#121 = CARTESIAN_POINT('',(3.559440397389E-002,0.359335203312,
1.503542086674));
#122 = CARTESIAN_POINT('',(9.618144919862E-002,0.348523548548,
1.458152395081));
#123 = CARTESIAN_POINT('',(0.127649934383,0.339222399673,1.431552082458)
);
#124 = CARTESIAN_POINT('',(0.15736534728,0.326885201197,1.403636988768)
);
#125 = CARTESIAN_POINT('',(0.185153697024,0.311857907163,1.374949388556)
);
#126 = CARTESIAN_POINT('',(0.210902282674,0.294427794493,1.34593575101)
);
#127 = CARTESIAN_POINT('',(0.23452142709,0.27481806405,1.316950159412));
#128 = CARTESIAN_POINT('',(0.283801124323,0.225008850086,1.250933568368)
);
#129 = CARTESIAN_POINT('',(0.307869362245,0.193438541181,1.214179308594)
);
#130 = CARTESIAN_POINT('',(0.327886552153,0.158901410218,1.178730298659)
);
#131 = CARTESIAN_POINT('',(0.343529591284,0.121768816757,1.145241002431)
);
#132 = CARTESIAN_POINT('',(0.354384296045,8.248034921961E-002,
1.114381986836));
#133 = CARTESIAN_POINT('',(0.36,4.162659826141E-002,1.086835958462));
#134 = CARTESIAN_POINT('',(0.36,-5.551115123126E-017,1.06322564577));
#135 = TOROIDAL_SURFACE('',#136,5.65243902439,2.09756097561);
#136 = AXIS2_PLACEMENT_3D('',#137,#138,#139);
#137 = CARTESIAN_POINT('',(3.75,-0.94756097561,7.78));
#138 = DIRECTION('',(0.E+000,1.,0.E+000));
#139 = DIRECTION('',(1.,0.E+000,0.E+000));
#140 = ADVANCED_FACE('',(#141,#161),#240,.T.);
#141 = FACE_BOUND('',#142,.T.);
#142 = EDGE_LOOP('',(#143,#144,#153,#160));
#143 = ORIENTED_EDGE('',*,*,#31,.T.);
#144 = ORIENTED_EDGE('',*,*,#145,.T.);
#145 = EDGE_CURVE('',#24,#146,#148,.T.);
#146 = VERTEX_POINT('',#147);
#147 = CARTESIAN_POINT('',(9.40243902439,-3.15,7.78));
#148 = CIRCLE('',#149,2.09756097561);
#149 = AXIS2_PLACEMENT_3D('',#150,#151,#152);
#150 = CARTESIAN_POINT('',(9.40243902439,-1.05243902439,7.78));
#151 = DIRECTION('',(0.E+000,0.E+000,-1.));
#152 = DIRECTION('',(1.,0.E+000,0.E+000));
#153 = ORIENTED_EDGE('',*,*,#154,.F.);
#154 = EDGE_CURVE('',#146,#146,#155,.T.);
#155 = CIRCLE('',#156,5.65243902439);
#156 = AXIS2_PLACEMENT_3D('',#157,#158,#159);
#157 = CARTESIAN_POINT('',(3.75,-3.15,7.78));
#158 = DIRECTION('',(0.E+000,-1.,0.E+000));
#159 = DIRECTION('',(1.,0.E+000,0.E+000));
#160 = ORIENTED_EDGE('',*,*,#145,.F.);
#161 = FACE_BOUND('',#162,.T.);
#162 = EDGE_LOOP('',(#163,#200));
#163 = ORIENTED_EDGE('',*,*,#164,.T.);
#164 = EDGE_CURVE('',#165,#167,#169,.T.);
#165 = VERTEX_POINT('',#166);
#166 = CARTESIAN_POINT('',(7.86,-2.,1.478011605403));
#167 = VERTEX_POINT('',#168);
#168 = CARTESIAN_POINT('',(7.163601191594,-1.871797653287,1.008404209594
));
#169 = B_SPLINE_CURVE_WITH_KNOTS('',8,(#170,#171,#172,#173,#174,#175,
#176,#177,#178,#179,#180,#181,#182,#183,#184,#185,#186,#187,#188,
#189,#190,#191,#192,#193,#194,#195,#196,#197,#198,#199),
.UNSPECIFIED.,.F.,.F.,(9,7,7,7,9),(0.E+000,0.192585556915,
0.648442251168,0.927853865136,1.),.UNSPECIFIED.);
#170 = CARTESIAN_POINT('',(7.86,-2.,1.478011605403));
#171 = CARTESIAN_POINT('',(7.86,-1.97722379813,1.464242831126));
#172 = CARTESIAN_POINT('',(7.858353133833,-1.954527910414,1.449934052757
));
#173 = CARTESIAN_POINT('',(7.855079793892,-1.932025820993,1.435157470519
));
#174 = CARTESIAN_POINT('',(7.850203946459,-1.909828606384,1.419976384094
));
#175 = CARTESIAN_POINT('',(7.843753520635,-1.888045584597,1.404447006369
));
#176 = CARTESIAN_POINT('',(7.835760797288,-1.866784964245,1.388620277191
));
#177 = CARTESIAN_POINT('',(7.826262797982,-1.846154493659,1.372543677112
));
#178 = CARTESIAN_POINT('',(7.78935631302,-1.779176147789,1.317726211015)
);
#179 = CARTESIAN_POINT('',(7.755304991312,-1.736391710668,1.278182146465
));
#180 = CARTESIAN_POINT('',(7.713673171787,-1.699040489632,1.238050178021
));
#181 = CARTESIAN_POINT('',(7.665020199419,-1.668568549797,1.197832753627
));
#182 = CARTESIAN_POINT('',(7.610373588876,-1.646708482844,1.15834218715)
);
#183 = CARTESIAN_POINT('',(7.551488931615,-1.63516949271,1.120732421431)
);
#184 = CARTESIAN_POINT('',(7.490990694524,-1.635115128598,1.086754216082
));
#185 = CARTESIAN_POINT('',(7.395670366208,-1.65347996264,1.040725534988)
);
#186 = CARTESIAN_POINT('',(7.360215235827,-1.664710352253,1.025395126904
));
#187 = CARTESIAN_POINT('',(7.326186137062,-1.680086587691,1.01258206292)
);
#188 = CARTESIAN_POINT('',(7.294208502182,-1.699359664883,1.002614355422
));
#189 = CARTESIAN_POINT('',(7.264840707223,-1.722154150488,0.995767802197
));
#190 = CARTESIAN_POINT('',(7.238545853853,-1.74798976284,0.992241090499)
);
#191 = CARTESIAN_POINT('',(7.215669636288,-1.776307624718,0.992129983338
));
#192 = CARTESIAN_POINT('',(7.191455004061,-1.814297388133,0.996245082164
));
#193 = CARTESIAN_POINT('',(7.186727756113,-1.822218784862,0.997315084149
));
#194 = CARTESIAN_POINT('',(7.182246072957,-1.830254972649,0.998610013353
));
#195 = CARTESIAN_POINT('',(7.178012860116,-1.838395604133,1.000128802942
));
#196 = CARTESIAN_POINT('',(7.174030405093,-1.846630390053,1.001869899829
));
#197 = CARTESIAN_POINT('',(7.170300377365,-1.854949099244,1.003831264673
));
#198 = CARTESIAN_POINT('',(7.166823828387,-1.863341558644,1.006010371877
));
#199 = CARTESIAN_POINT('',(7.163601191594,-1.871797653287,1.008404209594
));
#200 = ORIENTED_EDGE('',*,*,#201,.T.);
#201 = EDGE_CURVE('',#167,#165,#202,.T.);
#202 = B_SPLINE_CURVE_WITH_KNOTS('',8,(#203,#204,#205,#206,#207,#208,
#209,#210,#211,#212,#213,#214,#215,#216,#217,#218,#219,#220,#221,
#222,#223,#224,#225,#226,#227,#228,#229,#230,#231,#232,#233,#234,
#235,#236,#237,#238,#239),.UNSPECIFIED.,.F.,.F.,(9,7,7,7,7,9),(
0.E+000,0.341458192528,0.520056204109,0.744874541961,0.837101538489,
1.),.UNSPECIFIED.);
#203 = CARTESIAN_POINT('',(7.163601191594,-1.871797653287,1.008404209594
));
#204 = CARTESIAN_POINT('',(7.143918048391,-1.923445583989,1.023025233802
));
#205 = CARTESIAN_POINT('',(7.133751594686,-1.97735484649,1.045625106469)
);
#206 = CARTESIAN_POINT('',(7.133099503332,-2.031333770586,1.075497607516
));
#207 = CARTESIAN_POINT('',(7.141256123306,-2.083554449709,1.11145322893)
);
#208 = CARTESIAN_POINT('',(7.157299928011,-2.132776924155,1.152150224722
));
#209 = CARTESIAN_POINT('',(7.180380399522,-2.178116873469,1.196279255244
));
#210 = CARTESIAN_POINT('',(7.209842474437,-2.218913507342,1.242623688469
));
#211 = CARTESIAN_POINT('',(7.263811477932,-2.27295218045,1.31460409679)
);
#212 = CARTESIAN_POINT('',(7.283962449784,-2.290038909719,1.33955177192)
);
#213 = CARTESIAN_POINT('',(7.305673168085,-2.305554511663,1.364548679468
));
#214 = CARTESIAN_POINT('',(7.328889170556,-2.319371892728,1.389389083806
));
#215 = CARTESIAN_POINT('',(7.353548386368,-2.33133447772,1.413827901707)
);
#216 = CARTESIAN_POINT('',(7.379568798638,-2.341256729792,1.437575734079
));
#217 = CARTESIAN_POINT('',(7.406834073763,-2.348927441797,1.46030142941)
);
#218 = CARTESIAN_POINT('',(7.470855298307,-2.360646878665,1.508505814086
));
#219 = CARTESIAN_POINT('',(7.508501996783,-2.363292452657,1.533370571393
));
#220 = CARTESIAN_POINT('',(7.547195195438,-2.361376983468,1.554988582534
));
#221 = CARTESIAN_POINT('',(7.585894629057,-2.354578057835,1.572339307259
));
#222 = CARTESIAN_POINT('',(7.623553015046,-2.342933846582,1.584881110087
));
#223 = CARTESIAN_POINT('',(7.659236109258,-2.326794408404,1.592561525492
));
#224 = CARTESIAN_POINT('',(7.692213420484,-2.30673072609,1.59568225401)
);
#225 = CARTESIAN_POINT('',(7.734193054932,-2.273850726476,1.594318108034
));
#226 = CARTESIAN_POINT('',(7.745873245394,-2.263732101998,1.593233021807
));
#227 = CARTESIAN_POINT('',(7.756990523562,-2.253101033694,1.591490879826
));
#228 = CARTESIAN_POINT('',(7.767519658513,-2.241999973336,1.589126143559
));
#229 = CARTESIAN_POINT('',(7.777440929203,-2.230471436723,1.586175149495
));
#230 = CARTESIAN_POINT('',(7.786739440705,-2.21855715936,1.582674729519)
);
#231 = CARTESIAN_POINT('',(7.795404440463,-2.206297252125,1.578660831288
));
#232 = CARTESIAN_POINT('',(7.81760158734,-2.171530967482,1.566230030706)
);
#233 = CARTESIAN_POINT('',(7.829771790256,-2.148377401232,1.556798256946
));
#234 = CARTESIAN_POINT('',(7.839903731267,-2.124472678867,1.546058776266
));
#235 = CARTESIAN_POINT('',(7.847984043791,-2.100009704306,1.534182172962
));
#236 = CARTESIAN_POINT('',(7.854015858931,-2.075168876133,1.521319151346
));
#237 = CARTESIAN_POINT('',(7.858013854384,-2.050117894891,1.507599344605
));
#238 = CARTESIAN_POINT('',(7.86,-2.025012766241,1.493132437856));
#239 = CARTESIAN_POINT('',(7.86,-2.,1.478011605403));
#240 = TOROIDAL_SURFACE('',#241,5.65243902439,2.09756097561);
#241 = AXIS2_PLACEMENT_3D('',#242,#243,#244);
#242 = CARTESIAN_POINT('',(3.75,-1.05243902439,7.78));
#243 = DIRECTION('',(0.E+000,-1.,0.E+000));
#244 = DIRECTION('',(1.,0.E+000,0.E+000));
#245 = ADVANCED_FACE('',(#246),#249,.F.);
#246 = FACE_BOUND('',#247,.F.);
#247 = EDGE_LOOP('',(#248));
#248 = ORIENTED_EDGE('',*,*,#64,.T.);
#249 = PLANE('',#250);
#250 = AXIS2_PLACEMENT_3D('',#251,#252,#253);
#251 = CARTESIAN_POINT('',(3.75,1.15,7.78));
#252 = DIRECTION('',(-0.E+000,-1.,-0.E+000));
#253 = DIRECTION('',(0.E+000,0.E+000,-1.));
#254 = ADVANCED_FACE('',(#255),#275,.T.);
#255 = FACE_BOUND('',#256,.T.);
#256 = EDGE_LOOP('',(#257,#258,#266,#273,#274));
#257 = ORIENTED_EDGE('',*,*,#95,.T.);
#258 = ORIENTED_EDGE('',*,*,#259,.T.);
#259 = EDGE_CURVE('',#75,#260,#262,.T.);
#260 = VERTEX_POINT('',#261);
#261 = CARTESIAN_POINT('',(0.36,0.E+000,-2.856));
#262 = LINE('',#263,#264);
#263 = CARTESIAN_POINT('',(0.36,0.E+000,7.78));
#264 = VECTOR('',#265,1.);
#265 = DIRECTION('',(-0.E+000,-0.E+000,-1.));
#266 = ORIENTED_EDGE('',*,*,#267,.T.);
#267 = EDGE_CURVE('',#260,#260,#268,.T.);
#268 = CIRCLE('',#269,0.36);
#269 = AXIS2_PLACEMENT_3D('',#270,#271,#272);
#270 = CARTESIAN_POINT('',(0.E+000,0.E+000,-2.856));
#271 = DIRECTION('',(0.E+000,0.E+000,1.));
#272 = DIRECTION('',(1.,0.E+000,0.E+000));
#273 = ORIENTED_EDGE('',*,*,#259,.F.);
#274 = ORIENTED_EDGE('',*,*,#74,.T.);
#275 = CYLINDRICAL_SURFACE('',#276,0.36);
#276 = AXIS2_PLACEMENT_3D('',#277,#278,#279);
#277 = CARTESIAN_POINT('',(0.E+000,0.E+000,7.78));
#278 = DIRECTION('',(0.E+000,0.E+000,1.));
#279 = DIRECTION('',(1.,0.E+000,0.E+000));
#280 = ADVANCED_FACE('',(#281),#284,.T.);
#281 = FACE_BOUND('',#282,.T.);
#282 = EDGE_LOOP('',(#283));
#283 = ORIENTED_EDGE('',*,*,#154,.T.);
#284 = PLANE('',#285);
#285 = AXIS2_PLACEMENT_3D('',#286,#287,#288);
#286 = CARTESIAN_POINT('',(3.75,-3.15,7.78));
#287 = DIRECTION('',(-0.E+000,-1.,-0.E+000));
#288 = DIRECTION('',(0.E+000,0.E+000,-1.));
#289 = ADVANCED_FACE('',(#290),#310,.T.);
#290 = FACE_BOUND('',#291,.T.);
#291 = EDGE_LOOP('',(#292,#293,#301,#308,#309));
#292 = ORIENTED_EDGE('',*,*,#164,.F.);
#293 = ORIENTED_EDGE('',*,*,#294,.T.);
#294 = EDGE_CURVE('',#165,#295,#297,.T.);
#295 = VERTEX_POINT('',#296);
#296 = CARTESIAN_POINT('',(7.86,-2.,-2.856));
#297 = LINE('',#298,#299);
#298 = CARTESIAN_POINT('',(7.86,-2.,7.78));
#299 = VECTOR('',#300,1.);
#300 = DIRECTION('',(-0.E+000,-0.E+000,-1.));
#301 = ORIENTED_EDGE('',*,*,#302,.T.);
#302 = EDGE_CURVE('',#295,#295,#303,.T.);
#303 = CIRCLE('',#304,0.36);
#304 = AXIS2_PLACEMENT_3D('',#305,#306,#307);
#305 = CARTESIAN_POINT('',(7.5,-2.,-2.856));
#306 = DIRECTION('',(0.E+000,0.E+000,1.));
#307 = DIRECTION('',(1.,0.E+000,0.E+000));
#308 = ORIENTED_EDGE('',*,*,#294,.F.);
#309 = ORIENTED_EDGE('',*,*,#201,.F.);
#310 = CYLINDRICAL_SURFACE('',#311,0.36);
#311 = AXIS2_PLACEMENT_3D('',#312,#313,#314);
#312 = CARTESIAN_POINT('',(7.5,-2.,7.78));
#313 = DIRECTION('',(0.E+000,0.E+000,1.));
#314 = DIRECTION('',(1.,0.E+000,0.E+000));
#315 = ADVANCED_FACE('',(#316),#336,.T.);
#316 = FACE_BOUND('',#317,.F.);
#317 = EDGE_LOOP('',(#318,#327,#328,#329));
#318 = ORIENTED_EDGE('',*,*,#319,.F.);
#319 = EDGE_CURVE('',#260,#320,#322,.T.);
#320 = VERTEX_POINT('',#321);
#321 = CARTESIAN_POINT('',(0.216,0.E+000,-3.));
#322 = CIRCLE('',#323,0.144);
#323 = AXIS2_PLACEMENT_3D('',#324,#325,#326);
#324 = CARTESIAN_POINT('',(0.216,0.E+000,-2.856));
#325 = DIRECTION('',(-0.E+000,1.,0.E+000));
#326 = DIRECTION('',(1.,0.E+000,0.E+000));
#327 = ORIENTED_EDGE('',*,*,#267,.T.);
#328 = ORIENTED_EDGE('',*,*,#319,.T.);
#329 = ORIENTED_EDGE('',*,*,#330,.F.);
#330 = EDGE_CURVE('',#320,#320,#331,.T.);
#331 = CIRCLE('',#332,0.216);
#332 = AXIS2_PLACEMENT_3D('',#333,#334,#335);
#333 = CARTESIAN_POINT('',(0.E+000,0.E+000,-3.));
#334 = DIRECTION('',(0.E+000,0.E+000,1.));
#335 = DIRECTION('',(1.,0.E+000,0.E+000));
#336 = TOROIDAL_SURFACE('',#337,0.216,0.144);
#337 = AXIS2_PLACEMENT_3D('',#338,#339,#340);
#338 = CARTESIAN_POINT('',(0.E+000,0.E+000,-2.856));
#339 = DIRECTION('',(-0.E+000,-0.E+000,-1.));
#340 = DIRECTION('',(1.,0.E+000,0.E+000));
#341 = ADVANCED_FACE('',(#342),#362,.T.);
#342 = FACE_BOUND('',#343,.F.);
#343 = EDGE_LOOP('',(#344,#353,#354,#355));
#344 = ORIENTED_EDGE('',*,*,#345,.F.);
#345 = EDGE_CURVE('',#295,#346,#348,.T.);
#346 = VERTEX_POINT('',#347);
#347 = CARTESIAN_POINT('',(7.716,-2.,-3.));
#348 = CIRCLE('',#349,0.144);
#349 = AXIS2_PLACEMENT_3D('',#350,#351,#352);
#350 = CARTESIAN_POINT('',(7.716,-2.,-2.856));
#351 = DIRECTION('',(-0.E+000,1.,0.E+000));
#352 = DIRECTION('',(1.,0.E+000,0.E+000));
#353 = ORIENTED_EDGE('',*,*,#302,.T.);
#354 = ORIENTED_EDGE('',*,*,#345,.T.);
#355 = ORIENTED_EDGE('',*,*,#356,.F.);
#356 = EDGE_CURVE('',#346,#346,#357,.T.);
#357 = CIRCLE('',#358,0.216);
#358 = AXIS2_PLACEMENT_3D('',#359,#360,#361);
#359 = CARTESIAN_POINT('',(7.5,-2.,-3.));
#360 = DIRECTION('',(0.E+000,0.E+000,1.));
#361 = DIRECTION('',(1.,0.E+000,0.E+000));
#362 = TOROIDAL_SURFACE('',#363,0.216,0.144);
#363 = AXIS2_PLACEMENT_3D('',#364,#365,#366);
#364 = CARTESIAN_POINT('',(7.5,-2.,-2.856));
#365 = DIRECTION('',(-0.E+000,-0.E+000,-1.));
#366 = DIRECTION('',(1.,0.E+000,0.E+000));
#367 = ADVANCED_FACE('',(#368),#371,.F.);
#368 = FACE_BOUND('',#369,.F.);
#369 = EDGE_LOOP('',(#370));
#370 = ORIENTED_EDGE('',*,*,#330,.T.);
#371 = PLANE('',#372);
#372 = AXIS2_PLACEMENT_3D('',#373,#374,#375);
#373 = CARTESIAN_POINT('',(-1.483767504926E-017,1.497958850874E-017,-3.)
);
#374 = DIRECTION('',(0.E+000,0.E+000,1.));
#375 = DIRECTION('',(1.,0.E+000,0.E+000));
#376 = ADVANCED_FACE('',(#377),#380,.F.);
#377 = FACE_BOUND('',#378,.F.);
#378 = EDGE_LOOP('',(#379));
#379 = ORIENTED_EDGE('',*,*,#356,.T.);
#380 = PLANE('',#381);
#381 = AXIS2_PLACEMENT_3D('',#382,#383,#384);
#382 = CARTESIAN_POINT('',(7.5,-2.,-3.));
#383 = DIRECTION('',(0.E+000,0.E+000,1.));
#384 = DIRECTION('',(1.,0.E+000,0.E+000));
#385 = ( GEOMETRIC_REPRESENTATION_CONTEXT(3)
GLOBAL_UNCERTAINTY_ASSIGNED_CONTEXT((#389)) GLOBAL_UNIT_ASSIGNED_CONTEXT
((#386,#387,#388)) REPRESENTATION_CONTEXT('Context #1',
'3D Context with UNIT and UNCERTAINTY') );
#386 = ( LENGTH_UNIT() NAMED_UNIT(*) SI_UNIT(.MILLI.,.METRE.) );
#387 = ( NAMED_UNIT(*) PLANE_ANGLE_UNIT() SI_UNIT($,.RADIAN.) );
#388 = ( NAMED_UNIT(*) SI_UNIT($,.STERADIAN.) SOLID_ANGLE_UNIT() );
#389 = UNCERTAINTY_MEASURE_WITH_UNIT(LENGTH_MEASURE(1.E-007),#386,
'distance_accuracy_value','confusion accuracy');
#390 = PRODUCT_RELATED_PRODUCT_CATEGORY('part',$,(#7));
#391 = MECHANICAL_DESIGN_GEOMETRIC_PRESENTATION_REPRESENTATION('',(#392,
#400,#407,#414,#421,#429,#436,#443,#450,#457,#464),#385);
#392 = STYLED_ITEM('color',(#393),#17);
#393 = PRESENTATION_STYLE_ASSIGNMENT((#394));
#394 = SURFACE_STYLE_USAGE(.BOTH.,#395);
#395 = SURFACE_SIDE_STYLE('',(#396));
#396 = SURFACE_STYLE_FILL_AREA(#397);
#397 = FILL_AREA_STYLE('',(#398));
#398 = FILL_AREA_STYLE_COLOUR('',#399);
#399 = COLOUR_RGB('',0.136999994516,0.402000010014,0.726999998093);
#400 = STYLED_ITEM('color',(#401),#50);
#401 = PRESENTATION_STYLE_ASSIGNMENT((#402));
#402 = SURFACE_STYLE_USAGE(.BOTH.,#403);
#403 = SURFACE_SIDE_STYLE('',(#404));
#404 = SURFACE_STYLE_FILL_AREA(#405);
#405 = FILL_AREA_STYLE('',(#406));
#406 = FILL_AREA_STYLE_COLOUR('',#399);
#407 = STYLED_ITEM('color',(#408),#140);
#408 = PRESENTATION_STYLE_ASSIGNMENT((#409));
#409 = SURFACE_STYLE_USAGE(.BOTH.,#410);
#410 = SURFACE_SIDE_STYLE('',(#411));
#411 = SURFACE_STYLE_FILL_AREA(#412);
#412 = FILL_AREA_STYLE('',(#413));
#413 = FILL_AREA_STYLE_COLOUR('',#399);
#414 = STYLED_ITEM('color',(#415),#245);
#415 = PRESENTATION_STYLE_ASSIGNMENT((#416));
#416 = SURFACE_STYLE_USAGE(.BOTH.,#417);
#417 = SURFACE_SIDE_STYLE('',(#418));
#418 = SURFACE_STYLE_FILL_AREA(#419);
#419 = FILL_AREA_STYLE('',(#420));
#420 = FILL_AREA_STYLE_COLOUR('',#399);
#421 = STYLED_ITEM('color',(#422),#254);
#422 = PRESENTATION_STYLE_ASSIGNMENT((#423));
#423 = SURFACE_STYLE_USAGE(.BOTH.,#424);
#424 = SURFACE_SIDE_STYLE('',(#425));
#425 = SURFACE_STYLE_FILL_AREA(#426);
#426 = FILL_AREA_STYLE('',(#427));
#427 = FILL_AREA_STYLE_COLOUR('',#428);
#428 = COLOUR_RGB('',0.824000000954,0.819999992847,0.78100001812);
#429 = STYLED_ITEM('color',(#430),#280);
#430 = PRESENTATION_STYLE_ASSIGNMENT((#431));
#431 = SURFACE_STYLE_USAGE(.BOTH.,#432);
#432 = SURFACE_SIDE_STYLE('',(#433));
#433 = SURFACE_STYLE_FILL_AREA(#434);
#434 = FILL_AREA_STYLE('',(#435));
#435 = FILL_AREA_STYLE_COLOUR('',#399);
#436 = STYLED_ITEM('color',(#437),#289);
#437 = PRESENTATION_STYLE_ASSIGNMENT((#438));
#438 = SURFACE_STYLE_USAGE(.BOTH.,#439);
#439 = SURFACE_SIDE_STYLE('',(#440));
#440 = SURFACE_STYLE_FILL_AREA(#441);
#441 = FILL_AREA_STYLE('',(#442));
#442 = FILL_AREA_STYLE_COLOUR('',#428);
#443 = STYLED_ITEM('color',(#444),#315);
#444 = PRESENTATION_STYLE_ASSIGNMENT((#445));
#445 = SURFACE_STYLE_USAGE(.BOTH.,#446);
#446 = SURFACE_SIDE_STYLE('',(#447));
#447 = SURFACE_STYLE_FILL_AREA(#448);
#448 = FILL_AREA_STYLE('',(#449));
#449 = FILL_AREA_STYLE_COLOUR('',#428);
#450 = STYLED_ITEM('color',(#451),#341);
#451 = PRESENTATION_STYLE_ASSIGNMENT((#452));
#452 = SURFACE_STYLE_USAGE(.BOTH.,#453);
#453 = SURFACE_SIDE_STYLE('',(#454));
#454 = SURFACE_STYLE_FILL_AREA(#455);
#455 = FILL_AREA_STYLE('',(#456));
#456 = FILL_AREA_STYLE_COLOUR('',#428);
#457 = STYLED_ITEM('color',(#458),#367);
#458 = PRESENTATION_STYLE_ASSIGNMENT((#459));
#459 = SURFACE_STYLE_USAGE(.BOTH.,#460);
#460 = SURFACE_SIDE_STYLE('',(#461));
#461 = SURFACE_STYLE_FILL_AREA(#462);
#462 = FILL_AREA_STYLE('',(#463));
#463 = FILL_AREA_STYLE_COLOUR('',#428);
#464 = STYLED_ITEM('color',(#465),#376);
#465 = PRESENTATION_STYLE_ASSIGNMENT((#466));
#466 = SURFACE_STYLE_USAGE(.BOTH.,#467);
#467 = SURFACE_SIDE_STYLE('',(#468));
#468 = SURFACE_STYLE_FILL_AREA(#469);
#469 = FILL_AREA_STYLE('',(#470));
#470 = FILL_AREA_STYLE_COLOUR('',#428);
ENDSEC;
END-ISO-10303-21;
