ISO-10303-21;
HEADER;
FILE_DESCRIPTION(('FreeCAD Model'),'2;1');
FILE_NAME(
'D:/KiCAD/packages3D-source/Diode_THT.3dshapes\\
Diode_Bridge_Vishay_KBPC6.step','2018-01-20T19:14:30',('kicad StepUp'),(
    'ksu MCAD'),'Open CASCADE STEP processor 6.8','FreeCAD','Unknown');
FILE_SCHEMA(('AUTOMOTIVE_DESIGN_CC2 { 1 2 10303 214 -1 1 5 4 }'));
ENDSEC;
DATA;
#1 = APPLICATION_PROTOCOL_DEFINITION('committee draft',
  'automotive_design',1997,#2);
#2 = APPLICATION_CONTEXT(
  'core data for automotive mechanical design processes');
#3 = SHAPE_DEFINITION_REPRESENTATION(#4,#10);
#4 = PRODUCT_DEFINITION_SHAPE('','',#5);
#5 = PRODUCT_DEFINITION('design','',#6,#9);
#6 = PRODUCT_DEFINITION_FORMATION('','',#7);
#7 = PRODUCT('Diode_Bridge_Vishay_KBPC6','Diode_Bridge_Vishay_KBPC6','',
  (#8));
#8 = MECHANICAL_CONTEXT('',#2,'mechanical');
#9 = PRODUCT_DEFINITION_CONTEXT('part definition',#2,'design');
#10 = ADVANCED_BREP_SHAPE_REPRESENTATION('',(#11,#15),#417);
#11 = AXIS2_PLACEMENT_3D('',#12,#13,#14);
#12 = CARTESIAN_POINT('',(0.E+000,0.E+000,0.E+000));
#13 = DIRECTION('',(0.E+000,0.E+000,1.));
#14 = DIRECTION('',(1.,0.E+000,-0.E+000));
#15 = MANIFOLD_SOLID_BREP('',#16);
#16 = CLOSED_SHELL('',(#17,#57,#88,#119,#199,#235,#252,#264,#289,#314,
    #339,#356,#381,#390,#399,#408));
#17 = ADVANCED_FACE('',(#18),#52,.T.);
#18 = FACE_BOUND('',#19,.T.);
#19 = EDGE_LOOP('',(#20,#30,#38,#46));
#20 = ORIENTED_EDGE('',*,*,#21,.T.);
#21 = EDGE_CURVE('',#22,#24,#26,.T.);
#22 = VERTEX_POINT('',#23);
#23 = CARTESIAN_POINT('',(-2.425,0.425,0.1));
#24 = VERTEX_POINT('',#25);
#25 = CARTESIAN_POINT('',(-2.425,0.425,6.4));
#26 = LINE('',#27,#28);
#27 = CARTESIAN_POINT('',(-2.425,0.425,0.1));
#28 = VECTOR('',#29,1.);
#29 = DIRECTION('',(0.E+000,0.E+000,1.));
#30 = ORIENTED_EDGE('',*,*,#31,.T.);
#31 = EDGE_CURVE('',#24,#32,#34,.T.);
#32 = VERTEX_POINT('',#33);
#33 = CARTESIAN_POINT('',(-0.42500000001,2.425,6.4));
#34 = LINE('',#35,#36);
#35 = CARTESIAN_POINT('',(-2.425,0.425,6.4));
#36 = VECTOR('',#37,1.);
#37 = DIRECTION('',(0.707106781185,0.707106781188,0.E+000));
#38 = ORIENTED_EDGE('',*,*,#39,.F.);
#39 = EDGE_CURVE('',#40,#32,#42,.T.);
#40 = VERTEX_POINT('',#41);
#41 = CARTESIAN_POINT('',(-0.42500000001,2.425,0.1));
#42 = LINE('',#43,#44);
#43 = CARTESIAN_POINT('',(-0.42500000001,2.425,0.1));
#44 = VECTOR('',#45,1.);
#45 = DIRECTION('',(0.E+000,0.E+000,1.));
#46 = ORIENTED_EDGE('',*,*,#47,.F.);
#47 = EDGE_CURVE('',#22,#40,#48,.T.);
#48 = LINE('',#49,#50);
#49 = CARTESIAN_POINT('',(-2.425,0.425,0.1));
#50 = VECTOR('',#51,1.);
#51 = DIRECTION('',(0.707106781185,0.707106781188,0.E+000));
#52 = PLANE('',#53);
#53 = AXIS2_PLACEMENT_3D('',#54,#55,#56);
#54 = CARTESIAN_POINT('',(-2.425,0.425,0.1));
#55 = DIRECTION('',(-0.707106781188,0.707106781185,0.E+000));
#56 = DIRECTION('',(0.707106781185,0.707106781188,0.E+000));
#57 = ADVANCED_FACE('',(#58),#83,.T.);
#58 = FACE_BOUND('',#59,.T.);
#59 = EDGE_LOOP('',(#60,#70,#76,#77));
#60 = ORIENTED_EDGE('',*,*,#61,.T.);
#61 = EDGE_CURVE('',#62,#64,#66,.T.);
#62 = VERTEX_POINT('',#63);
#63 = CARTESIAN_POINT('',(-2.425,-12.825,0.1));
#64 = VERTEX_POINT('',#65);
#65 = CARTESIAN_POINT('',(-2.425,-12.825,6.4));
#66 = LINE('',#67,#68);
#67 = CARTESIAN_POINT('',(-2.425,-12.825,0.1));
#68 = VECTOR('',#69,1.);
#69 = DIRECTION('',(0.E+000,0.E+000,1.));
#70 = ORIENTED_EDGE('',*,*,#71,.T.);
#71 = EDGE_CURVE('',#64,#24,#72,.T.);
#72 = LINE('',#73,#74);
#73 = CARTESIAN_POINT('',(-2.425,-12.825,6.4));
#74 = VECTOR('',#75,1.);
#75 = DIRECTION('',(0.E+000,1.,0.E+000));
#76 = ORIENTED_EDGE('',*,*,#21,.F.);
#77 = ORIENTED_EDGE('',*,*,#78,.F.);
#78 = EDGE_CURVE('',#62,#22,#79,.T.);
#79 = LINE('',#80,#81);
#80 = CARTESIAN_POINT('',(-2.425,-12.825,0.1));
#81 = VECTOR('',#82,1.);
#82 = DIRECTION('',(0.E+000,1.,0.E+000));
#83 = PLANE('',#84);
#84 = AXIS2_PLACEMENT_3D('',#85,#86,#87);
#85 = CARTESIAN_POINT('',(-2.425,-12.825,0.1));
#86 = DIRECTION('',(-1.,0.E+000,0.E+000));
#87 = DIRECTION('',(0.E+000,1.,0.E+000));
#88 = ADVANCED_FACE('',(#89),#114,.T.);
#89 = FACE_BOUND('',#90,.T.);
#90 = EDGE_LOOP('',(#91,#92,#100,#108));
#91 = ORIENTED_EDGE('',*,*,#39,.T.);
#92 = ORIENTED_EDGE('',*,*,#93,.T.);
#93 = EDGE_CURVE('',#32,#94,#96,.T.);
#94 = VERTEX_POINT('',#95);
#95 = CARTESIAN_POINT('',(12.825,2.425,6.4));
#96 = LINE('',#97,#98);
#97 = CARTESIAN_POINT('',(-0.42500000001,2.425,6.4));
#98 = VECTOR('',#99,1.);
#99 = DIRECTION('',(1.,0.E+000,0.E+000));
#100 = ORIENTED_EDGE('',*,*,#101,.F.);
#101 = EDGE_CURVE('',#102,#94,#104,.T.);
#102 = VERTEX_POINT('',#103);
#103 = CARTESIAN_POINT('',(12.825,2.425,0.1));
#104 = LINE('',#105,#106);
#105 = CARTESIAN_POINT('',(12.825,2.425,0.1));
#106 = VECTOR('',#107,1.);
#107 = DIRECTION('',(0.E+000,0.E+000,1.));
#108 = ORIENTED_EDGE('',*,*,#109,.F.);
#109 = EDGE_CURVE('',#40,#102,#110,.T.);
#110 = LINE('',#111,#112);
#111 = CARTESIAN_POINT('',(-0.42500000001,2.425,0.1));
#112 = VECTOR('',#113,1.);
#113 = DIRECTION('',(1.,0.E+000,0.E+000));
#114 = PLANE('',#115);
#115 = AXIS2_PLACEMENT_3D('',#116,#117,#118);
#116 = CARTESIAN_POINT('',(-0.42500000001,2.425,0.1));
#117 = DIRECTION('',(0.E+000,1.,0.E+000));
#118 = DIRECTION('',(1.,0.E+000,0.E+000));
#119 = ADVANCED_FACE('',(#120,#139,#150,#161,#172,#183),#194,.F.);
#120 = FACE_BOUND('',#121,.F.);
#121 = EDGE_LOOP('',(#122,#123,#124,#132,#138));
#122 = ORIENTED_EDGE('',*,*,#47,.F.);
#123 = ORIENTED_EDGE('',*,*,#78,.F.);
#124 = ORIENTED_EDGE('',*,*,#125,.F.);
#125 = EDGE_CURVE('',#126,#62,#128,.T.);
#126 = VERTEX_POINT('',#127);
#127 = CARTESIAN_POINT('',(12.825,-12.825,0.1));
#128 = LINE('',#129,#130);
#129 = CARTESIAN_POINT('',(12.825,-12.825,0.1));
#130 = VECTOR('',#131,1.);
#131 = DIRECTION('',(-1.,0.E+000,0.E+000));
#132 = ORIENTED_EDGE('',*,*,#133,.F.);
#133 = EDGE_CURVE('',#102,#126,#134,.T.);
#134 = LINE('',#135,#136);
#135 = CARTESIAN_POINT('',(12.825,2.425,0.1));
#136 = VECTOR('',#137,1.);
#137 = DIRECTION('',(0.E+000,-1.,0.E+000));
#138 = ORIENTED_EDGE('',*,*,#109,.F.);
#139 = FACE_BOUND('',#140,.F.);
#140 = EDGE_LOOP('',(#141));
#141 = ORIENTED_EDGE('',*,*,#142,.F.);
#142 = EDGE_CURVE('',#143,#143,#145,.T.);
#143 = VERTEX_POINT('',#144);
#144 = CARTESIAN_POINT('',(0.55,0.E+000,1.E-001));
#145 = CIRCLE('',#146,0.55);
#146 = AXIS2_PLACEMENT_3D('',#147,#148,#149);
#147 = CARTESIAN_POINT('',(0.E+000,0.E+000,1.E-001));
#148 = DIRECTION('',(0.E+000,0.E+000,1.));
#149 = DIRECTION('',(1.,0.E+000,0.E+000));
#150 = FACE_BOUND('',#151,.F.);
#151 = EDGE_LOOP('',(#152));
#152 = ORIENTED_EDGE('',*,*,#153,.F.);
#153 = EDGE_CURVE('',#154,#154,#156,.T.);
#154 = VERTEX_POINT('',#155);
#155 = CARTESIAN_POINT('',(0.55,-10.4,1.E-001));
#156 = CIRCLE('',#157,0.55);
#157 = AXIS2_PLACEMENT_3D('',#158,#159,#160);
#158 = CARTESIAN_POINT('',(0.E+000,-10.4,1.E-001));
#159 = DIRECTION('',(0.E+000,0.E+000,1.));
#160 = DIRECTION('',(1.,0.E+000,0.E+000));
#161 = FACE_BOUND('',#162,.F.);
#162 = EDGE_LOOP('',(#163));
#163 = ORIENTED_EDGE('',*,*,#164,.F.);
#164 = EDGE_CURVE('',#165,#165,#167,.T.);
#165 = VERTEX_POINT('',#166);
#166 = CARTESIAN_POINT('',(10.95,-10.4,1.E-001));
#167 = CIRCLE('',#168,0.55);
#168 = AXIS2_PLACEMENT_3D('',#169,#170,#171);
#169 = CARTESIAN_POINT('',(10.4,-10.4,1.E-001));
#170 = DIRECTION('',(0.E+000,0.E+000,1.));
#171 = DIRECTION('',(1.,0.E+000,0.E+000));
#172 = FACE_BOUND('',#173,.F.);
#173 = EDGE_LOOP('',(#174));
#174 = ORIENTED_EDGE('',*,*,#175,.F.);
#175 = EDGE_CURVE('',#176,#176,#178,.T.);
#176 = VERTEX_POINT('',#177);
#177 = CARTESIAN_POINT('',(7.1,-5.2,0.1));
#178 = CIRCLE('',#179,1.9);
#179 = AXIS2_PLACEMENT_3D('',#180,#181,#182);
#180 = CARTESIAN_POINT('',(5.2,-5.2,0.1));
#181 = DIRECTION('',(0.E+000,0.E+000,1.));
#182 = DIRECTION('',(1.,0.E+000,0.E+000));
#183 = FACE_BOUND('',#184,.F.);
#184 = EDGE_LOOP('',(#185));
#185 = ORIENTED_EDGE('',*,*,#186,.F.);
#186 = EDGE_CURVE('',#187,#187,#189,.T.);
#187 = VERTEX_POINT('',#188);
#188 = CARTESIAN_POINT('',(10.95,0.E+000,1.E-001));
#189 = CIRCLE('',#190,0.55);
#190 = AXIS2_PLACEMENT_3D('',#191,#192,#193);
#191 = CARTESIAN_POINT('',(10.4,0.E+000,1.E-001));
#192 = DIRECTION('',(0.E+000,0.E+000,1.));
#193 = DIRECTION('',(1.,0.E+000,0.E+000));
#194 = PLANE('',#195);
#195 = AXIS2_PLACEMENT_3D('',#196,#197,#198);
#196 = CARTESIAN_POINT('',(-2.425,0.425,0.1));
#197 = DIRECTION('',(0.E+000,0.E+000,1.));
#198 = DIRECTION('',(1.,0.E+000,0.E+000));
#199 = ADVANCED_FACE('',(#200,#219),#230,.T.);
#200 = FACE_BOUND('',#201,.F.);
#201 = EDGE_LOOP('',(#202,#203,#204,#212,#218));
#202 = ORIENTED_EDGE('',*,*,#31,.T.);
#203 = ORIENTED_EDGE('',*,*,#93,.T.);
#204 = ORIENTED_EDGE('',*,*,#205,.T.);
#205 = EDGE_CURVE('',#94,#206,#208,.T.);
#206 = VERTEX_POINT('',#207);
#207 = CARTESIAN_POINT('',(12.825,-12.825,6.4));
#208 = LINE('',#209,#210);
#209 = CARTESIAN_POINT('',(12.825,2.425,6.4));
#210 = VECTOR('',#211,1.);
#211 = DIRECTION('',(0.E+000,-1.,0.E+000));
#212 = ORIENTED_EDGE('',*,*,#213,.T.);
#213 = EDGE_CURVE('',#206,#64,#214,.T.);
#214 = LINE('',#215,#216);
#215 = CARTESIAN_POINT('',(12.825,-12.825,6.4));
#216 = VECTOR('',#217,1.);
#217 = DIRECTION('',(-1.,0.E+000,0.E+000));
#218 = ORIENTED_EDGE('',*,*,#71,.T.);
#219 = FACE_BOUND('',#220,.F.);
#220 = EDGE_LOOP('',(#221));
#221 = ORIENTED_EDGE('',*,*,#222,.T.);
#222 = EDGE_CURVE('',#223,#223,#225,.T.);
#223 = VERTEX_POINT('',#224);
#224 = CARTESIAN_POINT('',(7.1,-5.2,6.4));
#225 = CIRCLE('',#226,1.9);
#226 = AXIS2_PLACEMENT_3D('',#227,#228,#229);
#227 = CARTESIAN_POINT('',(5.2,-5.2,6.4));
#228 = DIRECTION('',(0.E+000,0.E+000,1.));
#229 = DIRECTION('',(1.,0.E+000,0.E+000));
#230 = PLANE('',#231);
#231 = AXIS2_PLACEMENT_3D('',#232,#233,#234);
#232 = CARTESIAN_POINT('',(-2.425,0.425,6.4));
#233 = DIRECTION('',(0.E+000,0.E+000,1.));
#234 = DIRECTION('',(1.,0.E+000,0.E+000));
#235 = ADVANCED_FACE('',(#236),#247,.T.);
#236 = FACE_BOUND('',#237,.T.);
#237 = EDGE_LOOP('',(#238,#244,#245,#246));
#238 = ORIENTED_EDGE('',*,*,#239,.T.);
#239 = EDGE_CURVE('',#126,#206,#240,.T.);
#240 = LINE('',#241,#242);
#241 = CARTESIAN_POINT('',(12.825,-12.825,0.1));
#242 = VECTOR('',#243,1.);
#243 = DIRECTION('',(0.E+000,0.E+000,1.));
#244 = ORIENTED_EDGE('',*,*,#213,.T.);
#245 = ORIENTED_EDGE('',*,*,#61,.F.);
#246 = ORIENTED_EDGE('',*,*,#125,.F.);
#247 = PLANE('',#248);
#248 = AXIS2_PLACEMENT_3D('',#249,#250,#251);
#249 = CARTESIAN_POINT('',(12.825,-12.825,0.1));
#250 = DIRECTION('',(0.E+000,-1.,0.E+000));
#251 = DIRECTION('',(-1.,0.E+000,0.E+000));
#252 = ADVANCED_FACE('',(#253),#259,.T.);
#253 = FACE_BOUND('',#254,.T.);
#254 = EDGE_LOOP('',(#255,#256,#257,#258));
#255 = ORIENTED_EDGE('',*,*,#101,.T.);
#256 = ORIENTED_EDGE('',*,*,#205,.T.);
#257 = ORIENTED_EDGE('',*,*,#239,.F.);
#258 = ORIENTED_EDGE('',*,*,#133,.F.);
#259 = PLANE('',#260);
#260 = AXIS2_PLACEMENT_3D('',#261,#262,#263);
#261 = CARTESIAN_POINT('',(12.825,2.425,0.1));
#262 = DIRECTION('',(1.,0.E+000,0.E+000));
#263 = DIRECTION('',(0.E+000,-1.,0.E+000));
#264 = ADVANCED_FACE('',(#265),#284,.T.);
#265 = FACE_BOUND('',#266,.T.);
#266 = EDGE_LOOP('',(#267,#268,#276,#283));
#267 = ORIENTED_EDGE('',*,*,#142,.F.);
#268 = ORIENTED_EDGE('',*,*,#269,.T.);
#269 = EDGE_CURVE('',#143,#270,#272,.T.);
#270 = VERTEX_POINT('',#271);
#271 = CARTESIAN_POINT('',(0.55,0.E+000,-9.));
#272 = LINE('',#273,#274);
#273 = CARTESIAN_POINT('',(0.55,0.E+000,1.));
#274 = VECTOR('',#275,1.);
#275 = DIRECTION('',(-0.E+000,-0.E+000,-1.));
#276 = ORIENTED_EDGE('',*,*,#277,.T.);
#277 = EDGE_CURVE('',#270,#270,#278,.T.);
#278 = CIRCLE('',#279,0.55);
#279 = AXIS2_PLACEMENT_3D('',#280,#281,#282);
#280 = CARTESIAN_POINT('',(0.E+000,0.E+000,-9.));
#281 = DIRECTION('',(0.E+000,0.E+000,1.));
#282 = DIRECTION('',(1.,0.E+000,0.E+000));
#283 = ORIENTED_EDGE('',*,*,#269,.F.);
#284 = CYLINDRICAL_SURFACE('',#285,0.55);
#285 = AXIS2_PLACEMENT_3D('',#286,#287,#288);
#286 = CARTESIAN_POINT('',(0.E+000,0.E+000,1.));
#287 = DIRECTION('',(0.E+000,0.E+000,1.));
#288 = DIRECTION('',(1.,0.E+000,0.E+000));
#289 = ADVANCED_FACE('',(#290),#309,.T.);
#290 = FACE_BOUND('',#291,.T.);
#291 = EDGE_LOOP('',(#292,#293,#301,#308));
#292 = ORIENTED_EDGE('',*,*,#153,.F.);
#293 = ORIENTED_EDGE('',*,*,#294,.T.);
#294 = EDGE_CURVE('',#154,#295,#297,.T.);
#295 = VERTEX_POINT('',#296);
#296 = CARTESIAN_POINT('',(0.55,-10.4,-9.));
#297 = LINE('',#298,#299);
#298 = CARTESIAN_POINT('',(0.55,-10.4,1.));
#299 = VECTOR('',#300,1.);
#300 = DIRECTION('',(-0.E+000,-0.E+000,-1.));
#301 = ORIENTED_EDGE('',*,*,#302,.T.);
#302 = EDGE_CURVE('',#295,#295,#303,.T.);
#303 = CIRCLE('',#304,0.55);
#304 = AXIS2_PLACEMENT_3D('',#305,#306,#307);
#305 = CARTESIAN_POINT('',(0.E+000,-10.4,-9.));
#306 = DIRECTION('',(0.E+000,0.E+000,1.));
#307 = DIRECTION('',(1.,0.E+000,0.E+000));
#308 = ORIENTED_EDGE('',*,*,#294,.F.);
#309 = CYLINDRICAL_SURFACE('',#310,0.55);
#310 = AXIS2_PLACEMENT_3D('',#311,#312,#313);
#311 = CARTESIAN_POINT('',(0.E+000,-10.4,1.));
#312 = DIRECTION('',(0.E+000,0.E+000,1.));
#313 = DIRECTION('',(1.,0.E+000,0.E+000));
#314 = ADVANCED_FACE('',(#315),#334,.T.);
#315 = FACE_BOUND('',#316,.T.);
#316 = EDGE_LOOP('',(#317,#318,#326,#333));
#317 = ORIENTED_EDGE('',*,*,#164,.F.);
#318 = ORIENTED_EDGE('',*,*,#319,.T.);
#319 = EDGE_CURVE('',#165,#320,#322,.T.);
#320 = VERTEX_POINT('',#321);
#321 = CARTESIAN_POINT('',(10.95,-10.4,-9.));
#322 = LINE('',#323,#324);
#323 = CARTESIAN_POINT('',(10.95,-10.4,1.));
#324 = VECTOR('',#325,1.);
#325 = DIRECTION('',(-0.E+000,-0.E+000,-1.));
#326 = ORIENTED_EDGE('',*,*,#327,.T.);
#327 = EDGE_CURVE('',#320,#320,#328,.T.);
#328 = CIRCLE('',#329,0.55);
#329 = AXIS2_PLACEMENT_3D('',#330,#331,#332);
#330 = CARTESIAN_POINT('',(10.4,-10.4,-9.));
#331 = DIRECTION('',(0.E+000,0.E+000,1.));
#332 = DIRECTION('',(1.,0.E+000,0.E+000));
#333 = ORIENTED_EDGE('',*,*,#319,.F.);
#334 = CYLINDRICAL_SURFACE('',#335,0.55);
#335 = AXIS2_PLACEMENT_3D('',#336,#337,#338);
#336 = CARTESIAN_POINT('',(10.4,-10.4,1.));
#337 = DIRECTION('',(0.E+000,0.E+000,1.));
#338 = DIRECTION('',(1.,0.E+000,0.E+000));
#339 = ADVANCED_FACE('',(#340),#351,.F.);
#340 = FACE_BOUND('',#341,.T.);
#341 = EDGE_LOOP('',(#342,#348,#349,#350));
#342 = ORIENTED_EDGE('',*,*,#343,.T.);
#343 = EDGE_CURVE('',#176,#223,#344,.T.);
#344 = LINE('',#345,#346);
#345 = CARTESIAN_POINT('',(7.1,-5.2,0.1));
#346 = VECTOR('',#347,1.);
#347 = DIRECTION('',(0.E+000,0.E+000,1.));
#348 = ORIENTED_EDGE('',*,*,#222,.T.);
#349 = ORIENTED_EDGE('',*,*,#343,.F.);
#350 = ORIENTED_EDGE('',*,*,#175,.F.);
#351 = CYLINDRICAL_SURFACE('',#352,1.9);
#352 = AXIS2_PLACEMENT_3D('',#353,#354,#355);
#353 = CARTESIAN_POINT('',(5.2,-5.2,0.1));
#354 = DIRECTION('',(-0.E+000,-0.E+000,-1.));
#355 = DIRECTION('',(1.,0.E+000,0.E+000));
#356 = ADVANCED_FACE('',(#357),#376,.T.);
#357 = FACE_BOUND('',#358,.T.);
#358 = EDGE_LOOP('',(#359,#360,#368,#375));
#359 = ORIENTED_EDGE('',*,*,#186,.F.);
#360 = ORIENTED_EDGE('',*,*,#361,.T.);
#361 = EDGE_CURVE('',#187,#362,#364,.T.);
#362 = VERTEX_POINT('',#363);
#363 = CARTESIAN_POINT('',(10.95,0.E+000,-9.));
#364 = LINE('',#365,#366);
#365 = CARTESIAN_POINT('',(10.95,0.E+000,1.));
#366 = VECTOR('',#367,1.);
#367 = DIRECTION('',(-0.E+000,-0.E+000,-1.));
#368 = ORIENTED_EDGE('',*,*,#369,.T.);
#369 = EDGE_CURVE('',#362,#362,#370,.T.);
#370 = CIRCLE('',#371,0.55);
#371 = AXIS2_PLACEMENT_3D('',#372,#373,#374);
#372 = CARTESIAN_POINT('',(10.4,0.E+000,-9.));
#373 = DIRECTION('',(0.E+000,0.E+000,1.));
#374 = DIRECTION('',(1.,0.E+000,0.E+000));
#375 = ORIENTED_EDGE('',*,*,#361,.F.);
#376 = CYLINDRICAL_SURFACE('',#377,0.55);
#377 = AXIS2_PLACEMENT_3D('',#378,#379,#380);
#378 = CARTESIAN_POINT('',(10.4,0.E+000,1.));
#379 = DIRECTION('',(0.E+000,0.E+000,1.));
#380 = DIRECTION('',(1.,0.E+000,0.E+000));
#381 = ADVANCED_FACE('',(#382),#385,.T.);
#382 = FACE_BOUND('',#383,.F.);
#383 = EDGE_LOOP('',(#384));
#384 = ORIENTED_EDGE('',*,*,#277,.T.);
#385 = PLANE('',#386);
#386 = AXIS2_PLACEMENT_3D('',#387,#388,#389);
#387 = CARTESIAN_POINT('',(0.55,0.E+000,-9.));
#388 = DIRECTION('',(0.E+000,0.E+000,-1.));
#389 = DIRECTION('',(-1.,0.E+000,0.E+000));
#390 = ADVANCED_FACE('',(#391),#394,.T.);
#391 = FACE_BOUND('',#392,.F.);
#392 = EDGE_LOOP('',(#393));
#393 = ORIENTED_EDGE('',*,*,#302,.T.);
#394 = PLANE('',#395);
#395 = AXIS2_PLACEMENT_3D('',#396,#397,#398);
#396 = CARTESIAN_POINT('',(0.55,-10.4,-9.));
#397 = DIRECTION('',(0.E+000,0.E+000,-1.));
#398 = DIRECTION('',(-1.,0.E+000,0.E+000));
#399 = ADVANCED_FACE('',(#400),#403,.T.);
#400 = FACE_BOUND('',#401,.F.);
#401 = EDGE_LOOP('',(#402));
#402 = ORIENTED_EDGE('',*,*,#327,.T.);
#403 = PLANE('',#404);
#404 = AXIS2_PLACEMENT_3D('',#405,#406,#407);
#405 = CARTESIAN_POINT('',(10.95,-10.4,-9.));
#406 = DIRECTION('',(0.E+000,0.E+000,-1.));
#407 = DIRECTION('',(-1.,0.E+000,0.E+000));
#408 = ADVANCED_FACE('',(#409),#412,.T.);
#409 = FACE_BOUND('',#410,.F.);
#410 = EDGE_LOOP('',(#411));
#411 = ORIENTED_EDGE('',*,*,#369,.T.);
#412 = PLANE('',#413);
#413 = AXIS2_PLACEMENT_3D('',#414,#415,#416);
#414 = CARTESIAN_POINT('',(10.95,0.E+000,-9.));
#415 = DIRECTION('',(0.E+000,0.E+000,-1.));
#416 = DIRECTION('',(-1.,0.E+000,0.E+000));
#417 = ( GEOMETRIC_REPRESENTATION_CONTEXT(3) 
GLOBAL_UNCERTAINTY_ASSIGNED_CONTEXT((#421)) GLOBAL_UNIT_ASSIGNED_CONTEXT
((#418,#419,#420)) REPRESENTATION_CONTEXT('Context #1',
  '3D Context with UNIT and UNCERTAINTY') );
#418 = ( LENGTH_UNIT() NAMED_UNIT(*) SI_UNIT(.MILLI.,.METRE.) );
#419 = ( NAMED_UNIT(*) PLANE_ANGLE_UNIT() SI_UNIT($,.RADIAN.) );
#420 = ( NAMED_UNIT(*) SI_UNIT($,.STERADIAN.) SOLID_ANGLE_UNIT() );
#421 = UNCERTAINTY_MEASURE_WITH_UNIT(LENGTH_MEASURE(1.E-007),#418,
  'distance_accuracy_value','confusion accuracy');
#422 = PRODUCT_TYPE('part',$,(#7));
#423 = MECHANICAL_DESIGN_GEOMETRIC_PRESENTATION_REPRESENTATION('',(#424,
    #432,#439,#446,#453,#460,#467,#474,#482,#489,#496,#503,#510,#517,
    #524,#531),#417);
#424 = STYLED_ITEM('color',(#425),#17);
#425 = PRESENTATION_STYLE_ASSIGNMENT((#426));
#426 = SURFACE_STYLE_USAGE(.BOTH.,#427);
#427 = SURFACE_SIDE_STYLE('',(#428));
#428 = SURFACE_STYLE_FILL_AREA(#429);
#429 = FILL_AREA_STYLE('',(#430));
#430 = FILL_AREA_STYLE_COLOUR('',#431);
#431 = COLOUR_RGB('',0.148000001907,0.144999995828,0.144999995828);
#432 = STYLED_ITEM('color',(#433),#57);
#433 = PRESENTATION_STYLE_ASSIGNMENT((#434));
#434 = SURFACE_STYLE_USAGE(.BOTH.,#435);
#435 = SURFACE_SIDE_STYLE('',(#436));
#436 = SURFACE_STYLE_FILL_AREA(#437);
#437 = FILL_AREA_STYLE('',(#438));
#438 = FILL_AREA_STYLE_COLOUR('',#431);
#439 = STYLED_ITEM('color',(#440),#88);
#440 = PRESENTATION_STYLE_ASSIGNMENT((#441));
#441 = SURFACE_STYLE_USAGE(.BOTH.,#442);
#442 = SURFACE_SIDE_STYLE('',(#443));
#443 = SURFACE_STYLE_FILL_AREA(#444);
#444 = FILL_AREA_STYLE('',(#445));
#445 = FILL_AREA_STYLE_COLOUR('',#431);
#446 = STYLED_ITEM('color',(#447),#119);
#447 = PRESENTATION_STYLE_ASSIGNMENT((#448));
#448 = SURFACE_STYLE_USAGE(.BOTH.,#449);
#449 = SURFACE_SIDE_STYLE('',(#450));
#450 = SURFACE_STYLE_FILL_AREA(#451);
#451 = FILL_AREA_STYLE('',(#452));
#452 = FILL_AREA_STYLE_COLOUR('',#431);
#453 = STYLED_ITEM('color',(#454),#199);
#454 = PRESENTATION_STYLE_ASSIGNMENT((#455));
#455 = SURFACE_STYLE_USAGE(.BOTH.,#456);
#456 = SURFACE_SIDE_STYLE('',(#457));
#457 = SURFACE_STYLE_FILL_AREA(#458);
#458 = FILL_AREA_STYLE('',(#459));
#459 = FILL_AREA_STYLE_COLOUR('',#431);
#460 = STYLED_ITEM('color',(#461),#235);
#461 = PRESENTATION_STYLE_ASSIGNMENT((#462));
#462 = SURFACE_STYLE_USAGE(.BOTH.,#463);
#463 = SURFACE_SIDE_STYLE('',(#464));
#464 = SURFACE_STYLE_FILL_AREA(#465);
#465 = FILL_AREA_STYLE('',(#466));
#466 = FILL_AREA_STYLE_COLOUR('',#431);
#467 = STYLED_ITEM('color',(#468),#252);
#468 = PRESENTATION_STYLE_ASSIGNMENT((#469));
#469 = SURFACE_STYLE_USAGE(.BOTH.,#470);
#470 = SURFACE_SIDE_STYLE('',(#471));
#471 = SURFACE_STYLE_FILL_AREA(#472);
#472 = FILL_AREA_STYLE('',(#473));
#473 = FILL_AREA_STYLE_COLOUR('',#431);
#474 = STYLED_ITEM('color',(#475),#264);
#475 = PRESENTATION_STYLE_ASSIGNMENT((#476));
#476 = SURFACE_STYLE_USAGE(.BOTH.,#477);
#477 = SURFACE_SIDE_STYLE('',(#478));
#478 = SURFACE_STYLE_FILL_AREA(#479);
#479 = FILL_AREA_STYLE('',(#480));
#480 = FILL_AREA_STYLE_COLOUR('',#481);
#481 = COLOUR_RGB('',0.824000000954,0.819999992847,0.78100001812);
#482 = STYLED_ITEM('color',(#483),#289);
#483 = PRESENTATION_STYLE_ASSIGNMENT((#484));
#484 = SURFACE_STYLE_USAGE(.BOTH.,#485);
#485 = SURFACE_SIDE_STYLE('',(#486));
#486 = SURFACE_STYLE_FILL_AREA(#487);
#487 = FILL_AREA_STYLE('',(#488));
#488 = FILL_AREA_STYLE_COLOUR('',#481);
#489 = STYLED_ITEM('color',(#490),#314);
#490 = PRESENTATION_STYLE_ASSIGNMENT((#491));
#491 = SURFACE_STYLE_USAGE(.BOTH.,#492);
#492 = SURFACE_SIDE_STYLE('',(#493));
#493 = SURFACE_STYLE_FILL_AREA(#494);
#494 = FILL_AREA_STYLE('',(#495));
#495 = FILL_AREA_STYLE_COLOUR('',#481);
#496 = STYLED_ITEM('color',(#497),#339);
#497 = PRESENTATION_STYLE_ASSIGNMENT((#498));
#498 = SURFACE_STYLE_USAGE(.BOTH.,#499);
#499 = SURFACE_SIDE_STYLE('',(#500));
#500 = SURFACE_STYLE_FILL_AREA(#501);
#501 = FILL_AREA_STYLE('',(#502));
#502 = FILL_AREA_STYLE_COLOUR('',#431);
#503 = STYLED_ITEM('color',(#504),#356);
#504 = PRESENTATION_STYLE_ASSIGNMENT((#505));
#505 = SURFACE_STYLE_USAGE(.BOTH.,#506);
#506 = SURFACE_SIDE_STYLE('',(#507));
#507 = SURFACE_STYLE_FILL_AREA(#508);
#508 = FILL_AREA_STYLE('',(#509));
#509 = FILL_AREA_STYLE_COLOUR('',#481);
#510 = STYLED_ITEM('color',(#511),#381);
#511 = PRESENTATION_STYLE_ASSIGNMENT((#512));
#512 = SURFACE_STYLE_USAGE(.BOTH.,#513);
#513 = SURFACE_SIDE_STYLE('',(#514));
#514 = SURFACE_STYLE_FILL_AREA(#515);
#515 = FILL_AREA_STYLE('',(#516));
#516 = FILL_AREA_STYLE_COLOUR('',#481);
#517 = STYLED_ITEM('color',(#518),#390);
#518 = PRESENTATION_STYLE_ASSIGNMENT((#519));
#519 = SURFACE_STYLE_USAGE(.BOTH.,#520);
#520 = SURFACE_SIDE_STYLE('',(#521));
#521 = SURFACE_STYLE_FILL_AREA(#522);
#522 = FILL_AREA_STYLE('',(#523));
#523 = FILL_AREA_STYLE_COLOUR('',#481);
#524 = STYLED_ITEM('color',(#525),#399);
#525 = PRESENTATION_STYLE_ASSIGNMENT((#526));
#526 = SURFACE_STYLE_USAGE(.BOTH.,#527);
#527 = SURFACE_SIDE_STYLE('',(#528));
#528 = SURFACE_STYLE_FILL_AREA(#529);
#529 = FILL_AREA_STYLE('',(#530));
#530 = FILL_AREA_STYLE_COLOUR('',#481);
#531 = STYLED_ITEM('color',(#532),#408);
#532 = PRESENTATION_STYLE_ASSIGNMENT((#533));
#533 = SURFACE_STYLE_USAGE(.BOTH.,#534);
#534 = SURFACE_SIDE_STYLE('',(#535));
#535 = SURFACE_STYLE_FILL_AREA(#536);
#536 = FILL_AREA_STYLE('',(#537));
#537 = FILL_AREA_STYLE_COLOUR('',#481);
ENDSEC;
END-ISO-10303-21;
