ISO-10303-21;
HEADER;
/* RV_Disc_D21.5mm_W5.4mm_P10mm.step 3D STEP model for use in ECAD systems
 * Copyright (C) 2018, kicad StepUp
 * 
 * This work is licensed under the [Creative Commons CC-BY-SA 4.0 License](https://creativecommons.org/licenses/by-sa/4.0/legalcode), 
 * with the following exception:
 * To the extent that the creation of electronic designs that use 'Licensed Material' can be considered to be 'Adapted Material', 
 * then the copyright holder waives article 3 of the license with respect to these designs and any generated files which use data provided 
 * as part of the 'Licensed Material'.
 * You are free to use the library data in your own projects without the obligation to share your project files under this or any other license agreement.
 * However, if you wish to redistribute these libraries, or parts thereof (including in modified form) as a collection then the exception above does not apply. 
 * Please refer to https://github.com/KiCad/kicad-packages3D/blob/master/LICENSE.md for further clarification of the exception.
 * Disclaimer of Warranties and Limitation of Liability.
 * These libraries are provided in the hope that they will be useful, but are provided without warranty of any kind, express or implied.
 * *USE 3D CAD DATA AT YOUR OWN RISK*
 * *DO NOT RELY UPON ANY INFORMATION FOUND HERE WITHOUT INDEPENDENT VERIFICATION.*
 * 
 */

FILE_DESCRIPTION(
/* description */ ('model of RV_Disc_D21.5mm_W5.4mm_P10mm'),
/* implementation_level */ '2;1');

FILE_NAME(
/* name */ 'RV_Disc_D21.5mm_W5.4mm_P10mm.step',
/* time_stamp */ '2018-11-11T21:03:51',
/* author */ ('kicad StepUp','ksu'),
/* organization */ ('FreeCAD'),
/* preprocessor_version */ 'OCC',
/* originating_system */ 'kicad StepUp',
/* authorisation */ '');

FILE_SCHEMA(('AUTOMOTIVE_DESIGN { 1 0 10303 214 1 1 1 1 }'));
ENDSEC;

DATA;
#1 = APPLICATION_PROTOCOL_DEFINITION('international standard',
'automotive_design',2000,#2);
#2 = APPLICATION_CONTEXT(
'core data for automotive mechanical design processes');
#3 = SHAPE_DEFINITION_REPRESENTATION(#4,#10);
#4 = PRODUCT_DEFINITION_SHAPE('','',#5);
#5 = PRODUCT_DEFINITION('design','',#6,#9);
#6 = PRODUCT_DEFINITION_FORMATION('','',#7);
#7 = PRODUCT('RV_Disc_D215mm_W54mm_P10mm','RV_Disc_D215mm_W54mm_P10mm',
'',(#8));
#8 = PRODUCT_CONTEXT('',#2,'mechanical');
#9 = PRODUCT_DEFINITION_CONTEXT('part definition',#2,'design');
#10 = ADVANCED_BREP_SHAPE_REPRESENTATION('',(#11,#15),#399);
#11 = AXIS2_PLACEMENT_3D('',#12,#13,#14);
#12 = CARTESIAN_POINT('',(0.E+000,0.E+000,0.E+000));
#13 = DIRECTION('',(0.E+000,0.E+000,1.));
#14 = DIRECTION('',(1.,0.E+000,-0.E+000));
#15 = MANIFOLD_SOLID_BREP('',#16);
#16 = CLOSED_SHELL('',(#17,#50,#155,#259,#268,#294,#303,#329,#355,#381,
#390));
#17 = ADVANCED_FACE('',(#18),#45,.T.);
#18 = FACE_BOUND('',#19,.F.);
#19 = EDGE_LOOP('',(#20,#30,#37,#38));
#20 = ORIENTED_EDGE('',*,*,#21,.T.);
#21 = EDGE_CURVE('',#22,#24,#26,.T.);
#22 = VERTEX_POINT('',#23);
#23 = CARTESIAN_POINT('',(15.75,-1.109146341463,10.78));
#24 = VERTEX_POINT('',#25);
#25 = CARTESIAN_POINT('',(15.75,-1.240853658537,10.78));
#26 = LINE('',#27,#28);
#27 = CARTESIAN_POINT('',(15.75,1.525,10.78));
#28 = VECTOR('',#29,1.);
#29 = DIRECTION('',(0.E+000,-1.,0.E+000));
#30 = ORIENTED_EDGE('',*,*,#31,.T.);
#31 = EDGE_CURVE('',#24,#24,#32,.T.);
#32 = CIRCLE('',#33,10.75);
#33 = AXIS2_PLACEMENT_3D('',#34,#35,#36);
#34 = CARTESIAN_POINT('',(5.,-1.240853658537,10.78));
#35 = DIRECTION('',(0.E+000,-1.,0.E+000));
#36 = DIRECTION('',(1.,0.E+000,0.E+000));
#37 = ORIENTED_EDGE('',*,*,#21,.F.);
#38 = ORIENTED_EDGE('',*,*,#39,.F.);
#39 = EDGE_CURVE('',#22,#22,#40,.T.);
#40 = CIRCLE('',#41,10.75);
#41 = AXIS2_PLACEMENT_3D('',#42,#43,#44);
#42 = CARTESIAN_POINT('',(5.,-1.109146341463,10.78));
#43 = DIRECTION('',(0.E+000,-1.,0.E+000));
#44 = DIRECTION('',(1.,0.E+000,0.E+000));
#45 = CYLINDRICAL_SURFACE('',#46,10.75);
#46 = AXIS2_PLACEMENT_3D('',#47,#48,#49);
#47 = CARTESIAN_POINT('',(5.,1.525,10.78));
#48 = DIRECTION('',(0.E+000,1.,0.E+000));
#49 = DIRECTION('',(1.,0.E+000,0.E+000));
#50 = ADVANCED_FACE('',(#51,#71),#150,.T.);
#51 = FACE_BOUND('',#52,.F.);
#52 = EDGE_LOOP('',(#53,#54,#63,#70));
#53 = ORIENTED_EDGE('',*,*,#39,.T.);
#54 = ORIENTED_EDGE('',*,*,#55,.T.);
#55 = EDGE_CURVE('',#22,#56,#58,.T.);
#56 = VERTEX_POINT('',#57);
#57 = CARTESIAN_POINT('',(13.115853658537,1.525,10.78));
#58 = CIRCLE('',#59,2.634146341463);
#59 = AXIS2_PLACEMENT_3D('',#60,#61,#62);
#60 = CARTESIAN_POINT('',(13.115853658537,-1.109146341463,10.78));
#61 = DIRECTION('',(0.E+000,0.E+000,1.));
#62 = DIRECTION('',(1.,0.E+000,0.E+000));
#63 = ORIENTED_EDGE('',*,*,#64,.F.);
#64 = EDGE_CURVE('',#56,#56,#65,.T.);
#65 = CIRCLE('',#66,8.115853658537);
#66 = AXIS2_PLACEMENT_3D('',#67,#68,#69);
#67 = CARTESIAN_POINT('',(5.,1.525,10.78));
#68 = DIRECTION('',(0.E+000,-1.,0.E+000));
#69 = DIRECTION('',(1.,0.E+000,0.E+000));
#70 = ORIENTED_EDGE('',*,*,#55,.F.);
#71 = FACE_BOUND('',#72,.F.);
#72 = EDGE_LOOP('',(#73,#103));
#73 = ORIENTED_EDGE('',*,*,#74,.T.);
#74 = EDGE_CURVE('',#75,#77,#79,.T.);
#75 = VERTEX_POINT('',#76);
#76 = CARTESIAN_POINT('',(0.45,0.E+000,1.311381923128));
#77 = VERTEX_POINT('',#78);
#78 = CARTESIAN_POINT('',(-0.274617057334,-0.356490493311,1.539226297153
));
#79 = B_SPLINE_CURVE_WITH_KNOTS('',8,(#80,#81,#82,#83,#84,#85,#86,#87,
#88,#89,#90,#91,#92,#93,#94,#95,#96,#97,#98,#99,#100,#101,#102),
.UNSPECIFIED.,.F.,.F.,(9,7,7,9),(0.E+000,0.248867925115,0.455726573541
,1.),.UNSPECIFIED.);
#80 = CARTESIAN_POINT('',(0.45,-1.665334536938E-016,1.311381923128));
#81 = CARTESIAN_POINT('',(0.45,-2.922213650771E-002,1.296331358448));
#82 = CARTESIAN_POINT('',(0.447831241458,-5.876065863785E-002,
1.282716008556));
#83 = CARTESIAN_POINT('',(0.44341172777,-8.843420101728E-002,
1.270669763174));
#84 = CARTESIAN_POINT('',(0.436674535264,-0.118036757238,1.260316955808)
);
#85 = CARTESIAN_POINT('',(0.427577434355,-0.147337082687,1.251764844224)
);
#86 = CARTESIAN_POINT('',(0.416112643292,-0.176082360957,1.245096179064)
);
#87 = CARTESIAN_POINT('',(0.402316714483,-0.204006133827,1.240361860625)
);
#88 = CARTESIAN_POINT('',(0.372951320248,-0.253145175681,1.235256155343)
);
#89 = CARTESIAN_POINT('',(0.358071458742,-0.274702080871,1.234282703299)
);
#90 = CARTESIAN_POINT('',(0.341691667387,-0.295356899258,1.234661264688)
);
#91 = CARTESIAN_POINT('',(0.323882956429,-0.314964144208,1.236380257733)
);
#92 = CARTESIAN_POINT('',(0.30473444852,-0.333389104615,1.239411157134)
);
#93 = CARTESIAN_POINT('',(0.284351179373,-0.350509795934,1.24371106936)
);
#94 = CARTESIAN_POINT('',(0.262851898407,-0.366218911213,1.249225307939)
);
#95 = CARTESIAN_POINT('',(0.181205679507,-0.417805968331,1.273425603845)
);
#96 = CARTESIAN_POINT('',(0.114521365497,-0.445227599831,1.299132282858)
);
#97 = CARTESIAN_POINT('',(4.32276328759E-002,-0.460080818901,
1.331933668116));
#98 = CARTESIAN_POINT('',(-2.907078129465E-002,-0.461584056884,
1.369745143411));
#99 = CARTESIAN_POINT('',(-9.915084969433E-002,-0.45036925573,
1.410677964031));
#100 = CARTESIAN_POINT('',(-0.164472972049,-0.42789680039,1.453263262898
));
#101 = CARTESIAN_POINT('',(-0.223321058223,-0.396005590048,
1.496380555093));
#102 = CARTESIAN_POINT('',(-0.274617057334,-0.356490493311,
1.539226297153));
#103 = ORIENTED_EDGE('',*,*,#104,.T.);
#104 = EDGE_CURVE('',#77,#75,#105,.T.);
#105 = B_SPLINE_CURVE_WITH_KNOTS('',7,(#106,#107,#108,#109,#110,#111,
#112,#113,#114,#115,#116,#117,#118,#119,#120,#121,#122,#123,#124,
#125,#126,#127,#128,#129,#130,#131,#132,#133,#134,#135,#136,#137,
#138,#139,#140,#141,#142,#143,#144,#145,#146,#147,#148,#149),
.UNSPECIFIED.,.F.,.F.,(8,6,6,6,6,6,6,8),(0.E+000,8.372403235859E-002,
0.350005939444,0.406826008552,0.497670469364,0.636961193801,
0.790737562697,1.),.UNSPECIFIED.);
#106 = CARTESIAN_POINT('',(-0.274617057334,-0.356490493311,
1.539226297153));
#107 = CARTESIAN_POINT('',(-0.291920483185,-0.343161061031,
1.553679239558));
#108 = CARTESIAN_POINT('',(-0.308383231319,-0.328917909093,
1.568131146334));
#109 = CARTESIAN_POINT('',(-0.323962137218,-0.313822187482,
1.582555226059));
#110 = CARTESIAN_POINT('',(-0.338618388443,-0.297935097418,
1.596926848838));
#111 = CARTESIAN_POINT('',(-0.352317083939,-0.281317755622,
1.611222824977));
#112 = CARTESIAN_POINT('',(-0.365026793342,-0.264031058587,
1.625420683674));
#113 = CARTESIAN_POINT('',(-0.413906217354,-0.189219380005,
1.684270302852));
#114 = CARTESIAN_POINT('',(-0.440756629405,-0.126213869566,
1.727768142666));
#115 = CARTESIAN_POINT('',(-0.456466920016,-5.89969974706E-002,
1.769353623161));
#116 = CARTESIAN_POINT('',(-0.460353141959,1.054307326466E-002,
1.808272752171));
#117 = CARTESIAN_POINT('',(-0.451916125619,8.031106431198E-002,
1.843477754112));
#118 = CARTESIAN_POINT('',(-0.430903113378,0.148011839714,1.873379022814
));
#119 = CARTESIAN_POINT('',(-0.390333018738,0.224436330513,1.900520425773
));
#120 = CARTESIAN_POINT('',(-0.38263553949,0.237656344674,1.90494866569)
);
#121 = CARTESIAN_POINT('',(-0.37437850235,0.25062911084,1.909010312628)
);
#122 = CARTESIAN_POINT('',(-0.365567123405,0.263325761589,1.91268220257)
);
#123 = CARTESIAN_POINT('',(-0.356208935191,0.275716298916,1.91594033237)
);
#124 = CARTESIAN_POINT('',(-0.346314232479,0.287769927433,1.918760384725
));
#125 = CARTESIAN_POINT('',(-0.319240578298,0.31813821115,1.924888035384)
);
#126 = CARTESIAN_POINT('',(-0.301246788861,0.335881077089,1.927476503179
));
#127 = CARTESIAN_POINT('',(-0.281971374068,0.352554300705,1.928785369035
));
#128 = CARTESIAN_POINT('',(-0.26149467681,0.368024567576,1.928717668135)
);
#129 = CARTESIAN_POINT('',(-0.239922648669,0.382163454022,1.927189585368
));
#130 = CARTESIAN_POINT('',(-0.217388340037,0.394855947597,1.924142282339
));
#131 = CARTESIAN_POINT('',(-0.158274190975,0.423109759587,1.912518143379
));
#132 = CARTESIAN_POINT('',(-0.12057687607,0.436608634148,1.901852533845)
);
#133 = CARTESIAN_POINT('',(-8.157711296053E-002,0.446137685204,
1.887474868096));
#134 = CARTESIAN_POINT('',(-4.199918607523E-002,0.451510320979,
1.869525070286));
#135 = CARTESIAN_POINT('',(-2.606460003307E-003,0.452754603318,
1.848421311356));
#136 = CARTESIAN_POINT('',(3.586187036505E-002,0.450123322873,
1.824831778964));
#137 = CARTESIAN_POINT('',(0.113469589353,0.437409901698,1.771664107889)
);
#138 = CARTESIAN_POINT('',(0.152427758989,0.426554217785,1.741605110139)
);
#139 = CARTESIAN_POINT('',(0.189285826342,0.411985504498,1.710046704218)
);
#140 = CARTESIAN_POINT('',(0.223837451804,0.394122630547,1.677579230477)
);
#141 = CARTESIAN_POINT('',(0.2559517201,0.373312296943,1.644690984067));
#142 = CARTESIAN_POINT('',(0.285527893726,0.349820514632,1.6117705448));
#143 = CARTESIAN_POINT('',(0.349108844031,0.288472957071,1.534740433753)
);
#144 = CARTESIAN_POINT('',(0.380803934391,0.248548079495,1.490948647603)
);
#145 = CARTESIAN_POINT('',(0.407253625595,0.204598722303,1.44863263367)
);
#146 = CARTESIAN_POINT('',(0.428011554551,0.15708862791,1.40862609342));
#147 = CARTESIAN_POINT('',(0.442481324223,0.106577661878,1.371813700381)
);
#148 = CARTESIAN_POINT('',(0.45,5.385005474931E-002,1.339116847022));
#149 = CARTESIAN_POINT('',(0.45,-1.665334536938E-016,1.311381923128));
#150 = TOROIDAL_SURFACE('',#151,8.115853658537,2.634146341463);
#151 = AXIS2_PLACEMENT_3D('',#152,#153,#154);
#152 = CARTESIAN_POINT('',(5.,-1.109146341463,10.78));
#153 = DIRECTION('',(0.E+000,1.,0.E+000));
#154 = DIRECTION('',(1.,0.E+000,0.E+000));
#155 = ADVANCED_FACE('',(#156,#176),#254,.T.);
#156 = FACE_BOUND('',#157,.T.);
#157 = EDGE_LOOP('',(#158,#159,#168,#175));
#158 = ORIENTED_EDGE('',*,*,#31,.T.);
#159 = ORIENTED_EDGE('',*,*,#160,.T.);
#160 = EDGE_CURVE('',#24,#161,#163,.T.);
#161 = VERTEX_POINT('',#162);
#162 = CARTESIAN_POINT('',(13.115853658537,-3.875,10.78));
#163 = CIRCLE('',#164,2.634146341463);
#164 = AXIS2_PLACEMENT_3D('',#165,#166,#167);
#165 = CARTESIAN_POINT('',(13.115853658537,-1.240853658537,10.78));
#166 = DIRECTION('',(0.E+000,0.E+000,-1.));
#167 = DIRECTION('',(1.,0.E+000,0.E+000));
#168 = ORIENTED_EDGE('',*,*,#169,.F.);
#169 = EDGE_CURVE('',#161,#161,#170,.T.);
#170 = CIRCLE('',#171,8.115853658537);
#171 = AXIS2_PLACEMENT_3D('',#172,#173,#174);
#172 = CARTESIAN_POINT('',(5.,-3.875,10.78));
#173 = DIRECTION('',(0.E+000,-1.,0.E+000));
#174 = DIRECTION('',(1.,0.E+000,0.E+000));
#175 = ORIENTED_EDGE('',*,*,#160,.F.);
#176 = FACE_BOUND('',#177,.T.);
#177 = EDGE_LOOP('',(#178,#201));
#178 = ORIENTED_EDGE('',*,*,#179,.T.);
#179 = EDGE_CURVE('',#180,#182,#184,.T.);
#180 = VERTEX_POINT('',#181);
#181 = CARTESIAN_POINT('',(10.45,-2.35,1.799202246701));
#182 = VERTEX_POINT('',#183);
#183 = CARTESIAN_POINT('',(9.795372631699,-1.949216217716,1.267369996289
));
#184 = B_SPLINE_CURVE_WITH_KNOTS('',8,(#185,#186,#187,#188,#189,#190,
#191,#192,#193,#194,#195,#196,#197,#198,#199,#200),.UNSPECIFIED.,.F.
,.F.,(9,7,9),(0.E+000,0.298743904388,1.),.UNSPECIFIED.);
#185 = CARTESIAN_POINT('',(10.45,-2.35,1.799202246701));
#186 = CARTESIAN_POINT('',(10.45,-2.31690939905,1.781233525647));
#187 = CARTESIAN_POINT('',(10.447219085302,-2.283971975455,1.76241615406
));
#188 = CARTESIAN_POINT('',(10.441702261063,-2.251410700816,
1.742878901615));
#189 = CARTESIAN_POINT('',(10.433503129513,-2.219442690555,
1.722731392319));
#190 = CARTESIAN_POINT('',(10.422684726101,-2.188280460124,
1.702068373198));
#191 = CARTESIAN_POINT('',(10.409320355627,-2.158133181224,
1.680973982989));
#192 = CARTESIAN_POINT('',(10.393494428383,-2.129207938018,
1.659526020832));
#193 = CARTESIAN_POINT('',(10.332602367257,-2.037166044394,
1.586802174231));
#194 = CARTESIAN_POINT('',(10.277066256354,-1.98078976415,1.534509115199
));
#195 = CARTESIAN_POINT('',(10.209757659227,-1.934517090956,
1.481448286633));
#196 = CARTESIAN_POINT('',(10.131838718533,-1.901295618443,
1.428538978489));
#197 = CARTESIAN_POINT('',(10.046046938364,-1.884665379942,
1.377564991799));
#198 = CARTESIAN_POINT('',(9.95704764081,-1.887516755374,1.331166414052)
);
#199 = CARTESIAN_POINT('',(9.871524883309,-1.910335316027,1.293601919915
));
#200 = CARTESIAN_POINT('',(9.795372631699,-1.949216217716,1.267369996289
));
#201 = ORIENTED_EDGE('',*,*,#202,.T.);
#202 = EDGE_CURVE('',#182,#180,#203,.T.);
#203 = B_SPLINE_CURVE_WITH_KNOTS('',7,(#204,#205,#206,#207,#208,#209,
#210,#211,#212,#213,#214,#215,#216,#217,#218,#219,#220,#221,#222,
#223,#224,#225,#226,#227,#228,#229,#230,#231,#232,#233,#234,#235,
#236,#237,#238,#239,#240,#241,#242,#243,#244,#245,#246,#247,#248,
#249,#250,#251,#252,#253),.UNSPECIFIED.,.F.,.F.,(8,6,6,6,6,6,6,6,8),
(0.E+000,0.125078346706,0.234231470952,0.289197962371,0.454819922974,
0.609096538016,0.79337132359,0.868803650667,1.),.UNSPECIFIED.);
#204 = CARTESIAN_POINT('',(9.795372631699,-1.949216217716,1.267369996289
));
#205 = CARTESIAN_POINT('',(9.763046669632,-1.965720819044,1.256234775068
));
#206 = CARTESIAN_POINT('',(9.732299480915,-1.985253867441,1.247134503073
));
#207 = CARTESIAN_POINT('',(9.703506533988,-2.007613773426,1.240261116076
));
#208 = CARTESIAN_POINT('',(9.677006941411,-2.032528194407,1.235779584209
));
#209 = CARTESIAN_POINT('',(9.653088270188,-2.059664470008,1.233810255667
));
#210 = CARTESIAN_POINT('',(9.631971352077,-2.088640057395,1.234411200406
));
#211 = CARTESIAN_POINT('',(9.59793307289,-2.145556190503,1.240308925382)
);
#212 = CARTESIAN_POINT('',(9.584306013266,-2.173166613911,1.24499883316)
);
#213 = CARTESIAN_POINT('',(9.573007277146,-2.201587960504,1.251618080158
));
#214 = CARTESIAN_POINT('',(9.564070698624,-2.230544651149,1.260111239143
));
#215 = CARTESIAN_POINT('',(9.557482260371,-2.259777658616,1.270388061081
));
#216 = CARTESIAN_POINT('',(9.553192197879,-2.289053215717,1.282332612034
));
#217 = CARTESIAN_POINT('',(9.550087822469,-2.332823951648,1.302601558533
));
#218 = CARTESIAN_POINT('',(9.549612357392,-2.34744301719,1.309780020586)
);
#219 = CARTESIAN_POINT('',(9.549691882991,-2.361995998586,1.31733218821)
);
#220 = CARTESIAN_POINT('',(9.550315846513,-2.37645936868,1.325240984714)
);
#221 = CARTESIAN_POINT('',(9.551472800473,-2.390811563808,1.333488863532
));
#222 = CARTESIAN_POINT('',(9.553150807537,-2.405032899556,1.342058078506
));
#223 = CARTESIAN_POINT('',(9.561927705686,-2.461508219222,1.377666207368
));
#224 = CARTESIAN_POINT('',(9.573136694415,-2.502544607408,1.407148435964
));
#225 = CARTESIAN_POINT('',(9.588632365804,-2.541750896178,1.438905158618
));
#226 = CARTESIAN_POINT('',(9.608085786262,-2.578770525266,1.472456558232
));
#227 = CARTESIAN_POINT('',(9.631209255044,-2.613317683634,1.507336797525
));
#228 = CARTESIAN_POINT('',(9.6577760059,-2.64513043858,1.543089977695));
#229 = CARTESIAN_POINT('',(9.715423286988,-2.700724762684,1.612915122798
));
#230 = CARTESIAN_POINT('',(9.746037570028,-2.724876178201,1.646895570033
));
#231 = CARTESIAN_POINT('',(9.779351138415,-2.746166606902,1.680830724468
));
#232 = CARTESIAN_POINT('',(9.815256319236,-2.764301535489,1.71429382453)
);
#233 = CARTESIAN_POINT('',(9.853606715952,-2.778891154671,1.746738696574
));
#234 = CARTESIAN_POINT('',(9.894162019336,-2.789464610586,1.777500030081
));
#235 = CARTESIAN_POINT('',(9.987119242545,-2.802709745602,1.839685979248
));
#236 = CARTESIAN_POINT('',(10.040520430416,-2.803478399612,
1.870229408922));
#237 = CARTESIAN_POINT('',(10.094920898117,-2.796648919069,
1.895382715071));
#238 = CARTESIAN_POINT('',(10.148320040172,-2.781906468117,
1.913658550706));
#239 = CARTESIAN_POINT('',(10.198843291192,-2.759724706088,
1.924728343928));
#240 = CARTESIAN_POINT('',(10.245056162706,-2.731135743005,
1.929055352455));
#241 = CARTESIAN_POINT('',(10.302802818532,-2.6835902873,1.92678726632)
);
#242 = CARTESIAN_POINT('',(10.318707179552,-2.668910251301,
1.925133342837));
#243 = CARTESIAN_POINT('',(10.333684613137,-2.653439107572,
1.922537951164));
#244 = CARTESIAN_POINT('',(10.347690853608,-2.637258188419,
1.919061438595));
#245 = CARTESIAN_POINT('',(10.360693960287,-2.620448376343,
1.914767075162));
#246 = CARTESIAN_POINT('',(10.372672223996,-2.603087600067,
1.909717315299));
#247 = CARTESIAN_POINT('',(10.402639304708,-2.554221221532,
1.893974093464));
#248 = CARTESIAN_POINT('',(10.418520278409,-2.521754902263,
1.881871031881));
#249 = CARTESIAN_POINT('',(10.431192472553,-2.488223147373,
1.867967036649));
#250 = CARTESIAN_POINT('',(10.440644396729,-2.453975454134,
1.852536449387));
#251 = CARTESIAN_POINT('',(10.44689905397,-2.419332133227,1.835811687335
));
#252 = CARTESIAN_POINT('',(10.45,-2.384584476258,1.817982165736));
#253 = CARTESIAN_POINT('',(10.45,-2.35,1.799202246701));
#254 = TOROIDAL_SURFACE('',#255,8.115853658537,2.634146341463);
#255 = AXIS2_PLACEMENT_3D('',#256,#257,#258);
#256 = CARTESIAN_POINT('',(5.,-1.240853658537,10.78));
#257 = DIRECTION('',(0.E+000,-1.,0.E+000));
#258 = DIRECTION('',(1.,0.E+000,0.E+000));
#259 = ADVANCED_FACE('',(#260),#263,.F.);
#260 = FACE_BOUND('',#261,.F.);
#261 = EDGE_LOOP('',(#262));
#262 = ORIENTED_EDGE('',*,*,#64,.T.);
#263 = PLANE('',#264);
#264 = AXIS2_PLACEMENT_3D('',#265,#266,#267);
#265 = CARTESIAN_POINT('',(5.,1.525,10.78));
#266 = DIRECTION('',(-0.E+000,-1.,-0.E+000));
#267 = DIRECTION('',(0.E+000,0.E+000,-1.));
#268 = ADVANCED_FACE('',(#269),#289,.T.);
#269 = FACE_BOUND('',#270,.T.);
#270 = EDGE_LOOP('',(#271,#272,#280,#287,#288));
#271 = ORIENTED_EDGE('',*,*,#104,.T.);
#272 = ORIENTED_EDGE('',*,*,#273,.T.);
#273 = EDGE_CURVE('',#75,#274,#276,.T.);
#274 = VERTEX_POINT('',#275);
#275 = CARTESIAN_POINT('',(0.45,0.E+000,-2.82));
#276 = LINE('',#277,#278);
#277 = CARTESIAN_POINT('',(0.45,0.E+000,10.78));
#278 = VECTOR('',#279,1.);
#279 = DIRECTION('',(-0.E+000,-0.E+000,-1.));
#280 = ORIENTED_EDGE('',*,*,#281,.T.);
#281 = EDGE_CURVE('',#274,#274,#282,.T.);
#282 = CIRCLE('',#283,0.45);
#283 = AXIS2_PLACEMENT_3D('',#284,#285,#286);
#284 = CARTESIAN_POINT('',(0.E+000,0.E+000,-2.82));
#285 = DIRECTION('',(0.E+000,0.E+000,1.));
#286 = DIRECTION('',(1.,0.E+000,0.E+000));
#287 = ORIENTED_EDGE('',*,*,#273,.F.);
#288 = ORIENTED_EDGE('',*,*,#74,.T.);
#289 = CYLINDRICAL_SURFACE('',#290,0.45);
#290 = AXIS2_PLACEMENT_3D('',#291,#292,#293);
#291 = CARTESIAN_POINT('',(0.E+000,0.E+000,10.78));
#292 = DIRECTION('',(0.E+000,0.E+000,1.));
#293 = DIRECTION('',(1.,0.E+000,0.E+000));
#294 = ADVANCED_FACE('',(#295),#298,.T.);
#295 = FACE_BOUND('',#296,.T.);
#296 = EDGE_LOOP('',(#297));
#297 = ORIENTED_EDGE('',*,*,#169,.T.);
#298 = PLANE('',#299);
#299 = AXIS2_PLACEMENT_3D('',#300,#301,#302);
#300 = CARTESIAN_POINT('',(5.,-3.875,10.78));
#301 = DIRECTION('',(-0.E+000,-1.,-0.E+000));
#302 = DIRECTION('',(0.E+000,0.E+000,-1.));
#303 = ADVANCED_FACE('',(#304),#324,.T.);
#304 = FACE_BOUND('',#305,.T.);
#305 = EDGE_LOOP('',(#306,#307,#315,#322,#323));
#306 = ORIENTED_EDGE('',*,*,#179,.F.);
#307 = ORIENTED_EDGE('',*,*,#308,.T.);
#308 = EDGE_CURVE('',#180,#309,#311,.T.);
#309 = VERTEX_POINT('',#310);
#310 = CARTESIAN_POINT('',(10.45,-2.35,-2.82));
#311 = LINE('',#312,#313);
#312 = CARTESIAN_POINT('',(10.45,-2.35,10.78));
#313 = VECTOR('',#314,1.);
#314 = DIRECTION('',(-0.E+000,-0.E+000,-1.));
#315 = ORIENTED_EDGE('',*,*,#316,.T.);
#316 = EDGE_CURVE('',#309,#309,#317,.T.);
#317 = CIRCLE('',#318,0.45);
#318 = AXIS2_PLACEMENT_3D('',#319,#320,#321);
#319 = CARTESIAN_POINT('',(10.,-2.35,-2.82));
#320 = DIRECTION('',(0.E+000,0.E+000,1.));
#321 = DIRECTION('',(1.,0.E+000,0.E+000));
#322 = ORIENTED_EDGE('',*,*,#308,.F.);
#323 = ORIENTED_EDGE('',*,*,#202,.F.);
#324 = CYLINDRICAL_SURFACE('',#325,0.45);
#325 = AXIS2_PLACEMENT_3D('',#326,#327,#328);
#326 = CARTESIAN_POINT('',(10.,-2.35,10.78));
#327 = DIRECTION('',(0.E+000,0.E+000,1.));
#328 = DIRECTION('',(1.,0.E+000,0.E+000));
#329 = ADVANCED_FACE('',(#330),#350,.T.);
#330 = FACE_BOUND('',#331,.F.);
#331 = EDGE_LOOP('',(#332,#341,#342,#343));
#332 = ORIENTED_EDGE('',*,*,#333,.F.);
#333 = EDGE_CURVE('',#274,#334,#336,.T.);
#334 = VERTEX_POINT('',#335);
#335 = CARTESIAN_POINT('',(0.27,0.E+000,-3.));
#336 = CIRCLE('',#337,0.18);
#337 = AXIS2_PLACEMENT_3D('',#338,#339,#340);
#338 = CARTESIAN_POINT('',(0.27,0.E+000,-2.82));
#339 = DIRECTION('',(-0.E+000,1.,0.E+000));
#340 = DIRECTION('',(1.,0.E+000,0.E+000));
#341 = ORIENTED_EDGE('',*,*,#281,.T.);
#342 = ORIENTED_EDGE('',*,*,#333,.T.);
#343 = ORIENTED_EDGE('',*,*,#344,.F.);
#344 = EDGE_CURVE('',#334,#334,#345,.T.);
#345 = CIRCLE('',#346,0.27);
#346 = AXIS2_PLACEMENT_3D('',#347,#348,#349);
#347 = CARTESIAN_POINT('',(0.E+000,0.E+000,-3.));
#348 = DIRECTION('',(0.E+000,0.E+000,1.));
#349 = DIRECTION('',(1.,0.E+000,0.E+000));
#350 = TOROIDAL_SURFACE('',#351,0.27,0.18);
#351 = AXIS2_PLACEMENT_3D('',#352,#353,#354);
#352 = CARTESIAN_POINT('',(0.E+000,0.E+000,-2.82));
#353 = DIRECTION('',(-0.E+000,-0.E+000,-1.));
#354 = DIRECTION('',(1.,0.E+000,0.E+000));
#355 = ADVANCED_FACE('',(#356),#376,.T.);
#356 = FACE_BOUND('',#357,.F.);
#357 = EDGE_LOOP('',(#358,#367,#368,#369));
#358 = ORIENTED_EDGE('',*,*,#359,.F.);
#359 = EDGE_CURVE('',#309,#360,#362,.T.);
#360 = VERTEX_POINT('',#361);
#361 = CARTESIAN_POINT('',(10.27,-2.35,-3.));
#362 = CIRCLE('',#363,0.18);
#363 = AXIS2_PLACEMENT_3D('',#364,#365,#366);
#364 = CARTESIAN_POINT('',(10.27,-2.35,-2.82));
#365 = DIRECTION('',(-0.E+000,1.,0.E+000));
#366 = DIRECTION('',(1.,0.E+000,0.E+000));
#367 = ORIENTED_EDGE('',*,*,#316,.T.);
#368 = ORIENTED_EDGE('',*,*,#359,.T.);
#369 = ORIENTED_EDGE('',*,*,#370,.F.);
#370 = EDGE_CURVE('',#360,#360,#371,.T.);
#371 = CIRCLE('',#372,0.27);
#372 = AXIS2_PLACEMENT_3D('',#373,#374,#375);
#373 = CARTESIAN_POINT('',(10.,-2.35,-3.));
#374 = DIRECTION('',(0.E+000,0.E+000,1.));
#375 = DIRECTION('',(1.,0.E+000,0.E+000));
#376 = TOROIDAL_SURFACE('',#377,0.27,0.18);
#377 = AXIS2_PLACEMENT_3D('',#378,#379,#380);
#378 = CARTESIAN_POINT('',(10.,-2.35,-2.82));
#379 = DIRECTION('',(-0.E+000,-0.E+000,-1.));
#380 = DIRECTION('',(1.,0.E+000,0.E+000));
#381 = ADVANCED_FACE('',(#382),#385,.F.);
#382 = FACE_BOUND('',#383,.F.);
#383 = EDGE_LOOP('',(#384));
#384 = ORIENTED_EDGE('',*,*,#344,.T.);
#385 = PLANE('',#386);
#386 = AXIS2_PLACEMENT_3D('',#387,#388,#389);
#387 = CARTESIAN_POINT('',(-1.18701400394E-017,2.911085817041E-017,-3.)
);
#388 = DIRECTION('',(0.E+000,0.E+000,1.));
#389 = DIRECTION('',(1.,0.E+000,0.E+000));
#390 = ADVANCED_FACE('',(#391),#394,.F.);
#391 = FACE_BOUND('',#392,.F.);
#392 = EDGE_LOOP('',(#393));
#393 = ORIENTED_EDGE('',*,*,#370,.T.);
#394 = PLANE('',#395);
#395 = AXIS2_PLACEMENT_3D('',#396,#397,#398);
#396 = CARTESIAN_POINT('',(10.,-2.35,-3.));
#397 = DIRECTION('',(0.E+000,0.E+000,1.));
#398 = DIRECTION('',(1.,0.E+000,0.E+000));
#399 = ( GEOMETRIC_REPRESENTATION_CONTEXT(3)
GLOBAL_UNCERTAINTY_ASSIGNED_CONTEXT((#403)) GLOBAL_UNIT_ASSIGNED_CONTEXT
((#400,#401,#402)) REPRESENTATION_CONTEXT('Context #1',
'3D Context with UNIT and UNCERTAINTY') );
#400 = ( LENGTH_UNIT() NAMED_UNIT(*) SI_UNIT(.MILLI.,.METRE.) );
#401 = ( NAMED_UNIT(*) PLANE_ANGLE_UNIT() SI_UNIT($,.RADIAN.) );
#402 = ( NAMED_UNIT(*) SI_UNIT($,.STERADIAN.) SOLID_ANGLE_UNIT() );
#403 = UNCERTAINTY_MEASURE_WITH_UNIT(LENGTH_MEASURE(1.E-007),#400,
'distance_accuracy_value','confusion accuracy');
#404 = PRODUCT_RELATED_PRODUCT_CATEGORY('part',$,(#7));
#405 = MECHANICAL_DESIGN_GEOMETRIC_PRESENTATION_REPRESENTATION('',(#406,
#414,#421,#428,#435,#443,#450,#457,#464,#471,#478),#399);
#406 = STYLED_ITEM('color',(#407),#17);
#407 = PRESENTATION_STYLE_ASSIGNMENT((#408));
#408 = SURFACE_STYLE_USAGE(.BOTH.,#409);
#409 = SURFACE_SIDE_STYLE('',(#410));
#410 = SURFACE_STYLE_FILL_AREA(#411);
#411 = FILL_AREA_STYLE('',(#412));
#412 = FILL_AREA_STYLE_COLOUR('',#413);
#413 = COLOUR_RGB('',0.136999994516,0.402000010014,0.726999998093);
#414 = STYLED_ITEM('color',(#415),#50);
#415 = PRESENTATION_STYLE_ASSIGNMENT((#416));
#416 = SURFACE_STYLE_USAGE(.BOTH.,#417);
#417 = SURFACE_SIDE_STYLE('',(#418));
#418 = SURFACE_STYLE_FILL_AREA(#419);
#419 = FILL_AREA_STYLE('',(#420));
#420 = FILL_AREA_STYLE_COLOUR('',#413);
#421 = STYLED_ITEM('color',(#422),#155);
#422 = PRESENTATION_STYLE_ASSIGNMENT((#423));
#423 = SURFACE_STYLE_USAGE(.BOTH.,#424);
#424 = SURFACE_SIDE_STYLE('',(#425));
#425 = SURFACE_STYLE_FILL_AREA(#426);
#426 = FILL_AREA_STYLE('',(#427));
#427 = FILL_AREA_STYLE_COLOUR('',#413);
#428 = STYLED_ITEM('color',(#429),#259);
#429 = PRESENTATION_STYLE_ASSIGNMENT((#430));
#430 = SURFACE_STYLE_USAGE(.BOTH.,#431);
#431 = SURFACE_SIDE_STYLE('',(#432));
#432 = SURFACE_STYLE_FILL_AREA(#433);
#433 = FILL_AREA_STYLE('',(#434));
#434 = FILL_AREA_STYLE_COLOUR('',#413);
#435 = STYLED_ITEM('color',(#436),#268);
#436 = PRESENTATION_STYLE_ASSIGNMENT((#437));
#437 = SURFACE_STYLE_USAGE(.BOTH.,#438);
#438 = SURFACE_SIDE_STYLE('',(#439));
#439 = SURFACE_STYLE_FILL_AREA(#440);
#440 = FILL_AREA_STYLE('',(#441));
#441 = FILL_AREA_STYLE_COLOUR('',#442);
#442 = COLOUR_RGB('',0.824000000954,0.819999992847,0.78100001812);
#443 = STYLED_ITEM('color',(#444),#294);
#444 = PRESENTATION_STYLE_ASSIGNMENT((#445));
#445 = SURFACE_STYLE_USAGE(.BOTH.,#446);
#446 = SURFACE_SIDE_STYLE('',(#447));
#447 = SURFACE_STYLE_FILL_AREA(#448);
#448 = FILL_AREA_STYLE('',(#449));
#449 = FILL_AREA_STYLE_COLOUR('',#413);
#450 = STYLED_ITEM('color',(#451),#303);
#451 = PRESENTATION_STYLE_ASSIGNMENT((#452));
#452 = SURFACE_STYLE_USAGE(.BOTH.,#453);
#453 = SURFACE_SIDE_STYLE('',(#454));
#454 = SURFACE_STYLE_FILL_AREA(#455);
#455 = FILL_AREA_STYLE('',(#456));
#456 = FILL_AREA_STYLE_COLOUR('',#442);
#457 = STYLED_ITEM('color',(#458),#329);
#458 = PRESENTATION_STYLE_ASSIGNMENT((#459));
#459 = SURFACE_STYLE_USAGE(.BOTH.,#460);
#460 = SURFACE_SIDE_STYLE('',(#461));
#461 = SURFACE_STYLE_FILL_AREA(#462);
#462 = FILL_AREA_STYLE('',(#463));
#463 = FILL_AREA_STYLE_COLOUR('',#442);
#464 = STYLED_ITEM('color',(#465),#355);
#465 = PRESENTATION_STYLE_ASSIGNMENT((#466));
#466 = SURFACE_STYLE_USAGE(.BOTH.,#467);
#467 = SURFACE_SIDE_STYLE('',(#468));
#468 = SURFACE_STYLE_FILL_AREA(#469);
#469 = FILL_AREA_STYLE('',(#470));
#470 = FILL_AREA_STYLE_COLOUR('',#442);
#471 = STYLED_ITEM('color',(#472),#381);
#472 = PRESENTATION_STYLE_ASSIGNMENT((#473));
#473 = SURFACE_STYLE_USAGE(.BOTH.,#474);
#474 = SURFACE_SIDE_STYLE('',(#475));
#475 = SURFACE_STYLE_FILL_AREA(#476);
#476 = FILL_AREA_STYLE('',(#477));
#477 = FILL_AREA_STYLE_COLOUR('',#442);
#478 = STYLED_ITEM('color',(#479),#390);
#479 = PRESENTATION_STYLE_ASSIGNMENT((#480));
#480 = SURFACE_STYLE_USAGE(.BOTH.,#481);
#481 = SURFACE_SIDE_STYLE('',(#482));
#482 = SURFACE_STYLE_FILL_AREA(#483);
#483 = FILL_AREA_STYLE('',(#484));
#484 = FILL_AREA_STYLE_COLOUR('',#442);
ENDSEC;
END-ISO-10303-21;
