ISO-10303-21;
HEADER;
/* RV_Disc_D15.5mm_W4.8mm_P7.5mm.step 3D STEP model for use in ECAD systems
 * Copyright (C) 2018, kicad StepUp
 * 
 * This work is licensed under the [Creative Commons CC-BY-SA 4.0 License](https://creativecommons.org/licenses/by-sa/4.0/legalcode), 
 * with the following exception:
 * To the extent that the creation of electronic designs that use 'Licensed Material' can be considered to be 'Adapted Material', 
 * then the copyright holder waives article 3 of the license with respect to these designs and any generated files which use data provided 
 * as part of the 'Licensed Material'.
 * You are free to use the library data in your own projects without the obligation to share your project files under this or any other license agreement.
 * However, if you wish to redistribute these libraries, or parts thereof (including in modified form) as a collection then the exception above does not apply. 
 * Please refer to https://github.com/KiCad/kicad-packages3D/blob/master/LICENSE.md for further clarification of the exception.
 * Disclaimer of Warranties and Limitation of Liability.
 * These libraries are provided in the hope that they will be useful, but are provided without warranty of any kind, express or implied.
 * *USE 3D CAD DATA AT YOUR OWN RISK*
 * *DO NOT RELY UPON ANY INFORMATION FOUND HERE WITHOUT INDEPENDENT VERIFICATION.*
 * 
 */

FILE_DESCRIPTION(
/* description */ ('model of RV_Disc_D15.5mm_W4.8mm_P7.5mm'),
/* implementation_level */ '2;1');

FILE_NAME(
/* name */ 'RV_Disc_D15.5mm_W4.8mm_P7.5mm.step',
/* time_stamp */ '2018-11-11T20:58:46',
/* author */ ('kicad StepUp','ksu'),
/* organization */ ('FreeCAD'),
/* preprocessor_version */ 'OCC',
/* originating_system */ 'kicad StepUp',
/* authorisation */ '');

FILE_SCHEMA(('AUTOMOTIVE_DESIGN { 1 0 10303 214 1 1 1 1 }'));
ENDSEC;

DATA;
#1 = APPLICATION_PROTOCOL_DEFINITION('international standard',
'automotive_design',2000,#2);
#2 = APPLICATION_CONTEXT(
'core data for automotive mechanical design processes');
#3 = SHAPE_DEFINITION_REPRESENTATION(#4,#10);
#4 = PRODUCT_DEFINITION_SHAPE('','',#5);
#5 = PRODUCT_DEFINITION('design','',#6,#9);
#6 = PRODUCT_DEFINITION_FORMATION('','',#7);
#7 = PRODUCT('RV_Disc_D155mm_W48mm_P75mm','RV_Disc_D155mm_W48mm_P75mm',
'',(#8));
#8 = PRODUCT_CONTEXT('',#2,'mechanical');
#9 = PRODUCT_DEFINITION_CONTEXT('part definition',#2,'design');
#10 = ADVANCED_BREP_SHAPE_REPRESENTATION('',(#11,#15),#382);
#11 = AXIS2_PLACEMENT_3D('',#12,#13,#14);
#12 = CARTESIAN_POINT('',(0.E+000,0.E+000,0.E+000));
#13 = DIRECTION('',(0.E+000,0.E+000,1.));
#14 = DIRECTION('',(1.,0.E+000,-0.E+000));
#15 = MANIFOLD_SOLID_BREP('',#16);
#16 = CLOSED_SHELL('',(#17,#50,#142,#242,#251,#277,#286,#312,#338,#364,
#373));
#17 = ADVANCED_FACE('',(#18),#45,.T.);
#18 = FACE_BOUND('',#19,.F.);
#19 = EDGE_LOOP('',(#20,#30,#37,#38));
#20 = ORIENTED_EDGE('',*,*,#21,.T.);
#21 = EDGE_CURVE('',#22,#24,#26,.T.);
#22 = VERTEX_POINT('',#23);
#23 = CARTESIAN_POINT('',(11.5,-0.941463414634,7.78));
#24 = VERTEX_POINT('',#25);
#25 = CARTESIAN_POINT('',(11.5,-1.058536585366,7.78));
#26 = LINE('',#27,#28);
#27 = CARTESIAN_POINT('',(11.5,1.4,7.78));
#28 = VECTOR('',#29,1.);
#29 = DIRECTION('',(0.E+000,-1.,0.E+000));
#30 = ORIENTED_EDGE('',*,*,#31,.T.);
#31 = EDGE_CURVE('',#24,#24,#32,.T.);
#32 = CIRCLE('',#33,7.75);
#33 = AXIS2_PLACEMENT_3D('',#34,#35,#36);
#34 = CARTESIAN_POINT('',(3.75,-1.058536585366,7.78));
#35 = DIRECTION('',(0.E+000,-1.,0.E+000));
#36 = DIRECTION('',(1.,0.E+000,0.E+000));
#37 = ORIENTED_EDGE('',*,*,#21,.F.);
#38 = ORIENTED_EDGE('',*,*,#39,.F.);
#39 = EDGE_CURVE('',#22,#22,#40,.T.);
#40 = CIRCLE('',#41,7.75);
#41 = AXIS2_PLACEMENT_3D('',#42,#43,#44);
#42 = CARTESIAN_POINT('',(3.75,-0.941463414634,7.78));
#43 = DIRECTION('',(0.E+000,-1.,0.E+000));
#44 = DIRECTION('',(1.,0.E+000,0.E+000));
#45 = CYLINDRICAL_SURFACE('',#46,7.75);
#46 = AXIS2_PLACEMENT_3D('',#47,#48,#49);
#47 = CARTESIAN_POINT('',(3.75,1.4,7.78));
#48 = DIRECTION('',(0.E+000,1.,0.E+000));
#49 = DIRECTION('',(1.,0.E+000,0.E+000));
#50 = ADVANCED_FACE('',(#51,#71),#137,.T.);
#51 = FACE_BOUND('',#52,.F.);
#52 = EDGE_LOOP('',(#53,#54,#63,#70));
#53 = ORIENTED_EDGE('',*,*,#39,.T.);
#54 = ORIENTED_EDGE('',*,*,#55,.T.);
#55 = EDGE_CURVE('',#22,#56,#58,.T.);
#56 = VERTEX_POINT('',#57);
#57 = CARTESIAN_POINT('',(9.158536585366,1.4,7.78));
#58 = CIRCLE('',#59,2.341463414634);
#59 = AXIS2_PLACEMENT_3D('',#60,#61,#62);
#60 = CARTESIAN_POINT('',(9.158536585366,-0.941463414634,7.78));
#61 = DIRECTION('',(0.E+000,0.E+000,1.));
#62 = DIRECTION('',(1.,0.E+000,0.E+000));
#63 = ORIENTED_EDGE('',*,*,#64,.F.);
#64 = EDGE_CURVE('',#56,#56,#65,.T.);
#65 = CIRCLE('',#66,5.408536585366);
#66 = AXIS2_PLACEMENT_3D('',#67,#68,#69);
#67 = CARTESIAN_POINT('',(3.75,1.4,7.78));
#68 = DIRECTION('',(0.E+000,-1.,0.E+000));
#69 = DIRECTION('',(1.,0.E+000,0.E+000));
#70 = ORIENTED_EDGE('',*,*,#55,.F.);
#71 = FACE_BOUND('',#72,.F.);
#72 = EDGE_LOOP('',(#73,#96));
#73 = ORIENTED_EDGE('',*,*,#74,.T.);
#74 = EDGE_CURVE('',#75,#77,#79,.T.);
#75 = VERTEX_POINT('',#76);
#76 = CARTESIAN_POINT('',(0.36,0.E+000,1.03118826551));
#77 = VERTEX_POINT('',#78);
#78 = CARTESIAN_POINT('',(-5.497903748234E-002,-0.355777044562,
1.11393308988));
#79 = B_SPLINE_CURVE_WITH_KNOTS('',8,(#80,#81,#82,#83,#84,#85,#86,#87,
#88,#89,#90,#91,#92,#93,#94,#95),.UNSPECIFIED.,.F.,.F.,(9,7,9),(
0.E+000,0.313460095641,1.),.UNSPECIFIED.);
#80 = CARTESIAN_POINT('',(0.36,-1.110223024625E-016,1.03118826551));
#81 = CARTESIAN_POINT('',(0.36,-2.301290970474E-002,1.01987892385));
#82 = CARTESIAN_POINT('',(0.358318722031,-4.6217172602E-002,
1.009701307832));
#83 = CARTESIAN_POINT('',(0.3549073632,-6.947387488302E-002,
1.000745926161));
#84 = CARTESIAN_POINT('',(0.349729067224,-9.262938373012E-002,
0.993095134938));
#85 = CARTESIAN_POINT('',(0.342764713954,-0.115515692553,0.986818789359)
);
#86 = CARTESIAN_POINT('',(0.334018383866,-0.137953113963,0.981970093484)
);
#87 = CARTESIAN_POINT('',(0.323522497546,-0.159755320487,0.978581648065)
);
#88 = CARTESIAN_POINT('',(0.284666299955,-0.226690196164,0.972456620838)
);
#89 = CARTESIAN_POINT('',(0.249933485882,-0.268669144199,0.975299372912)
);
#90 = CARTESIAN_POINT('',(0.207818040991,-0.30479774011,0.985251948248)
);
#91 = CARTESIAN_POINT('',(0.159580429515,-0.333382330364,1.001857860685)
);
#92 = CARTESIAN_POINT('',(0.106982582234,-0.353126665391,1.024229368979)
);
#93 = CARTESIAN_POINT('',(5.217667925019E-002,-0.363282407655,
1.051227469828));
#94 = CARTESIAN_POINT('',(-2.512561232992E-003,-0.363884808704,
1.081573472021));
#95 = CARTESIAN_POINT('',(-5.497903748234E-002,-0.355777044562,
1.11393308988));
#96 = ORIENTED_EDGE('',*,*,#97,.T.);
#97 = EDGE_CURVE('',#77,#75,#98,.T.);
#98 = B_SPLINE_CURVE_WITH_KNOTS('',7,(#99,#100,#101,#102,#103,#104,#105,
#106,#107,#108,#109,#110,#111,#112,#113,#114,#115,#116,#117,#118,
#119,#120,#121,#122,#123,#124,#125,#126,#127,#128,#129,#130,#131,
#132,#133,#134,#135,#136),.UNSPECIFIED.,.F.,.F.,(8,6,6,6,6,6,8),(
0.E+000,0.165812403812,0.397883026,0.542452122382,0.669697555035,
0.81139644175,1.),.UNSPECIFIED.);
#99 = CARTESIAN_POINT('',(-5.497903748234E-002,-0.355777044562,
1.11393308988));
#100 = CARTESIAN_POINT('',(-9.498948018207E-002,-0.349594139672,
1.138610230955));
#101 = CARTESIAN_POINT('',(-0.133642467758,-0.338246213695,
1.164459566523));
#102 = CARTESIAN_POINT('',(-0.170178102115,-0.322114731353,
1.190988670127));
#103 = CARTESIAN_POINT('',(-0.203986842036,-0.30169754726,1.217797798815
));
#104 = CARTESIAN_POINT('',(-0.234605779553,-0.27753002403,1.244571936875
));
#105 = CARTESIAN_POINT('',(-0.261688907113,-0.250135651513,
1.271058537352));
#106 = CARTESIAN_POINT('',(-0.317509467644,-0.177837016837,1.3333819004)
);
#107 = CARTESIAN_POINT('',(-0.342536712328,-0.130370638734,
1.368673421522));
#108 = CARTESIAN_POINT('',(-0.359276147347,-7.900494469208E-002,
1.402273580718));
#109 = CARTESIAN_POINT('',(-0.36712005098,-2.517235686715E-002,
1.43352389709));
#110 = CARTESIAN_POINT('',(-0.365612328212,2.956157648583E-002,
1.46161504058));
#111 = CARTESIAN_POINT('',(-0.354502803615,8.345951935574E-002,
1.485431865793));
#112 = CARTESIAN_POINT('',(-0.321063633629,0.16642414532,1.514890401415)
);
#113 = CARTESIAN_POINT('',(-0.304549276205,0.197177181308,1.523994133894
));
#114 = CARTESIAN_POINT('',(-0.284400326883,0.226342764824,1.530552818143
));
#115 = CARTESIAN_POINT('',(-0.260744545412,0.253368137488,1.534184039363
));
#116 = CARTESIAN_POINT('',(-0.233855873749,0.277670144312,1.534507794674
));
#117 = CARTESIAN_POINT('',(-0.204184944328,0.298701810792,1.531238488729
));
#118 = CARTESIAN_POINT('',(-0.144343313329,0.331335430417,1.518240962858
));
#119 = CARTESIAN_POINT('',(-0.114649446113,0.3437702145,1.509331413188)
);
#120 = CARTESIAN_POINT('',(-8.371785091274E-002,0.353072843692,
1.497562119968));
#121 = CARTESIAN_POINT('',(-5.207277509627E-002,0.359065506761,
1.483038578691));
#122 = CARTESIAN_POINT('',(-2.027851003119E-002,0.361712765022,
1.466042731381));
#123 = CARTESIAN_POINT('',(1.110465364465E-002,0.361133153123,
1.447018107819));
#124 = CARTESIAN_POINT('',(7.548861515601E-002,0.353649149235,
1.403659594445));
#125 = CARTESIAN_POINT('',(0.108306808286,0.34602918012,1.3789419693));
#126 = CARTESIAN_POINT('',(0.139607956825,0.33505102632,1.352889691326)
);
#127 = CARTESIAN_POINT('',(0.169104285003,0.321054134376,1.326020315117)
);
#128 = CARTESIAN_POINT('',(0.196598368402,0.304348109045,1.298778380612)
);
#129 = CARTESIAN_POINT('',(0.221944381049,0.285186568548,1.271524100487)
);
#130 = CARTESIAN_POINT('',(0.275700640727,0.235253614189,1.208676544428)
);
#131 = CARTESIAN_POINT('',(0.302305582117,0.202777909175,1.173358760783)
);
#132 = CARTESIAN_POINT('',(0.324476920716,0.16685665372,1.139371867239)
);
#133 = CARTESIAN_POINT('',(0.341806850053,0.127965867489,1.107437387289)
);
#134 = CARTESIAN_POINT('',(0.353812663919,8.666702912951E-002,
1.078290156105));
#135 = CARTESIAN_POINT('',(0.36,4.369412500045E-002,1.052661073361));
#136 = CARTESIAN_POINT('',(0.36,-1.110223024625E-016,1.03118826551));
#137 = TOROIDAL_SURFACE('',#138,5.408536585366,2.341463414634);
#138 = AXIS2_PLACEMENT_3D('',#139,#140,#141);
#139 = CARTESIAN_POINT('',(3.75,-0.941463414634,7.78));
#140 = DIRECTION('',(0.E+000,1.,0.E+000));
#141 = DIRECTION('',(1.,0.E+000,0.E+000));
#142 = ADVANCED_FACE('',(#143,#163),#237,.T.);
#143 = FACE_BOUND('',#144,.T.);
#144 = EDGE_LOOP('',(#145,#146,#155,#162));
#145 = ORIENTED_EDGE('',*,*,#31,.T.);
#146 = ORIENTED_EDGE('',*,*,#147,.T.);
#147 = EDGE_CURVE('',#24,#148,#150,.T.);
#148 = VERTEX_POINT('',#149);
#149 = CARTESIAN_POINT('',(9.158536585366,-3.4,7.78));
#150 = CIRCLE('',#151,2.341463414634);
#151 = AXIS2_PLACEMENT_3D('',#152,#153,#154);
#152 = CARTESIAN_POINT('',(9.158536585366,-1.058536585366,7.78));
#153 = DIRECTION('',(0.E+000,0.E+000,-1.));
#154 = DIRECTION('',(1.,0.E+000,0.E+000));
#155 = ORIENTED_EDGE('',*,*,#156,.F.);
#156 = EDGE_CURVE('',#148,#148,#157,.T.);
#157 = CIRCLE('',#158,5.408536585366);
#158 = AXIS2_PLACEMENT_3D('',#159,#160,#161);
#159 = CARTESIAN_POINT('',(3.75,-3.4,7.78));
#160 = DIRECTION('',(0.E+000,-1.,0.E+000));
#161 = DIRECTION('',(1.,0.E+000,0.E+000));
#162 = ORIENTED_EDGE('',*,*,#147,.F.);
#163 = FACE_BOUND('',#164,.T.);
#164 = EDGE_LOOP('',(#165,#202));
#165 = ORIENTED_EDGE('',*,*,#166,.T.);
#166 = EDGE_CURVE('',#167,#169,#171,.T.);
#167 = VERTEX_POINT('',#168);
#168 = CARTESIAN_POINT('',(7.86,-2.,1.443876593091));
#169 = VERTEX_POINT('',#170);
#170 = CARTESIAN_POINT('',(7.143749496737,-1.948177428425,1.008435202553
));
#171 = B_SPLINE_CURVE_WITH_KNOTS('',8,(#172,#173,#174,#175,#176,#177,
#178,#179,#180,#181,#182,#183,#184,#185,#186,#187,#188,#189,#190,
#191,#192,#193,#194,#195,#196,#197,#198,#199,#200,#201),
.UNSPECIFIED.,.F.,.F.,(9,7,7,7,9),(0.E+000,0.231388234709,
0.613914250453,0.874003168467,1.),.UNSPECIFIED.);
#172 = CARTESIAN_POINT('',(7.86,-2.,1.443876593091));
#173 = CARTESIAN_POINT('',(7.86,-1.969946427805,1.428145258181));
#174 = CARTESIAN_POINT('',(7.857132452018,-1.940050950576,1.411334429008
));
#175 = CARTESIAN_POINT('',(7.851450746768,-1.910584127582,1.393606988697
));
#176 = CARTESIAN_POINT('',(7.843023553002,-1.881805535691,1.375104526892
));
#177 = CARTESIAN_POINT('',(7.831935056326,-1.853965663818,1.35595265602)
);
#178 = CARTESIAN_POINT('',(7.818285198003,-1.827307807371,1.336266327566
));
#179 = CARTESIAN_POINT('',(7.802189913769,-1.802069962694,1.31615514834)
);
#180 = CARTESIAN_POINT('',(7.753348771318,-1.739499418209,1.2619601296)
);
#181 = CARTESIAN_POINT('',(7.716679295174,-1.70514256896,1.227424190758)
);
#182 = CARTESIAN_POINT('',(7.674312803289,-1.67627485327,1.192490348347)
);
#183 = CARTESIAN_POINT('',(7.626893506686,-1.653973972057,1.157646920772
));
#184 = CARTESIAN_POINT('',(7.57545426673,-1.639443978655,1.123624958597)
);
#185 = CARTESIAN_POINT('',(7.521565022788,-1.6337624624,1.091431916858)
);
#186 = CARTESIAN_POINT('',(7.467347071792,-1.63746865666,1.062397514394)
);
#187 = CARTESIAN_POINT('',(7.379507542366,-1.658796238703,1.02098770387)
);
#188 = CARTESIAN_POINT('',(7.344897035159,-1.671572227127,1.006278023299
));
#189 = CARTESIAN_POINT('',(7.311851016918,-1.688367096142,0.993954521325
));
#190 = CARTESIAN_POINT('',(7.280962820337,-1.708927342156,0.984326523812
));
#191 = CARTESIAN_POINT('',(7.252765764022,-1.732881918699,0.977654171167
));
#192 = CARTESIAN_POINT('',(7.227706393908,-1.759758808324,0.974124812849
));
#193 = CARTESIAN_POINT('',(7.206121070893,-1.78900728922,0.973828458691)
);
#194 = CARTESIAN_POINT('',(7.179541970326,-1.835052473855,0.978139010452
));
#195 = CARTESIAN_POINT('',(7.171730770752,-1.850496098835,0.980296927478
));
#196 = CARTESIAN_POINT('',(7.164805727876,-1.866289056551,0.983202821026
));
#197 = CARTESIAN_POINT('',(7.158781818175,-1.882363678154,0.986847169307
));
#198 = CARTESIAN_POINT('',(7.153666430669,-1.898653240677,0.991214809991
));
#199 = CARTESIAN_POINT('',(7.149460224877,-1.91509286685,0.996285604376)
);
#200 = CARTESIAN_POINT('',(7.146157988772,-1.931620424911,1.002035101548
));
#201 = CARTESIAN_POINT('',(7.143749496737,-1.948177428425,1.008435202553
));
#202 = ORIENTED_EDGE('',*,*,#203,.T.);
#203 = EDGE_CURVE('',#169,#167,#204,.T.);
#204 = B_SPLINE_CURVE_WITH_KNOTS('',7,(#205,#206,#207,#208,#209,#210,
#211,#212,#213,#214,#215,#216,#217,#218,#219,#220,#221,#222,#223,
#224,#225,#226,#227,#228,#229,#230,#231,#232,#233,#234,#235,#236),
.UNSPECIFIED.,.F.,.F.,(8,6,6,6,6,8),(0.E+000,0.306365909985,
0.491495759258,0.67812545017,0.854208198503,1.),.UNSPECIFIED.);
#205 = CARTESIAN_POINT('',(7.143749496737,-1.948177428425,1.008435202553
));
#206 = CARTESIAN_POINT('',(7.136290452122,-1.999454088715,1.028256168632
));
#207 = CARTESIAN_POINT('',(7.137590538842,-2.05096242369,1.054425684094)
);
#208 = CARTESIAN_POINT('',(7.147275187785,-2.100940135363,1.086067519916
));
#209 = CARTESIAN_POINT('',(7.164551791133,-2.148033244054,1.122020169174
));
#210 = CARTESIAN_POINT('',(7.188610957553,-2.191302528863,1.161093694786
));
#211 = CARTESIAN_POINT('',(7.218777686574,-2.230003708629,1.202155415104
));
#212 = CARTESIAN_POINT('',(7.276117482201,-2.283458086294,1.269297147648
));
#213 = CARTESIAN_POINT('',(7.299731601853,-2.301609326587,1.294852805082
));
#214 = CARTESIAN_POINT('',(7.325246145882,-2.317611302947,1.320418079973
));
#215 = CARTESIAN_POINT('',(7.352538565994,-2.331257249327,1.345696425959
));
#216 = CARTESIAN_POINT('',(7.381451742212,-2.342299958075,1.370331545328
));
#217 = CARTESIAN_POINT('',(7.411766937505,-2.350466483432,1.393912434013
));
#218 = CARTESIAN_POINT('',(7.474842460279,-2.360548732819,1.438271919644
));
#219 = CARTESIAN_POINT('',(7.507699330972,-2.36242587082,1.459081572468)
);
#220 = CARTESIAN_POINT('',(7.541189878794,-2.360774523884,1.477793941583
));
#221 = CARTESIAN_POINT('',(7.574678996924,-2.355414257509,1.493858357786
));
#222 = CARTESIAN_POINT('',(7.607505156664,-2.346349115337,1.506906466375
));
#223 = CARTESIAN_POINT('',(7.639037485665,-2.333765148541,1.516784460211
));
#224 = CARTESIAN_POINT('',(7.696762846655,-2.303134959467,1.529879313969
));
#225 = CARTESIAN_POINT('',(7.723177785859,-2.285426526176,1.533445939892
));
#226 = CARTESIAN_POINT('',(7.747556840818,-2.265143468417,1.534244856716
));
#227 = CARTESIAN_POINT('',(7.769572902936,-2.242637612977,1.532439940969
));
#228 = CARTESIAN_POINT('',(7.789004618536,-2.218293156668,1.528265736527
));
#229 = CARTESIAN_POINT('',(7.805723755602,-2.192488253576,1.521975851689
));
#230 = CARTESIAN_POINT('',(7.831207035621,-2.14328898766,1.507049362358)
);
#231 = CARTESIAN_POINT('',(7.840845640248,-2.120241979559,1.499001947345
));
#232 = CARTESIAN_POINT('',(7.848545934331,-2.096626661244,1.489803732468
));
#233 = CARTESIAN_POINT('',(7.854297561149,-2.072627195196,1.479582002941
));
#234 = CARTESIAN_POINT('',(7.858108600925,-2.048417026134,1.468453443977
));
#235 = CARTESIAN_POINT('',(7.86,-2.024158086175,1.456521976539));
#236 = CARTESIAN_POINT('',(7.86,-2.,1.443876593091));
#237 = TOROIDAL_SURFACE('',#238,5.408536585366,2.341463414634);
#238 = AXIS2_PLACEMENT_3D('',#239,#240,#241);
#239 = CARTESIAN_POINT('',(3.75,-1.058536585366,7.78));
#240 = DIRECTION('',(0.E+000,-1.,0.E+000));
#241 = DIRECTION('',(1.,0.E+000,0.E+000));
#242 = ADVANCED_FACE('',(#243),#246,.F.);
#243 = FACE_BOUND('',#244,.F.);
#244 = EDGE_LOOP('',(#245));
#245 = ORIENTED_EDGE('',*,*,#64,.T.);
#246 = PLANE('',#247);
#247 = AXIS2_PLACEMENT_3D('',#248,#249,#250);
#248 = CARTESIAN_POINT('',(3.75,1.4,7.78));
#249 = DIRECTION('',(-0.E+000,-1.,-0.E+000));
#250 = DIRECTION('',(0.E+000,0.E+000,-1.));
#251 = ADVANCED_FACE('',(#252),#272,.T.);
#252 = FACE_BOUND('',#253,.T.);
#253 = EDGE_LOOP('',(#254,#255,#263,#270,#271));
#254 = ORIENTED_EDGE('',*,*,#97,.T.);
#255 = ORIENTED_EDGE('',*,*,#256,.T.);
#256 = EDGE_CURVE('',#75,#257,#259,.T.);
#257 = VERTEX_POINT('',#258);
#258 = CARTESIAN_POINT('',(0.36,0.E+000,-2.856));
#259 = LINE('',#260,#261);
#260 = CARTESIAN_POINT('',(0.36,0.E+000,7.78));
#261 = VECTOR('',#262,1.);
#262 = DIRECTION('',(-0.E+000,-0.E+000,-1.));
#263 = ORIENTED_EDGE('',*,*,#264,.T.);
#264 = EDGE_CURVE('',#257,#257,#265,.T.);
#265 = CIRCLE('',#266,0.36);
#266 = AXIS2_PLACEMENT_3D('',#267,#268,#269);
#267 = CARTESIAN_POINT('',(0.E+000,0.E+000,-2.856));
#268 = DIRECTION('',(0.E+000,0.E+000,1.));
#269 = DIRECTION('',(1.,0.E+000,0.E+000));
#270 = ORIENTED_EDGE('',*,*,#256,.F.);
#271 = ORIENTED_EDGE('',*,*,#74,.T.);
#272 = CYLINDRICAL_SURFACE('',#273,0.36);
#273 = AXIS2_PLACEMENT_3D('',#274,#275,#276);
#274 = CARTESIAN_POINT('',(0.E+000,0.E+000,7.78));
#275 = DIRECTION('',(0.E+000,0.E+000,1.));
#276 = DIRECTION('',(1.,0.E+000,0.E+000));
#277 = ADVANCED_FACE('',(#278),#281,.T.);
#278 = FACE_BOUND('',#279,.T.);
#279 = EDGE_LOOP('',(#280));
#280 = ORIENTED_EDGE('',*,*,#156,.T.);
#281 = PLANE('',#282);
#282 = AXIS2_PLACEMENT_3D('',#283,#284,#285);
#283 = CARTESIAN_POINT('',(3.75,-3.4,7.78));
#284 = DIRECTION('',(-0.E+000,-1.,-0.E+000));
#285 = DIRECTION('',(0.E+000,0.E+000,-1.));
#286 = ADVANCED_FACE('',(#287),#307,.T.);
#287 = FACE_BOUND('',#288,.T.);
#288 = EDGE_LOOP('',(#289,#290,#298,#305,#306));
#289 = ORIENTED_EDGE('',*,*,#166,.F.);
#290 = ORIENTED_EDGE('',*,*,#291,.T.);
#291 = EDGE_CURVE('',#167,#292,#294,.T.);
#292 = VERTEX_POINT('',#293);
#293 = CARTESIAN_POINT('',(7.86,-2.,-2.856));
#294 = LINE('',#295,#296);
#295 = CARTESIAN_POINT('',(7.86,-2.,7.78));
#296 = VECTOR('',#297,1.);
#297 = DIRECTION('',(-0.E+000,-0.E+000,-1.));
#298 = ORIENTED_EDGE('',*,*,#299,.T.);
#299 = EDGE_CURVE('',#292,#292,#300,.T.);
#300 = CIRCLE('',#301,0.36);
#301 = AXIS2_PLACEMENT_3D('',#302,#303,#304);
#302 = CARTESIAN_POINT('',(7.5,-2.,-2.856));
#303 = DIRECTION('',(0.E+000,0.E+000,1.));
#304 = DIRECTION('',(1.,0.E+000,0.E+000));
#305 = ORIENTED_EDGE('',*,*,#291,.F.);
#306 = ORIENTED_EDGE('',*,*,#203,.F.);
#307 = CYLINDRICAL_SURFACE('',#308,0.36);
#308 = AXIS2_PLACEMENT_3D('',#309,#310,#311);
#309 = CARTESIAN_POINT('',(7.5,-2.,7.78));
#310 = DIRECTION('',(0.E+000,0.E+000,1.));
#311 = DIRECTION('',(1.,0.E+000,0.E+000));
#312 = ADVANCED_FACE('',(#313),#333,.T.);
#313 = FACE_BOUND('',#314,.F.);
#314 = EDGE_LOOP('',(#315,#324,#325,#326));
#315 = ORIENTED_EDGE('',*,*,#316,.F.);
#316 = EDGE_CURVE('',#257,#317,#319,.T.);
#317 = VERTEX_POINT('',#318);
#318 = CARTESIAN_POINT('',(0.216,0.E+000,-3.));
#319 = CIRCLE('',#320,0.144);
#320 = AXIS2_PLACEMENT_3D('',#321,#322,#323);
#321 = CARTESIAN_POINT('',(0.216,0.E+000,-2.856));
#322 = DIRECTION('',(-0.E+000,1.,0.E+000));
#323 = DIRECTION('',(1.,0.E+000,0.E+000));
#324 = ORIENTED_EDGE('',*,*,#264,.T.);
#325 = ORIENTED_EDGE('',*,*,#316,.T.);
#326 = ORIENTED_EDGE('',*,*,#327,.F.);
#327 = EDGE_CURVE('',#317,#317,#328,.T.);
#328 = CIRCLE('',#329,0.216);
#329 = AXIS2_PLACEMENT_3D('',#330,#331,#332);
#330 = CARTESIAN_POINT('',(0.E+000,0.E+000,-3.));
#331 = DIRECTION('',(0.E+000,0.E+000,1.));
#332 = DIRECTION('',(1.,0.E+000,0.E+000));
#333 = TOROIDAL_SURFACE('',#334,0.216,0.144);
#334 = AXIS2_PLACEMENT_3D('',#335,#336,#337);
#335 = CARTESIAN_POINT('',(0.E+000,0.E+000,-2.856));
#336 = DIRECTION('',(-0.E+000,-0.E+000,-1.));
#337 = DIRECTION('',(1.,0.E+000,0.E+000));
#338 = ADVANCED_FACE('',(#339),#359,.T.);
#339 = FACE_BOUND('',#340,.F.);
#340 = EDGE_LOOP('',(#341,#350,#351,#352));
#341 = ORIENTED_EDGE('',*,*,#342,.F.);
#342 = EDGE_CURVE('',#292,#343,#345,.T.);
#343 = VERTEX_POINT('',#344);
#344 = CARTESIAN_POINT('',(7.716,-2.,-3.));
#345 = CIRCLE('',#346,0.144);
#346 = AXIS2_PLACEMENT_3D('',#347,#348,#349);
#347 = CARTESIAN_POINT('',(7.716,-2.,-2.856));
#348 = DIRECTION('',(-0.E+000,1.,0.E+000));
#349 = DIRECTION('',(1.,0.E+000,0.E+000));
#350 = ORIENTED_EDGE('',*,*,#299,.T.);
#351 = ORIENTED_EDGE('',*,*,#342,.T.);
#352 = ORIENTED_EDGE('',*,*,#353,.F.);
#353 = EDGE_CURVE('',#343,#343,#354,.T.);
#354 = CIRCLE('',#355,0.216);
#355 = AXIS2_PLACEMENT_3D('',#356,#357,#358);
#356 = CARTESIAN_POINT('',(7.5,-2.,-3.));
#357 = DIRECTION('',(0.E+000,0.E+000,1.));
#358 = DIRECTION('',(1.,0.E+000,0.E+000));
#359 = TOROIDAL_SURFACE('',#360,0.216,0.144);
#360 = AXIS2_PLACEMENT_3D('',#361,#362,#363);
#361 = CARTESIAN_POINT('',(7.5,-2.,-2.856));
#362 = DIRECTION('',(-0.E+000,-0.E+000,-1.));
#363 = DIRECTION('',(1.,0.E+000,0.E+000));
#364 = ADVANCED_FACE('',(#365),#368,.F.);
#365 = FACE_BOUND('',#366,.F.);
#366 = EDGE_LOOP('',(#367));
#367 = ORIENTED_EDGE('',*,*,#327,.T.);
#368 = PLANE('',#369);
#369 = AXIS2_PLACEMENT_3D('',#370,#371,#372);
#370 = CARTESIAN_POINT('',(-1.483767504926E-017,1.497958850874E-017,-3.)
);
#371 = DIRECTION('',(0.E+000,0.E+000,1.));
#372 = DIRECTION('',(1.,0.E+000,0.E+000));
#373 = ADVANCED_FACE('',(#374),#377,.F.);
#374 = FACE_BOUND('',#375,.F.);
#375 = EDGE_LOOP('',(#376));
#376 = ORIENTED_EDGE('',*,*,#353,.T.);
#377 = PLANE('',#378);
#378 = AXIS2_PLACEMENT_3D('',#379,#380,#381);
#379 = CARTESIAN_POINT('',(7.5,-2.,-3.));
#380 = DIRECTION('',(0.E+000,0.E+000,1.));
#381 = DIRECTION('',(1.,0.E+000,0.E+000));
#382 = ( GEOMETRIC_REPRESENTATION_CONTEXT(3)
GLOBAL_UNCERTAINTY_ASSIGNED_CONTEXT((#386)) GLOBAL_UNIT_ASSIGNED_CONTEXT
((#383,#384,#385)) REPRESENTATION_CONTEXT('Context #1',
'3D Context with UNIT and UNCERTAINTY') );
#383 = ( LENGTH_UNIT() NAMED_UNIT(*) SI_UNIT(.MILLI.,.METRE.) );
#384 = ( NAMED_UNIT(*) PLANE_ANGLE_UNIT() SI_UNIT($,.RADIAN.) );
#385 = ( NAMED_UNIT(*) SI_UNIT($,.STERADIAN.) SOLID_ANGLE_UNIT() );
#386 = UNCERTAINTY_MEASURE_WITH_UNIT(LENGTH_MEASURE(1.E-007),#383,
'distance_accuracy_value','confusion accuracy');
#387 = PRODUCT_RELATED_PRODUCT_CATEGORY('part',$,(#7));
#388 = MECHANICAL_DESIGN_GEOMETRIC_PRESENTATION_REPRESENTATION('',(#389,
#397,#404,#411,#418,#426,#433,#440,#447,#454,#461),#382);
#389 = STYLED_ITEM('color',(#390),#17);
#390 = PRESENTATION_STYLE_ASSIGNMENT((#391));
#391 = SURFACE_STYLE_USAGE(.BOTH.,#392);
#392 = SURFACE_SIDE_STYLE('',(#393));
#393 = SURFACE_STYLE_FILL_AREA(#394);
#394 = FILL_AREA_STYLE('',(#395));
#395 = FILL_AREA_STYLE_COLOUR('',#396);
#396 = COLOUR_RGB('',0.136999994516,0.402000010014,0.726999998093);
#397 = STYLED_ITEM('color',(#398),#50);
#398 = PRESENTATION_STYLE_ASSIGNMENT((#399));
#399 = SURFACE_STYLE_USAGE(.BOTH.,#400);
#400 = SURFACE_SIDE_STYLE('',(#401));
#401 = SURFACE_STYLE_FILL_AREA(#402);
#402 = FILL_AREA_STYLE('',(#403));
#403 = FILL_AREA_STYLE_COLOUR('',#396);
#404 = STYLED_ITEM('color',(#405),#142);
#405 = PRESENTATION_STYLE_ASSIGNMENT((#406));
#406 = SURFACE_STYLE_USAGE(.BOTH.,#407);
#407 = SURFACE_SIDE_STYLE('',(#408));
#408 = SURFACE_STYLE_FILL_AREA(#409);
#409 = FILL_AREA_STYLE('',(#410));
#410 = FILL_AREA_STYLE_COLOUR('',#396);
#411 = STYLED_ITEM('color',(#412),#242);
#412 = PRESENTATION_STYLE_ASSIGNMENT((#413));
#413 = SURFACE_STYLE_USAGE(.BOTH.,#414);
#414 = SURFACE_SIDE_STYLE('',(#415));
#415 = SURFACE_STYLE_FILL_AREA(#416);
#416 = FILL_AREA_STYLE('',(#417));
#417 = FILL_AREA_STYLE_COLOUR('',#396);
#418 = STYLED_ITEM('color',(#419),#251);
#419 = PRESENTATION_STYLE_ASSIGNMENT((#420));
#420 = SURFACE_STYLE_USAGE(.BOTH.,#421);
#421 = SURFACE_SIDE_STYLE('',(#422));
#422 = SURFACE_STYLE_FILL_AREA(#423);
#423 = FILL_AREA_STYLE('',(#424));
#424 = FILL_AREA_STYLE_COLOUR('',#425);
#425 = COLOUR_RGB('',0.824000000954,0.819999992847,0.78100001812);
#426 = STYLED_ITEM('color',(#427),#277);
#427 = PRESENTATION_STYLE_ASSIGNMENT((#428));
#428 = SURFACE_STYLE_USAGE(.BOTH.,#429);
#429 = SURFACE_SIDE_STYLE('',(#430));
#430 = SURFACE_STYLE_FILL_AREA(#431);
#431 = FILL_AREA_STYLE('',(#432));
#432 = FILL_AREA_STYLE_COLOUR('',#396);
#433 = STYLED_ITEM('color',(#434),#286);
#434 = PRESENTATION_STYLE_ASSIGNMENT((#435));
#435 = SURFACE_STYLE_USAGE(.BOTH.,#436);
#436 = SURFACE_SIDE_STYLE('',(#437));
#437 = SURFACE_STYLE_FILL_AREA(#438);
#438 = FILL_AREA_STYLE('',(#439));
#439 = FILL_AREA_STYLE_COLOUR('',#425);
#440 = STYLED_ITEM('color',(#441),#312);
#441 = PRESENTATION_STYLE_ASSIGNMENT((#442));
#442 = SURFACE_STYLE_USAGE(.BOTH.,#443);
#443 = SURFACE_SIDE_STYLE('',(#444));
#444 = SURFACE_STYLE_FILL_AREA(#445);
#445 = FILL_AREA_STYLE('',(#446));
#446 = FILL_AREA_STYLE_COLOUR('',#425);
#447 = STYLED_ITEM('color',(#448),#338);
#448 = PRESENTATION_STYLE_ASSIGNMENT((#449));
#449 = SURFACE_STYLE_USAGE(.BOTH.,#450);
#450 = SURFACE_SIDE_STYLE('',(#451));
#451 = SURFACE_STYLE_FILL_AREA(#452);
#452 = FILL_AREA_STYLE('',(#453));
#453 = FILL_AREA_STYLE_COLOUR('',#425);
#454 = STYLED_ITEM('color',(#455),#364);
#455 = PRESENTATION_STYLE_ASSIGNMENT((#456));
#456 = SURFACE_STYLE_USAGE(.BOTH.,#457);
#457 = SURFACE_SIDE_STYLE('',(#458));
#458 = SURFACE_STYLE_FILL_AREA(#459);
#459 = FILL_AREA_STYLE('',(#460));
#460 = FILL_AREA_STYLE_COLOUR('',#425);
#461 = STYLED_ITEM('color',(#462),#373);
#462 = PRESENTATION_STYLE_ASSIGNMENT((#463));
#463 = SURFACE_STYLE_USAGE(.BOTH.,#464);
#464 = SURFACE_SIDE_STYLE('',(#465));
#465 = SURFACE_STYLE_FILL_AREA(#466);
#466 = FILL_AREA_STYLE('',(#467));
#467 = FILL_AREA_STYLE_COLOUR('',#425);
ENDSEC;
END-ISO-10303-21;
