ISO-10303-21;
HEADER;
FILE_DESCRIPTION(('FreeCAD Model'),'2;1');
FILE_NAME(
'D:/KiCAD/packages3D-source/Inductor_THT.3dshapes\\
L_Radial_D28.0mm_P29.20mm.step','2018-01-10T12:25:30',('kicad StepUp'),(
    'ksu MCAD'),'Open CASCADE STEP processor 6.8','FreeCAD','Unknown');
FILE_SCHEMA(('AUTOMOTIVE_DESIGN_CC2 { 1 2 10303 214 -1 1 5 4 }'));
ENDSEC;
DATA;
#1 = APPLICATION_PROTOCOL_DEFINITION('committee draft',
  'automotive_design',1997,#2);
#2 = APPLICATION_CONTEXT(
  'core data for automotive mechanical design processes');
#3 = SHAPE_DEFINITION_REPRESENTATION(#4,#10);
#4 = PRODUCT_DEFINITION_SHAPE('','',#5);
#5 = PRODUCT_DEFINITION('design','',#6,#9);
#6 = PRODUCT_DEFINITION_FORMATION('','',#7);
#7 = PRODUCT('L_Radial_D28.0mm_P29.20mm','L_Radial_D28.0mm_P29.20mm','',
  (#8));
#8 = MECHANICAL_CONTEXT('',#2,'mechanical');
#9 = PRODUCT_DEFINITION_CONTEXT('part definition',#2,'design');
#10 = SHAPE_REPRESENTATION('',(#11,#15,#139,#202),#264);
#11 = AXIS2_PLACEMENT_3D('',#12,#13,#14);
#12 = CARTESIAN_POINT('',(0.E+000,0.E+000,0.E+000));
#13 = DIRECTION('',(0.E+000,0.E+000,1.));
#14 = DIRECTION('',(1.,0.E+000,-0.E+000));
#15 = MANIFOLD_SOLID_BREP('',#16);
#16 = CLOSED_SHELL('',(#17,#51,#94,#103,#130));
#17 = ADVANCED_FACE('',(#18),#46,.T.);
#18 = FACE_BOUND('',#19,.T.);
#19 = EDGE_LOOP('',(#20,#31,#38,#39));
#20 = ORIENTED_EDGE('',*,*,#21,.F.);
#21 = EDGE_CURVE('',#22,#24,#26,.T.);
#22 = VERTEX_POINT('',#23);
#23 = CARTESIAN_POINT('',(28.6,0.E+000,27.6));
#24 = VERTEX_POINT('',#25);
#25 = CARTESIAN_POINT('',(28.1,0.E+000,28.1));
#26 = CIRCLE('',#27,0.5);
#27 = AXIS2_PLACEMENT_3D('',#28,#29,#30);
#28 = CARTESIAN_POINT('',(28.1,0.E+000,27.6));
#29 = DIRECTION('',(0.E+000,-1.,0.E+000));
#30 = DIRECTION('',(1.,0.E+000,0.E+000));
#31 = ORIENTED_EDGE('',*,*,#32,.T.);
#32 = EDGE_CURVE('',#22,#22,#33,.T.);
#33 = CIRCLE('',#34,14.);
#34 = AXIS2_PLACEMENT_3D('',#35,#36,#37);
#35 = CARTESIAN_POINT('',(14.6,0.E+000,27.6));
#36 = DIRECTION('',(0.E+000,0.E+000,1.));
#37 = DIRECTION('',(1.,0.E+000,0.E+000));
#38 = ORIENTED_EDGE('',*,*,#21,.T.);
#39 = ORIENTED_EDGE('',*,*,#40,.F.);
#40 = EDGE_CURVE('',#24,#24,#41,.T.);
#41 = CIRCLE('',#42,13.5);
#42 = AXIS2_PLACEMENT_3D('',#43,#44,#45);
#43 = CARTESIAN_POINT('',(14.6,0.E+000,28.1));
#44 = DIRECTION('',(0.E+000,0.E+000,1.));
#45 = DIRECTION('',(1.,0.E+000,0.E+000));
#46 = TOROIDAL_SURFACE('',#47,13.5,0.5);
#47 = AXIS2_PLACEMENT_3D('',#48,#49,#50);
#48 = CARTESIAN_POINT('',(14.6,0.E+000,27.6));
#49 = DIRECTION('',(0.E+000,0.E+000,1.));
#50 = DIRECTION('',(1.,0.E+000,0.E+000));
#51 = ADVANCED_FACE('',(#52),#89,.T.);
#52 = FACE_BOUND('',#53,.F.);
#53 = EDGE_LOOP('',(#54,#65,#73,#79,#80,#81,#82));
#54 = ORIENTED_EDGE('',*,*,#55,.F.);
#55 = EDGE_CURVE('',#56,#58,#60,.T.);
#56 = VERTEX_POINT('',#57);
#57 = CARTESIAN_POINT('',(28.6,0.E+000,0.6));
#58 = VERTEX_POINT('',#59);
#59 = CARTESIAN_POINT('',(0.6,-4.809795399279E-013,0.6));
#60 = CIRCLE('',#61,14.);
#61 = AXIS2_PLACEMENT_3D('',#62,#63,#64);
#62 = CARTESIAN_POINT('',(14.6,0.E+000,0.6));
#63 = DIRECTION('',(0.E+000,0.E+000,1.));
#64 = DIRECTION('',(1.,0.E+000,0.E+000));
#65 = ORIENTED_EDGE('',*,*,#66,.T.);
#66 = EDGE_CURVE('',#56,#67,#69,.T.);
#67 = VERTEX_POINT('',#68);
#68 = CARTESIAN_POINT('',(28.6,-2.687506671294E-014,14.5));
#69 = LINE('',#70,#71);
#70 = CARTESIAN_POINT('',(28.6,0.E+000,0.1));
#71 = VECTOR('',#72,1.);
#72 = DIRECTION('',(0.E+000,0.E+000,1.));
#73 = ORIENTED_EDGE('',*,*,#74,.T.);
#74 = EDGE_CURVE('',#67,#22,#75,.T.);
#75 = LINE('',#76,#77);
#76 = CARTESIAN_POINT('',(28.6,0.E+000,0.1));
#77 = VECTOR('',#78,1.);
#78 = DIRECTION('',(0.E+000,0.E+000,1.));
#79 = ORIENTED_EDGE('',*,*,#32,.T.);
#80 = ORIENTED_EDGE('',*,*,#74,.F.);
#81 = ORIENTED_EDGE('',*,*,#66,.F.);
#82 = ORIENTED_EDGE('',*,*,#83,.F.);
#83 = EDGE_CURVE('',#58,#56,#84,.T.);
#84 = CIRCLE('',#85,14.);
#85 = AXIS2_PLACEMENT_3D('',#86,#87,#88);
#86 = CARTESIAN_POINT('',(14.6,0.E+000,0.6));
#87 = DIRECTION('',(0.E+000,0.E+000,1.));
#88 = DIRECTION('',(1.,0.E+000,0.E+000));
#89 = CYLINDRICAL_SURFACE('',#90,14.);
#90 = AXIS2_PLACEMENT_3D('',#91,#92,#93);
#91 = CARTESIAN_POINT('',(14.6,0.E+000,0.1));
#92 = DIRECTION('',(-0.E+000,-0.E+000,-1.));
#93 = DIRECTION('',(1.,0.E+000,0.E+000));
#94 = ADVANCED_FACE('',(#95),#98,.F.);
#95 = FACE_BOUND('',#96,.F.);
#96 = EDGE_LOOP('',(#97));
#97 = ORIENTED_EDGE('',*,*,#40,.F.);
#98 = PLANE('',#99);
#99 = AXIS2_PLACEMENT_3D('',#100,#101,#102);
#100 = CARTESIAN_POINT('',(28.6,0.E+000,28.1));
#101 = DIRECTION('',(0.E+000,0.E+000,-1.));
#102 = DIRECTION('',(-1.,0.E+000,0.E+000));
#103 = ADVANCED_FACE('',(#104),#125,.T.);
#104 = FACE_BOUND('',#105,.F.);
#105 = EDGE_LOOP('',(#106,#107,#116,#123,#124));
#106 = ORIENTED_EDGE('',*,*,#83,.T.);
#107 = ORIENTED_EDGE('',*,*,#108,.T.);
#108 = EDGE_CURVE('',#56,#109,#111,.T.);
#109 = VERTEX_POINT('',#110);
#110 = CARTESIAN_POINT('',(28.1,0.E+000,0.1));
#111 = CIRCLE('',#112,0.5);
#112 = AXIS2_PLACEMENT_3D('',#113,#114,#115);
#113 = CARTESIAN_POINT('',(28.1,0.E+000,0.6));
#114 = DIRECTION('',(-0.E+000,1.,0.E+000));
#115 = DIRECTION('',(1.,0.E+000,0.E+000));
#116 = ORIENTED_EDGE('',*,*,#117,.F.);
#117 = EDGE_CURVE('',#109,#109,#118,.T.);
#118 = CIRCLE('',#119,13.5);
#119 = AXIS2_PLACEMENT_3D('',#120,#121,#122);
#120 = CARTESIAN_POINT('',(14.6,0.E+000,0.1));
#121 = DIRECTION('',(0.E+000,0.E+000,1.));
#122 = DIRECTION('',(1.,0.E+000,0.E+000));
#123 = ORIENTED_EDGE('',*,*,#108,.F.);
#124 = ORIENTED_EDGE('',*,*,#55,.T.);
#125 = TOROIDAL_SURFACE('',#126,13.5,0.5);
#126 = AXIS2_PLACEMENT_3D('',#127,#128,#129);
#127 = CARTESIAN_POINT('',(14.6,0.E+000,0.6));
#128 = DIRECTION('',(0.E+000,0.E+000,-1.));
#129 = DIRECTION('',(1.,0.E+000,0.E+000));
#130 = ADVANCED_FACE('',(#131),#134,.T.);
#131 = FACE_BOUND('',#132,.T.);
#132 = EDGE_LOOP('',(#133));
#133 = ORIENTED_EDGE('',*,*,#117,.F.);
#134 = PLANE('',#135);
#135 = AXIS2_PLACEMENT_3D('',#136,#137,#138);
#136 = CARTESIAN_POINT('',(28.6,0.E+000,0.1));
#137 = DIRECTION('',(0.E+000,0.E+000,-1.));
#138 = DIRECTION('',(-1.,0.E+000,0.E+000));
#139 = MANIFOLD_SOLID_BREP('',#140);
#140 = CLOSED_SHELL('',(#141,#183,#192));
#141 = ADVANCED_FACE('',(#142),#178,.T.);
#142 = FACE_BOUND('',#143,.F.);
#143 = EDGE_LOOP('',(#144,#153,#161,#170,#177));
#144 = ORIENTED_EDGE('',*,*,#145,.F.);
#145 = EDGE_CURVE('',#146,#146,#148,.T.);
#146 = VERTEX_POINT('',#147);
#147 = CARTESIAN_POINT('',(29.8,0.E+000,-3.));
#148 = CIRCLE('',#149,0.6);
#149 = AXIS2_PLACEMENT_3D('',#150,#151,#152);
#150 = CARTESIAN_POINT('',(29.2,0.E+000,-3.));
#151 = DIRECTION('',(0.E+000,0.E+000,1.));
#152 = DIRECTION('',(1.,0.E+000,0.E+000));
#153 = ORIENTED_EDGE('',*,*,#154,.T.);
#154 = EDGE_CURVE('',#146,#155,#157,.T.);
#155 = VERTEX_POINT('',#156);
#156 = CARTESIAN_POINT('',(29.8,0.E+000,14.5));
#157 = LINE('',#158,#159);
#158 = CARTESIAN_POINT('',(29.8,0.E+000,-3.));
#159 = VECTOR('',#160,1.);
#160 = DIRECTION('',(0.E+000,0.E+000,1.));
#161 = ORIENTED_EDGE('',*,*,#162,.T.);
#162 = EDGE_CURVE('',#155,#163,#165,.T.);
#163 = VERTEX_POINT('',#164);
#164 = CARTESIAN_POINT('',(28.6,-2.687506671294E-014,14.5));
#165 = CIRCLE('',#166,0.6);
#166 = AXIS2_PLACEMENT_3D('',#167,#168,#169);
#167 = CARTESIAN_POINT('',(29.2,0.E+000,14.5));
#168 = DIRECTION('',(0.E+000,0.E+000,1.));
#169 = DIRECTION('',(1.,0.E+000,0.E+000));
#170 = ORIENTED_EDGE('',*,*,#171,.T.);
#171 = EDGE_CURVE('',#163,#155,#172,.T.);
#172 = CIRCLE('',#173,0.6);
#173 = AXIS2_PLACEMENT_3D('',#174,#175,#176);
#174 = CARTESIAN_POINT('',(29.2,0.E+000,14.5));
#175 = DIRECTION('',(0.E+000,0.E+000,1.));
#176 = DIRECTION('',(1.,0.E+000,0.E+000));
#177 = ORIENTED_EDGE('',*,*,#154,.F.);
#178 = CYLINDRICAL_SURFACE('',#179,0.6);
#179 = AXIS2_PLACEMENT_3D('',#180,#181,#182);
#180 = CARTESIAN_POINT('',(29.2,0.E+000,-3.));
#181 = DIRECTION('',(-0.E+000,-0.E+000,-1.));
#182 = DIRECTION('',(1.,0.E+000,0.E+000));
#183 = ADVANCED_FACE('',(#184),#187,.T.);
#184 = FACE_BOUND('',#185,.F.);
#185 = EDGE_LOOP('',(#186));
#186 = ORIENTED_EDGE('',*,*,#145,.T.);
#187 = PLANE('',#188);
#188 = AXIS2_PLACEMENT_3D('',#189,#190,#191);
#189 = CARTESIAN_POINT('',(29.8,0.E+000,-3.));
#190 = DIRECTION('',(0.E+000,0.E+000,-1.));
#191 = DIRECTION('',(-1.,0.E+000,0.E+000));
#192 = ADVANCED_FACE('',(#193),#197,.F.);
#193 = FACE_BOUND('',#194,.F.);
#194 = EDGE_LOOP('',(#195,#196));
#195 = ORIENTED_EDGE('',*,*,#162,.F.);
#196 = ORIENTED_EDGE('',*,*,#171,.F.);
#197 = PLANE('',#198);
#198 = AXIS2_PLACEMENT_3D('',#199,#200,#201);
#199 = CARTESIAN_POINT('',(29.8,0.E+000,14.5));
#200 = DIRECTION('',(0.E+000,0.E+000,-1.));
#201 = DIRECTION('',(-1.,0.E+000,0.E+000));
#202 = MANIFOLD_SOLID_BREP('',#203);
#203 = CLOSED_SHELL('',(#204,#246,#255));
#204 = ADVANCED_FACE('',(#205),#241,.T.);
#205 = FACE_BOUND('',#206,.F.);
#206 = EDGE_LOOP('',(#207,#216,#224,#232,#239,#240));
#207 = ORIENTED_EDGE('',*,*,#208,.F.);
#208 = EDGE_CURVE('',#209,#209,#211,.T.);
#209 = VERTEX_POINT('',#210);
#210 = CARTESIAN_POINT('',(0.6,0.E+000,-3.));
#211 = CIRCLE('',#212,0.6);
#212 = AXIS2_PLACEMENT_3D('',#213,#214,#215);
#213 = CARTESIAN_POINT('',(0.E+000,0.E+000,-3.));
#214 = DIRECTION('',(0.E+000,0.E+000,1.));
#215 = DIRECTION('',(1.,0.E+000,0.E+000));
#216 = ORIENTED_EDGE('',*,*,#217,.T.);
#217 = EDGE_CURVE('',#209,#218,#220,.T.);
#218 = VERTEX_POINT('',#219);
#219 = CARTESIAN_POINT('',(0.6,-4.809795399279E-013,0.6));
#220 = LINE('',#221,#222);
#221 = CARTESIAN_POINT('',(0.6,0.E+000,-3.));
#222 = VECTOR('',#223,1.);
#223 = DIRECTION('',(0.E+000,0.E+000,1.));
#224 = ORIENTED_EDGE('',*,*,#225,.T.);
#225 = EDGE_CURVE('',#218,#226,#228,.T.);
#226 = VERTEX_POINT('',#227);
#227 = CARTESIAN_POINT('',(0.6,0.E+000,14.5));
#228 = LINE('',#229,#230);
#229 = CARTESIAN_POINT('',(0.6,0.E+000,-3.));
#230 = VECTOR('',#231,1.);
#231 = DIRECTION('',(0.E+000,0.E+000,1.));
#232 = ORIENTED_EDGE('',*,*,#233,.T.);
#233 = EDGE_CURVE('',#226,#226,#234,.T.);
#234 = CIRCLE('',#235,0.6);
#235 = AXIS2_PLACEMENT_3D('',#236,#237,#238);
#236 = CARTESIAN_POINT('',(0.E+000,0.E+000,14.5));
#237 = DIRECTION('',(0.E+000,0.E+000,1.));
#238 = DIRECTION('',(1.,0.E+000,0.E+000));
#239 = ORIENTED_EDGE('',*,*,#225,.F.);
#240 = ORIENTED_EDGE('',*,*,#217,.F.);
#241 = CYLINDRICAL_SURFACE('',#242,0.6);
#242 = AXIS2_PLACEMENT_3D('',#243,#244,#245);
#243 = CARTESIAN_POINT('',(0.E+000,0.E+000,-3.));
#244 = DIRECTION('',(-0.E+000,-0.E+000,-1.));
#245 = DIRECTION('',(1.,0.E+000,0.E+000));
#246 = ADVANCED_FACE('',(#247),#250,.T.);
#247 = FACE_BOUND('',#248,.F.);
#248 = EDGE_LOOP('',(#249));
#249 = ORIENTED_EDGE('',*,*,#208,.T.);
#250 = PLANE('',#251);
#251 = AXIS2_PLACEMENT_3D('',#252,#253,#254);
#252 = CARTESIAN_POINT('',(0.6,0.E+000,-3.));
#253 = DIRECTION('',(0.E+000,0.E+000,-1.));
#254 = DIRECTION('',(-1.,0.E+000,0.E+000));
#255 = ADVANCED_FACE('',(#256),#259,.F.);
#256 = FACE_BOUND('',#257,.T.);
#257 = EDGE_LOOP('',(#258));
#258 = ORIENTED_EDGE('',*,*,#233,.T.);
#259 = PLANE('',#260);
#260 = AXIS2_PLACEMENT_3D('',#261,#262,#263);
#261 = CARTESIAN_POINT('',(0.6,0.E+000,14.5));
#262 = DIRECTION('',(0.E+000,0.E+000,-1.));
#263 = DIRECTION('',(-1.,0.E+000,0.E+000));
#264 = ( GEOMETRIC_REPRESENTATION_CONTEXT(3) 
GLOBAL_UNCERTAINTY_ASSIGNED_CONTEXT((#268)) GLOBAL_UNIT_ASSIGNED_CONTEXT
((#265,#266,#267)) REPRESENTATION_CONTEXT('Context #1',
  '3D Context with UNIT and UNCERTAINTY') );
#265 = ( LENGTH_UNIT() NAMED_UNIT(*) SI_UNIT(.MILLI.,.METRE.) );
#266 = ( NAMED_UNIT(*) PLANE_ANGLE_UNIT() SI_UNIT($,.RADIAN.) );
#267 = ( NAMED_UNIT(*) SI_UNIT($,.STERADIAN.) SOLID_ANGLE_UNIT() );
#268 = UNCERTAINTY_MEASURE_WITH_UNIT(LENGTH_MEASURE(1.E-007),#265,
  'distance_accuracy_value','confusion accuracy');
#269 = PRODUCT_TYPE('part',$,(#7));
#270 = MECHANICAL_DESIGN_GEOMETRIC_PRESENTATION_REPRESENTATION('',(#271,
    #279,#286,#293,#300,#307,#315,#322,#329,#336,#343),#264);
#271 = STYLED_ITEM('color',(#272),#17);
#272 = PRESENTATION_STYLE_ASSIGNMENT((#273));
#273 = SURFACE_STYLE_USAGE(.BOTH.,#274);
#274 = SURFACE_SIDE_STYLE('',(#275));
#275 = SURFACE_STYLE_FILL_AREA(#276);
#276 = FILL_AREA_STYLE('',(#277));
#277 = FILL_AREA_STYLE_COLOUR('',#278);
#278 = COLOUR_RGB('',0.148000001907,0.144999995828,0.144999995828);
#279 = STYLED_ITEM('color',(#280),#51);
#280 = PRESENTATION_STYLE_ASSIGNMENT((#281));
#281 = SURFACE_STYLE_USAGE(.BOTH.,#282);
#282 = SURFACE_SIDE_STYLE('',(#283));
#283 = SURFACE_STYLE_FILL_AREA(#284);
#284 = FILL_AREA_STYLE('',(#285));
#285 = FILL_AREA_STYLE_COLOUR('',#278);
#286 = STYLED_ITEM('color',(#287),#94);
#287 = PRESENTATION_STYLE_ASSIGNMENT((#288));
#288 = SURFACE_STYLE_USAGE(.BOTH.,#289);
#289 = SURFACE_SIDE_STYLE('',(#290));
#290 = SURFACE_STYLE_FILL_AREA(#291);
#291 = FILL_AREA_STYLE('',(#292));
#292 = FILL_AREA_STYLE_COLOUR('',#278);
#293 = STYLED_ITEM('color',(#294),#103);
#294 = PRESENTATION_STYLE_ASSIGNMENT((#295));
#295 = SURFACE_STYLE_USAGE(.BOTH.,#296);
#296 = SURFACE_SIDE_STYLE('',(#297));
#297 = SURFACE_STYLE_FILL_AREA(#298);
#298 = FILL_AREA_STYLE('',(#299));
#299 = FILL_AREA_STYLE_COLOUR('',#278);
#300 = STYLED_ITEM('color',(#301),#130);
#301 = PRESENTATION_STYLE_ASSIGNMENT((#302));
#302 = SURFACE_STYLE_USAGE(.BOTH.,#303);
#303 = SURFACE_SIDE_STYLE('',(#304));
#304 = SURFACE_STYLE_FILL_AREA(#305);
#305 = FILL_AREA_STYLE('',(#306));
#306 = FILL_AREA_STYLE_COLOUR('',#278);
#307 = STYLED_ITEM('color',(#308),#141);
#308 = PRESENTATION_STYLE_ASSIGNMENT((#309));
#309 = SURFACE_STYLE_USAGE(.BOTH.,#310);
#310 = SURFACE_SIDE_STYLE('',(#311));
#311 = SURFACE_STYLE_FILL_AREA(#312);
#312 = FILL_AREA_STYLE('',(#313));
#313 = FILL_AREA_STYLE_COLOUR('',#314);
#314 = COLOUR_RGB('',0.824000000954,0.819999992847,0.78100001812);
#315 = STYLED_ITEM('color',(#316),#183);
#316 = PRESENTATION_STYLE_ASSIGNMENT((#317));
#317 = SURFACE_STYLE_USAGE(.BOTH.,#318);
#318 = SURFACE_SIDE_STYLE('',(#319));
#319 = SURFACE_STYLE_FILL_AREA(#320);
#320 = FILL_AREA_STYLE('',(#321));
#321 = FILL_AREA_STYLE_COLOUR('',#314);
#322 = STYLED_ITEM('color',(#323),#192);
#323 = PRESENTATION_STYLE_ASSIGNMENT((#324));
#324 = SURFACE_STYLE_USAGE(.BOTH.,#325);
#325 = SURFACE_SIDE_STYLE('',(#326));
#326 = SURFACE_STYLE_FILL_AREA(#327);
#327 = FILL_AREA_STYLE('',(#328));
#328 = FILL_AREA_STYLE_COLOUR('',#314);
#329 = STYLED_ITEM('color',(#330),#204);
#330 = PRESENTATION_STYLE_ASSIGNMENT((#331));
#331 = SURFACE_STYLE_USAGE(.BOTH.,#332);
#332 = SURFACE_SIDE_STYLE('',(#333));
#333 = SURFACE_STYLE_FILL_AREA(#334);
#334 = FILL_AREA_STYLE('',(#335));
#335 = FILL_AREA_STYLE_COLOUR('',#314);
#336 = STYLED_ITEM('color',(#337),#246);
#337 = PRESENTATION_STYLE_ASSIGNMENT((#338));
#338 = SURFACE_STYLE_USAGE(.BOTH.,#339);
#339 = SURFACE_SIDE_STYLE('',(#340));
#340 = SURFACE_STYLE_FILL_AREA(#341);
#341 = FILL_AREA_STYLE('',(#342));
#342 = FILL_AREA_STYLE_COLOUR('',#314);
#343 = STYLED_ITEM('color',(#344),#255);
#344 = PRESENTATION_STYLE_ASSIGNMENT((#345));
#345 = SURFACE_STYLE_USAGE(.BOTH.,#346);
#346 = SURFACE_SIDE_STYLE('',(#347));
#347 = SURFACE_STYLE_FILL_AREA(#348);
#348 = FILL_AREA_STYLE('',(#349));
#349 = FILL_AREA_STYLE_COLOUR('',#314);
ENDSEC;
END-ISO-10303-21;
