ISO-10303-21;
HEADER;
/* RV_Disc_D9mm_W4.1mm_P5mm.step 3D STEP model for use in ECAD systems
 * Copyright (C) 2018, kicad StepUp
 * 
 * This work is licensed under the [Creative Commons CC-BY-SA 4.0 License](https://creativecommons.org/licenses/by-sa/4.0/legalcode), 
 * with the following exception:
 * To the extent that the creation of electronic designs that use 'Licensed Material' can be considered to be 'Adapted Material', 
 * then the copyright holder waives article 3 of the license with respect to these designs and any generated files which use data provided 
 * as part of the 'Licensed Material'.
 * You are free to use the library data in your own projects without the obligation to share your project files under this or any other license agreement.
 * However, if you wish to redistribute these libraries, or parts thereof (including in modified form) as a collection then the exception above does not apply. 
 * Please refer to https://github.com/KiCad/kicad-packages3D/blob/master/LICENSE.md for further clarification of the exception.
 * Disclaimer of Warranties and Limitation of Liability.
 * These libraries are provided in the hope that they will be useful, but are provided without warranty of any kind, express or implied.
 * *USE 3D CAD DATA AT YOUR OWN RISK*
 * *DO NOT RELY UPON ANY INFORMATION FOUND HERE WITHOUT INDEPENDENT VERIFICATION.*
 * 
 */

FILE_DESCRIPTION(
/* description */ ('model of RV_Disc_D9mm_W4.1mm_P5mm'),
/* implementation_level */ '2;1');

FILE_NAME(
/* name */ 'RV_Disc_D9mm_W4.1mm_P5mm.step',
/* time_stamp */ '2018-11-11T21:11:14',
/* author */ ('kicad StepUp','ksu'),
/* organization */ ('FreeCAD'),
/* preprocessor_version */ 'OCC',
/* originating_system */ 'kicad StepUp',
/* authorisation */ '');

FILE_SCHEMA(('AUTOMOTIVE_DESIGN { 1 0 10303 214 1 1 1 1 }'));
ENDSEC;

DATA;
#1 = APPLICATION_PROTOCOL_DEFINITION('international standard',
'automotive_design',2000,#2);
#2 = APPLICATION_CONTEXT(
'core data for automotive mechanical design processes');
#3 = SHAPE_DEFINITION_REPRESENTATION(#4,#10);
#4 = PRODUCT_DEFINITION_SHAPE('','',#5);
#5 = PRODUCT_DEFINITION('design','',#6,#9);
#6 = PRODUCT_DEFINITION_FORMATION('','',#7);
#7 = PRODUCT('RV_Disc_D9mm_W41mm_P5mm','RV_Disc_D9mm_W41mm_P5mm','',(#8)
);
#8 = PRODUCT_CONTEXT('',#2,'mechanical');
#9 = PRODUCT_DEFINITION_CONTEXT('part definition',#2,'design');
#10 = ADVANCED_BREP_SHAPE_REPRESENTATION('',(#11,#15),#368);
#11 = AXIS2_PLACEMENT_3D('',#12,#13,#14);
#12 = CARTESIAN_POINT('',(0.E+000,0.E+000,0.E+000));
#13 = DIRECTION('',(0.E+000,0.E+000,1.));
#14 = DIRECTION('',(1.,0.E+000,-0.E+000));
#15 = MANIFOLD_SOLID_BREP('',#16);
#16 = CLOSED_SHELL('',(#17,#50,#137,#228,#237,#263,#272,#298,#324,#350,
#359));
#17 = ADVANCED_FACE('',(#18),#45,.T.);
#18 = FACE_BOUND('',#19,.F.);
#19 = EDGE_LOOP('',(#20,#30,#37,#38));
#20 = ORIENTED_EDGE('',*,*,#21,.T.);
#21 = EDGE_CURVE('',#22,#24,#26,.T.);
#22 = VERTEX_POINT('',#23);
#23 = CARTESIAN_POINT('',(7.,-0.85,4.53));
#24 = VERTEX_POINT('',#25);
#25 = CARTESIAN_POINT('',(7.,-0.95,4.53));
#26 = LINE('',#27,#28);
#27 = CARTESIAN_POINT('',(7.,1.15,4.53));
#28 = VECTOR('',#29,1.);
#29 = DIRECTION('',(0.E+000,-1.,0.E+000));
#30 = ORIENTED_EDGE('',*,*,#31,.T.);
#31 = EDGE_CURVE('',#24,#24,#32,.T.);
#32 = CIRCLE('',#33,4.5);
#33 = AXIS2_PLACEMENT_3D('',#34,#35,#36);
#34 = CARTESIAN_POINT('',(2.5,-0.95,4.53));
#35 = DIRECTION('',(0.E+000,-1.,0.E+000));
#36 = DIRECTION('',(1.,0.E+000,0.E+000));
#37 = ORIENTED_EDGE('',*,*,#21,.F.);
#38 = ORIENTED_EDGE('',*,*,#39,.F.);
#39 = EDGE_CURVE('',#22,#22,#40,.T.);
#40 = CIRCLE('',#41,4.5);
#41 = AXIS2_PLACEMENT_3D('',#42,#43,#44);
#42 = CARTESIAN_POINT('',(2.5,-0.85,4.53));
#43 = DIRECTION('',(0.E+000,-1.,0.E+000));
#44 = DIRECTION('',(1.,0.E+000,0.E+000));
#45 = CYLINDRICAL_SURFACE('',#46,4.5);
#46 = AXIS2_PLACEMENT_3D('',#47,#48,#49);
#47 = CARTESIAN_POINT('',(2.5,1.15,4.53));
#48 = DIRECTION('',(0.E+000,1.,0.E+000));
#49 = DIRECTION('',(1.,0.E+000,0.E+000));
#50 = ADVANCED_FACE('',(#51,#71),#132,.T.);
#51 = FACE_BOUND('',#52,.F.);
#52 = EDGE_LOOP('',(#53,#54,#63,#70));
#53 = ORIENTED_EDGE('',*,*,#39,.T.);
#54 = ORIENTED_EDGE('',*,*,#55,.T.);
#55 = EDGE_CURVE('',#22,#56,#58,.T.);
#56 = VERTEX_POINT('',#57);
#57 = CARTESIAN_POINT('',(5.,1.15,4.53));
#58 = CIRCLE('',#59,2.);
#59 = AXIS2_PLACEMENT_3D('',#60,#61,#62);
#60 = CARTESIAN_POINT('',(5.,-0.85,4.53));
#61 = DIRECTION('',(0.E+000,0.E+000,1.));
#62 = DIRECTION('',(1.,0.E+000,0.E+000));
#63 = ORIENTED_EDGE('',*,*,#64,.F.);
#64 = EDGE_CURVE('',#56,#56,#65,.T.);
#65 = CIRCLE('',#66,2.5);
#66 = AXIS2_PLACEMENT_3D('',#67,#68,#69);
#67 = CARTESIAN_POINT('',(2.5,1.15,4.53));
#68 = DIRECTION('',(0.E+000,-1.,0.E+000));
#69 = DIRECTION('',(1.,0.E+000,0.E+000));
#70 = ORIENTED_EDGE('',*,*,#55,.F.);
#71 = FACE_BOUND('',#72,.F.);
#72 = EDGE_LOOP('',(#73,#97));
#73 = ORIENTED_EDGE('',*,*,#74,.T.);
#74 = EDGE_CURVE('',#75,#77,#79,.T.);
#75 = VERTEX_POINT('',#76);
#76 = CARTESIAN_POINT('',(0.27,0.E+000,0.841296502141));
#77 = VERTEX_POINT('',#78);
#78 = CARTESIAN_POINT('',(-0.157785599244,-0.219097477556,1.02606570903)
);
#79 = B_SPLINE_CURVE_WITH_KNOTS('',6,(#80,#81,#82,#83,#84,#85,#86,#87,
#88,#89,#90,#91,#92,#93,#94,#95,#96),.UNSPECIFIED.,.F.,.F.,(7,5,5,7)
,(0.E+000,0.248675998541,0.625682542344,1.),.UNSPECIFIED.);
#80 = CARTESIAN_POINT('',(0.27,-1.110223024625E-016,0.841296502141));
#81 = CARTESIAN_POINT('',(0.27,-2.373124288543E-002,0.828276515274));
#82 = CARTESIAN_POINT('',(0.267496954511,-4.773714696453E-002,
0.817166185297));
#83 = CARTESIAN_POINT('',(0.262382638087,-7.169562141826E-002,
0.808190057668));
#84 = CARTESIAN_POINT('',(0.254597336846,-9.522514342873E-002,
0.80154600169));
#85 = CARTESIAN_POINT('',(0.244181567469,-0.117890433041,0.797365521496)
);
#86 = CARTESIAN_POINT('',(0.211793447689,-0.171682775616,0.793113037739)
);
#87 = CARTESIAN_POINT('',(0.186619972049,-0.201159244938,0.796272763196)
);
#88 = CARTESIAN_POINT('',(0.156390445162,-0.226203545424,0.805265943225)
);
#89 = CARTESIAN_POINT('',(0.122319307649,-0.245592737569,0.819603157203)
);
#90 = CARTESIAN_POINT('',(8.596642016254E-002,-0.258714669349,
0.838415507897));
#91 = CARTESIAN_POINT('',(1.20181745986E-002,-0.272321197247,
0.882813765297));
#92 = CARTESIAN_POINT('',(-2.557027510149E-002,-0.272896460366,
0.908352650519));
#93 = CARTESIAN_POINT('',(-6.242518124806E-002,-0.267239809999,
0.936331138843));
#94 = CARTESIAN_POINT('',(-9.726411565922E-002,-0.255913176076,
0.965745609201));
#95 = CARTESIAN_POINT('',(-0.129258098517,-0.239641889327,0.995855338397
));
#96 = CARTESIAN_POINT('',(-0.157785599244,-0.219097477556,1.02606570903)
);
#97 = ORIENTED_EDGE('',*,*,#98,.T.);
#98 = EDGE_CURVE('',#77,#75,#99,.T.);
#99 = B_SPLINE_CURVE_WITH_KNOTS('',7,(#100,#101,#102,#103,#104,#105,#106
,#107,#108,#109,#110,#111,#112,#113,#114,#115,#116,#117,#118,#119,
#120,#121,#122,#123,#124,#125,#126,#127,#128,#129,#130,#131),
.UNSPECIFIED.,.F.,.F.,(8,6,6,6,6,8),(0.E+000,0.287892393272,
0.458793607181,0.620035907044,0.778540550749,1.),.UNSPECIFIED.);
#100 = CARTESIAN_POINT('',(-0.157785599244,-0.219097477556,1.02606570903
));
#101 = CARTESIAN_POINT('',(-0.194137923567,-0.192917927973,
1.064562498555));
#102 = CARTESIAN_POINT('',(-0.224954449267,-0.160038586103,1.10315094781
));
#103 = CARTESIAN_POINT('',(-0.249125075386,-0.121755495461,
1.140736981392));
#104 = CARTESIAN_POINT('',(-0.265767144773,-7.939757341218E-002,
1.176316312029));
#105 = CARTESIAN_POINT('',(-0.274133041341,-3.441677483623E-002,
1.208785607083));
#106 = CARTESIAN_POINT('',(-0.273636953799,1.15195826251E-002,
1.236750958648));
#107 = CARTESIAN_POINT('',(-0.258335707578,8.310339829362E-002,
1.271470153131));
#108 = CARTESIAN_POINT('',(-0.249430759597,0.10939216278,1.282216881495)
);
#109 = CARTESIAN_POINT('',(-0.2372855949,0.134864985319,1.290420780049)
);
#110 = CARTESIAN_POINT('',(-0.221930944458,0.159010173831,1.295684901606
));
#111 = CARTESIAN_POINT('',(-0.203540406976,0.181262945191,1.29763099599)
);
#112 = CARTESIAN_POINT('',(-0.182470128136,0.201073948266,1.296001076811
));
#113 = CARTESIAN_POINT('',(-0.137363643249,0.234022589726,1.285895837061
));
#114 = CARTESIAN_POINT('',(-0.11354683955,0.247485350022,1.277809027632)
);
#115 = CARTESIAN_POINT('',(-8.827872472566E-002,0.258042710435,
1.266538643347));
#116 = CARTESIAN_POINT('',(-6.211443141144E-002,0.265492789738,
1.252291291116));
#117 = CARTESIAN_POINT('',(-3.560968590825E-002,0.269800914083,
1.23545111376));
#118 = CARTESIAN_POINT('',(-9.266978915088E-003,0.271071583658,
1.216516708193));
#119 = CARTESIAN_POINT('',(4.180106649833E-002,0.267947641455,
1.17584449543));
#120 = CARTESIAN_POINT('',(6.656432069361E-002,0.263648005519,
1.15414581545));
#121 = CARTESIAN_POINT('',(9.045050531396E-002,0.256769033001,
1.131335614998));
#122 = CARTESIAN_POINT('',(0.113206690998,0.247513126527,1.107825319055)
);
#123 = CARTESIAN_POINT('',(0.134637772813,0.236079854745,1.083978341417)
);
#124 = CARTESIAN_POINT('',(0.154586447274,0.22264779827,1.060102048331)
);
#125 = CARTESIAN_POINT('',(0.198504903928,0.186028430823,1.003442081488)
);
#126 = CARTESIAN_POINT('',(0.220896266452,0.16110901382,0.970923959963)
);
#127 = CARTESIAN_POINT('',(0.23968514639,0.133061716734,0.939660077719)
);
#128 = CARTESIAN_POINT('',(0.254446397229,0.102318196342,0.910356249707)
);
#129 = CARTESIAN_POINT('',(0.264706589616,6.940200090636E-002,
0.883730424856));
#130 = CARTESIAN_POINT('',(0.27,3.500045455911E-002,0.860499266231));
#131 = CARTESIAN_POINT('',(0.27,-8.326672684689E-017,0.841296502141));
#132 = TOROIDAL_SURFACE('',#133,2.5,2.);
#133 = AXIS2_PLACEMENT_3D('',#134,#135,#136);
#134 = CARTESIAN_POINT('',(2.5,-0.85,4.53));
#135 = DIRECTION('',(0.E+000,1.,0.E+000));
#136 = DIRECTION('',(1.,0.E+000,0.E+000));
#137 = ADVANCED_FACE('',(#138,#158),#223,.T.);
#138 = FACE_BOUND('',#139,.T.);
#139 = EDGE_LOOP('',(#140,#141,#150,#157));
#140 = ORIENTED_EDGE('',*,*,#31,.T.);
#141 = ORIENTED_EDGE('',*,*,#142,.T.);
#142 = EDGE_CURVE('',#24,#143,#145,.T.);
#143 = VERTEX_POINT('',#144);
#144 = CARTESIAN_POINT('',(5.,-2.95,4.53));
#145 = CIRCLE('',#146,2.);
#146 = AXIS2_PLACEMENT_3D('',#147,#148,#149);
#147 = CARTESIAN_POINT('',(5.,-0.95,4.53));
#148 = DIRECTION('',(0.E+000,0.E+000,-1.));
#149 = DIRECTION('',(1.,0.E+000,0.E+000));
#150 = ORIENTED_EDGE('',*,*,#151,.F.);
#151 = EDGE_CURVE('',#143,#143,#152,.T.);
#152 = CIRCLE('',#153,2.5);
#153 = AXIS2_PLACEMENT_3D('',#154,#155,#156);
#154 = CARTESIAN_POINT('',(2.5,-2.95,4.53));
#155 = DIRECTION('',(0.E+000,-1.,0.E+000));
#156 = DIRECTION('',(1.,0.E+000,0.E+000));
#157 = ORIENTED_EDGE('',*,*,#142,.F.);
#158 = FACE_BOUND('',#159,.T.);
#159 = EDGE_LOOP('',(#160,#183));
#160 = ORIENTED_EDGE('',*,*,#161,.T.);
#161 = EDGE_CURVE('',#162,#164,#166,.T.);
#162 = VERTEX_POINT('',#163);
#163 = CARTESIAN_POINT('',(5.27,-1.8,1.22749587508));
#164 = VERTEX_POINT('',#165);
#165 = CARTESIAN_POINT('',(4.81088424514,-1.607294963056,0.798739627369)
);
#166 = B_SPLINE_CURVE_WITH_KNOTS('',8,(#167,#168,#169,#170,#171,#172,
#173,#174,#175,#176,#177,#178,#179,#180,#181,#182),.UNSPECIFIED.,.F.
,.F.,(9,7,9),(0.E+000,0.326854658025,1.),.UNSPECIFIED.);
#167 = CARTESIAN_POINT('',(5.27,-1.8,1.22749587508));
#168 = CARTESIAN_POINT('',(5.27,-1.774627896647,1.211947789854));
#169 = CARTESIAN_POINT('',(5.26727514828,-1.749463197551,1.194923164098)
);
#170 = CARTESIAN_POINT('',(5.261903462728,-1.724797855053,1.176667272518
));
#171 = CARTESIAN_POINT('',(5.253983469458,-1.700901677155,1.157400883379
));
#172 = CARTESIAN_POINT('',(5.243629624899,-1.678026707589,1.137324216798
));
#173 = CARTESIAN_POINT('',(5.230970106237,-1.656411355936,1.116622317229
));
#174 = CARTESIAN_POINT('',(5.216146970236,-1.636284277777,1.095471840144
));
#175 = CARTESIAN_POINT('',(5.164661426387,-1.579940357235,1.029930209608
));
#176 = CARTESIAN_POINT('',(5.121399198932,-1.54915921732,0.984529575052)
);
#177 = CARTESIAN_POINT('',(5.070870150073,-1.527585586695,0.93942529136)
);
#178 = CARTESIAN_POINT('',(5.015024351072,-1.517417075665,0.896532240004
));
#179 = CARTESIAN_POINT('',(4.956857006153,-1.520551193404,0.858248254332
));
#180 = CARTESIAN_POINT('',(4.900594654408,-1.537905375233,0.827585437846
));
#181 = CARTESIAN_POINT('',(4.85090937493,-1.568015332623,0.807450933746)
);
#182 = CARTESIAN_POINT('',(4.81088424514,-1.607294963056,0.798739627369)
);
#183 = ORIENTED_EDGE('',*,*,#184,.T.);
#184 = EDGE_CURVE('',#164,#162,#185,.T.);
#185 = B_SPLINE_CURVE_WITH_KNOTS('',6,(#186,#187,#188,#189,#190,#191,
#192,#193,#194,#195,#196,#197,#198,#199,#200,#201,#202,#203,#204,
#205,#206,#207,#208,#209,#210,#211,#212,#213,#214,#215,#216,#217,
#218,#219,#220,#221,#222),.UNSPECIFIED.,.F.,.F.,(7,5,5,5,5,5,5,7),(
0.E+000,6.114829614103E-002,0.253271974741,0.431293338247,
0.596333814275,0.762459736334,0.905065646574,1.),.UNSPECIFIED.);
#186 = CARTESIAN_POINT('',(4.81088424514,-1.607294963056,0.798739627369)
);
#187 = CARTESIAN_POINT('',(4.802758209774,-1.615269644655,0.79697102889)
);
#188 = CARTESIAN_POINT('',(4.795043760242,-1.623647711525,0.795695429553
));
#189 = CARTESIAN_POINT('',(4.787769890975,-1.632397410466,0.794922715652
));
#190 = CARTESIAN_POINT('',(4.780961209141,-1.64148458502,0.794658663168)
);
#191 = CARTESIAN_POINT('',(4.774637934638,-1.650872675477,0.794904937768
));
#192 = CARTESIAN_POINT('',(4.750523473915,-1.690842481682,0.798028603581
));
#193 = CARTESIAN_POINT('',(4.737175690301,-1.723753671438,0.805411356063
));
#194 = CARTESIAN_POINT('',(4.729272693529,-1.758049320486,0.817732639665
));
#195 = CARTESIAN_POINT('',(4.726756887912,-1.792478449577,0.834484724832
));
#196 = CARTESIAN_POINT('',(4.72925782709,-1.826115687514,0.854983483188)
);
#197 = CARTESIAN_POINT('',(4.742939648554,-1.888034793327,0.900373353134
));
#198 = CARTESIAN_POINT('',(4.753469351998,-1.916528203105,0.924830876644
));
#199 = CARTESIAN_POINT('',(4.767618421068,-1.943193746401,0.951381887497
));
#200 = CARTESIAN_POINT('',(4.785021124795,-1.967617041365,0.979468034353
));
#201 = CARTESIAN_POINT('',(4.805346492822,-1.989454137197,1.008535494945
));
#202 = CARTESIAN_POINT('',(4.849531995166,-2.025872043147,1.065293380762
));
#203 = CARTESIAN_POINT('',(4.873012083087,-2.040854180261,1.092911441969
));
#204 = CARTESIAN_POINT('',(4.898467237845,-2.053033299731,1.120381537803
));
#205 = CARTESIAN_POINT('',(4.92562112061,-2.06209288338,1.147158084937)
);
#206 = CARTESIAN_POINT('',(4.954085483569,-2.067673919606,1.172552734631
));
#207 = CARTESIAN_POINT('',(5.012730911876,-2.071305565605,1.219291167693
));
#208 = CARTESIAN_POINT('',(5.042942547355,-2.069307358988,1.240622985728
));
#209 = CARTESIAN_POINT('',(5.073246940944,-2.063175155021,1.258991562307
));
#210 = CARTESIAN_POINT('',(5.102783237345,-2.052779046803,1.27358778233)
);
#211 = CARTESIAN_POINT('',(5.130592806252,-2.038339359527,1.283938357283
));
#212 = CARTESIAN_POINT('',(5.177609615579,-2.005091032703,1.295239043634
));
#213 = CARTESIAN_POINT('',(5.197494901834,-1.987177865937,1.297316735128
));
#214 = CARTESIAN_POINT('',(5.215063861629,-1.967061655397,1.296228334281
));
#215 = CARTESIAN_POINT('',(5.229995177908,-1.945225849067,1.292196046934
));
#216 = CARTESIAN_POINT('',(5.242145460229,-1.922156522476,1.285544664619
));
#217 = CARTESIAN_POINT('',(5.257683922374,-1.882401457406,1.270646816215
));
#218 = CARTESIAN_POINT('',(5.26264414194,-1.866157849628,1.263676144153)
);
#219 = CARTESIAN_POINT('',(5.266343667596,-1.849684275657,1.25578417605)
);
#220 = CARTESIAN_POINT('',(5.268789391455,-1.833097395248,1.247065538565
));
#221 = CARTESIAN_POINT('',(5.27,-1.816504036145,1.237609587648));
#222 = CARTESIAN_POINT('',(5.27,-1.8,1.22749587508));
#223 = TOROIDAL_SURFACE('',#224,2.5,2.);
#224 = AXIS2_PLACEMENT_3D('',#225,#226,#227);
#225 = CARTESIAN_POINT('',(2.5,-0.95,4.53));
#226 = DIRECTION('',(0.E+000,-1.,0.E+000));
#227 = DIRECTION('',(1.,0.E+000,0.E+000));
#228 = ADVANCED_FACE('',(#229),#232,.F.);
#229 = FACE_BOUND('',#230,.F.);
#230 = EDGE_LOOP('',(#231));
#231 = ORIENTED_EDGE('',*,*,#64,.T.);
#232 = PLANE('',#233);
#233 = AXIS2_PLACEMENT_3D('',#234,#235,#236);
#234 = CARTESIAN_POINT('',(2.5,1.15,4.53));
#235 = DIRECTION('',(-0.E+000,-1.,-0.E+000));
#236 = DIRECTION('',(0.E+000,0.E+000,-1.));
#237 = ADVANCED_FACE('',(#238),#258,.T.);
#238 = FACE_BOUND('',#239,.T.);
#239 = EDGE_LOOP('',(#240,#241,#249,#256,#257));
#240 = ORIENTED_EDGE('',*,*,#98,.T.);
#241 = ORIENTED_EDGE('',*,*,#242,.T.);
#242 = EDGE_CURVE('',#75,#243,#245,.T.);
#243 = VERTEX_POINT('',#244);
#244 = CARTESIAN_POINT('',(0.27,0.E+000,-2.892));
#245 = LINE('',#246,#247);
#246 = CARTESIAN_POINT('',(0.27,0.E+000,4.53));
#247 = VECTOR('',#248,1.);
#248 = DIRECTION('',(-0.E+000,-0.E+000,-1.));
#249 = ORIENTED_EDGE('',*,*,#250,.T.);
#250 = EDGE_CURVE('',#243,#243,#251,.T.);
#251 = CIRCLE('',#252,0.27);
#252 = AXIS2_PLACEMENT_3D('',#253,#254,#255);
#253 = CARTESIAN_POINT('',(0.E+000,0.E+000,-2.892));
#254 = DIRECTION('',(0.E+000,0.E+000,1.));
#255 = DIRECTION('',(1.,0.E+000,0.E+000));
#256 = ORIENTED_EDGE('',*,*,#242,.F.);
#257 = ORIENTED_EDGE('',*,*,#74,.T.);
#258 = CYLINDRICAL_SURFACE('',#259,0.27);
#259 = AXIS2_PLACEMENT_3D('',#260,#261,#262);
#260 = CARTESIAN_POINT('',(0.E+000,0.E+000,4.53));
#261 = DIRECTION('',(0.E+000,0.E+000,1.));
#262 = DIRECTION('',(1.,0.E+000,0.E+000));
#263 = ADVANCED_FACE('',(#264),#267,.T.);
#264 = FACE_BOUND('',#265,.T.);
#265 = EDGE_LOOP('',(#266));
#266 = ORIENTED_EDGE('',*,*,#151,.T.);
#267 = PLANE('',#268);
#268 = AXIS2_PLACEMENT_3D('',#269,#270,#271);
#269 = CARTESIAN_POINT('',(2.5,-2.95,4.53));
#270 = DIRECTION('',(-0.E+000,-1.,-0.E+000));
#271 = DIRECTION('',(0.E+000,0.E+000,-1.));
#272 = ADVANCED_FACE('',(#273),#293,.T.);
#273 = FACE_BOUND('',#274,.T.);
#274 = EDGE_LOOP('',(#275,#276,#284,#291,#292));
#275 = ORIENTED_EDGE('',*,*,#161,.F.);
#276 = ORIENTED_EDGE('',*,*,#277,.T.);
#277 = EDGE_CURVE('',#162,#278,#280,.T.);
#278 = VERTEX_POINT('',#279);
#279 = CARTESIAN_POINT('',(5.27,-1.8,-2.892));
#280 = LINE('',#281,#282);
#281 = CARTESIAN_POINT('',(5.27,-1.8,4.53));
#282 = VECTOR('',#283,1.);
#283 = DIRECTION('',(-0.E+000,-0.E+000,-1.));
#284 = ORIENTED_EDGE('',*,*,#285,.T.);
#285 = EDGE_CURVE('',#278,#278,#286,.T.);
#286 = CIRCLE('',#287,0.27);
#287 = AXIS2_PLACEMENT_3D('',#288,#289,#290);
#288 = CARTESIAN_POINT('',(5.,-1.8,-2.892));
#289 = DIRECTION('',(0.E+000,0.E+000,1.));
#290 = DIRECTION('',(1.,0.E+000,0.E+000));
#291 = ORIENTED_EDGE('',*,*,#277,.F.);
#292 = ORIENTED_EDGE('',*,*,#184,.F.);
#293 = CYLINDRICAL_SURFACE('',#294,0.27);
#294 = AXIS2_PLACEMENT_3D('',#295,#296,#297);
#295 = CARTESIAN_POINT('',(5.,-1.8,4.53));
#296 = DIRECTION('',(0.E+000,0.E+000,1.));
#297 = DIRECTION('',(1.,0.E+000,0.E+000));
#298 = ADVANCED_FACE('',(#299),#319,.T.);
#299 = FACE_BOUND('',#300,.F.);
#300 = EDGE_LOOP('',(#301,#310,#311,#312));
#301 = ORIENTED_EDGE('',*,*,#302,.F.);
#302 = EDGE_CURVE('',#243,#303,#305,.T.);
#303 = VERTEX_POINT('',#304);
#304 = CARTESIAN_POINT('',(0.162,0.E+000,-3.));
#305 = CIRCLE('',#306,0.108);
#306 = AXIS2_PLACEMENT_3D('',#307,#308,#309);
#307 = CARTESIAN_POINT('',(0.162,0.E+000,-2.892));
#308 = DIRECTION('',(-0.E+000,1.,0.E+000));
#309 = DIRECTION('',(1.,0.E+000,0.E+000));
#310 = ORIENTED_EDGE('',*,*,#250,.T.);
#311 = ORIENTED_EDGE('',*,*,#302,.T.);
#312 = ORIENTED_EDGE('',*,*,#313,.F.);
#313 = EDGE_CURVE('',#303,#303,#314,.T.);
#314 = CIRCLE('',#315,0.162);
#315 = AXIS2_PLACEMENT_3D('',#316,#317,#318);
#316 = CARTESIAN_POINT('',(0.E+000,0.E+000,-3.));
#317 = DIRECTION('',(0.E+000,0.E+000,1.));
#318 = DIRECTION('',(1.,0.E+000,0.E+000));
#319 = TOROIDAL_SURFACE('',#320,0.162,0.108);
#320 = AXIS2_PLACEMENT_3D('',#321,#322,#323);
#321 = CARTESIAN_POINT('',(0.E+000,0.E+000,-2.892));
#322 = DIRECTION('',(-0.E+000,-0.E+000,-1.));
#323 = DIRECTION('',(1.,0.E+000,0.E+000));
#324 = ADVANCED_FACE('',(#325),#345,.T.);
#325 = FACE_BOUND('',#326,.F.);
#326 = EDGE_LOOP('',(#327,#336,#337,#338));
#327 = ORIENTED_EDGE('',*,*,#328,.F.);
#328 = EDGE_CURVE('',#278,#329,#331,.T.);
#329 = VERTEX_POINT('',#330);
#330 = CARTESIAN_POINT('',(5.162,-1.8,-3.));
#331 = CIRCLE('',#332,0.108);
#332 = AXIS2_PLACEMENT_3D('',#333,#334,#335);
#333 = CARTESIAN_POINT('',(5.162,-1.8,-2.892));
#334 = DIRECTION('',(-0.E+000,1.,0.E+000));
#335 = DIRECTION('',(1.,0.E+000,0.E+000));
#336 = ORIENTED_EDGE('',*,*,#285,.T.);
#337 = ORIENTED_EDGE('',*,*,#328,.T.);
#338 = ORIENTED_EDGE('',*,*,#339,.F.);
#339 = EDGE_CURVE('',#329,#329,#340,.T.);
#340 = CIRCLE('',#341,0.162);
#341 = AXIS2_PLACEMENT_3D('',#342,#343,#344);
#342 = CARTESIAN_POINT('',(5.,-1.8,-3.));
#343 = DIRECTION('',(0.E+000,0.E+000,1.));
#344 = DIRECTION('',(1.,0.E+000,0.E+000));
#345 = TOROIDAL_SURFACE('',#346,0.162,0.108);
#346 = AXIS2_PLACEMENT_3D('',#347,#348,#349);
#347 = CARTESIAN_POINT('',(5.,-1.8,-2.892));
#348 = DIRECTION('',(-0.E+000,-0.E+000,-1.));
#349 = DIRECTION('',(1.,0.E+000,0.E+000));
#350 = ADVANCED_FACE('',(#351),#354,.F.);
#351 = FACE_BOUND('',#352,.F.);
#352 = EDGE_LOOP('',(#353));
#353 = ORIENTED_EDGE('',*,*,#313,.T.);
#354 = PLANE('',#355);
#355 = AXIS2_PLACEMENT_3D('',#356,#357,#358);
#356 = CARTESIAN_POINT('',(-1.978356673234E-017,2.854531227236E-017,-3.)
);
#357 = DIRECTION('',(0.E+000,0.E+000,1.));
#358 = DIRECTION('',(1.,0.E+000,0.E+000));
#359 = ADVANCED_FACE('',(#360),#363,.F.);
#360 = FACE_BOUND('',#361,.F.);
#361 = EDGE_LOOP('',(#362));
#362 = ORIENTED_EDGE('',*,*,#339,.T.);
#363 = PLANE('',#364);
#364 = AXIS2_PLACEMENT_3D('',#365,#366,#367);
#365 = CARTESIAN_POINT('',(5.,-1.8,-3.));
#366 = DIRECTION('',(0.E+000,0.E+000,1.));
#367 = DIRECTION('',(1.,0.E+000,0.E+000));
#368 = ( GEOMETRIC_REPRESENTATION_CONTEXT(3)
GLOBAL_UNCERTAINTY_ASSIGNED_CONTEXT((#372)) GLOBAL_UNIT_ASSIGNED_CONTEXT
((#369,#370,#371)) REPRESENTATION_CONTEXT('Context #1',
'3D Context with UNIT and UNCERTAINTY') );
#369 = ( LENGTH_UNIT() NAMED_UNIT(*) SI_UNIT(.MILLI.,.METRE.) );
#370 = ( NAMED_UNIT(*) PLANE_ANGLE_UNIT() SI_UNIT($,.RADIAN.) );
#371 = ( NAMED_UNIT(*) SI_UNIT($,.STERADIAN.) SOLID_ANGLE_UNIT() );
#372 = UNCERTAINTY_MEASURE_WITH_UNIT(LENGTH_MEASURE(1.E-007),#369,
'distance_accuracy_value','confusion accuracy');
#373 = PRODUCT_RELATED_PRODUCT_CATEGORY('part',$,(#7));
#374 = MECHANICAL_DESIGN_GEOMETRIC_PRESENTATION_REPRESENTATION('',(#375,
#383,#390,#397,#404,#412,#419,#426,#433,#440,#447),#368);
#375 = STYLED_ITEM('color',(#376),#17);
#376 = PRESENTATION_STYLE_ASSIGNMENT((#377));
#377 = SURFACE_STYLE_USAGE(.BOTH.,#378);
#378 = SURFACE_SIDE_STYLE('',(#379));
#379 = SURFACE_STYLE_FILL_AREA(#380);
#380 = FILL_AREA_STYLE('',(#381));
#381 = FILL_AREA_STYLE_COLOUR('',#382);
#382 = COLOUR_RGB('',0.136999994516,0.402000010014,0.726999998093);
#383 = STYLED_ITEM('color',(#384),#50);
#384 = PRESENTATION_STYLE_ASSIGNMENT((#385));
#385 = SURFACE_STYLE_USAGE(.BOTH.,#386);
#386 = SURFACE_SIDE_STYLE('',(#387));
#387 = SURFACE_STYLE_FILL_AREA(#388);
#388 = FILL_AREA_STYLE('',(#389));
#389 = FILL_AREA_STYLE_COLOUR('',#382);
#390 = STYLED_ITEM('color',(#391),#137);
#391 = PRESENTATION_STYLE_ASSIGNMENT((#392));
#392 = SURFACE_STYLE_USAGE(.BOTH.,#393);
#393 = SURFACE_SIDE_STYLE('',(#394));
#394 = SURFACE_STYLE_FILL_AREA(#395);
#395 = FILL_AREA_STYLE('',(#396));
#396 = FILL_AREA_STYLE_COLOUR('',#382);
#397 = STYLED_ITEM('color',(#398),#228);
#398 = PRESENTATION_STYLE_ASSIGNMENT((#399));
#399 = SURFACE_STYLE_USAGE(.BOTH.,#400);
#400 = SURFACE_SIDE_STYLE('',(#401));
#401 = SURFACE_STYLE_FILL_AREA(#402);
#402 = FILL_AREA_STYLE('',(#403));
#403 = FILL_AREA_STYLE_COLOUR('',#382);
#404 = STYLED_ITEM('color',(#405),#237);
#405 = PRESENTATION_STYLE_ASSIGNMENT((#406));
#406 = SURFACE_STYLE_USAGE(.BOTH.,#407);
#407 = SURFACE_SIDE_STYLE('',(#408));
#408 = SURFACE_STYLE_FILL_AREA(#409);
#409 = FILL_AREA_STYLE('',(#410));
#410 = FILL_AREA_STYLE_COLOUR('',#411);
#411 = COLOUR_RGB('',0.824000000954,0.819999992847,0.78100001812);
#412 = STYLED_ITEM('color',(#413),#263);
#413 = PRESENTATION_STYLE_ASSIGNMENT((#414));
#414 = SURFACE_STYLE_USAGE(.BOTH.,#415);
#415 = SURFACE_SIDE_STYLE('',(#416));
#416 = SURFACE_STYLE_FILL_AREA(#417);
#417 = FILL_AREA_STYLE('',(#418));
#418 = FILL_AREA_STYLE_COLOUR('',#382);
#419 = STYLED_ITEM('color',(#420),#272);
#420 = PRESENTATION_STYLE_ASSIGNMENT((#421));
#421 = SURFACE_STYLE_USAGE(.BOTH.,#422);
#422 = SURFACE_SIDE_STYLE('',(#423));
#423 = SURFACE_STYLE_FILL_AREA(#424);
#424 = FILL_AREA_STYLE('',(#425));
#425 = FILL_AREA_STYLE_COLOUR('',#411);
#426 = STYLED_ITEM('color',(#427),#298);
#427 = PRESENTATION_STYLE_ASSIGNMENT((#428));
#428 = SURFACE_STYLE_USAGE(.BOTH.,#429);
#429 = SURFACE_SIDE_STYLE('',(#430));
#430 = SURFACE_STYLE_FILL_AREA(#431);
#431 = FILL_AREA_STYLE('',(#432));
#432 = FILL_AREA_STYLE_COLOUR('',#411);
#433 = STYLED_ITEM('color',(#434),#324);
#434 = PRESENTATION_STYLE_ASSIGNMENT((#435));
#435 = SURFACE_STYLE_USAGE(.BOTH.,#436);
#436 = SURFACE_SIDE_STYLE('',(#437));
#437 = SURFACE_STYLE_FILL_AREA(#438);
#438 = FILL_AREA_STYLE('',(#439));
#439 = FILL_AREA_STYLE_COLOUR('',#411);
#440 = STYLED_ITEM('color',(#441),#350);
#441 = PRESENTATION_STYLE_ASSIGNMENT((#442));
#442 = SURFACE_STYLE_USAGE(.BOTH.,#443);
#443 = SURFACE_SIDE_STYLE('',(#444));
#444 = SURFACE_STYLE_FILL_AREA(#445);
#445 = FILL_AREA_STYLE('',(#446));
#446 = FILL_AREA_STYLE_COLOUR('',#411);
#447 = STYLED_ITEM('color',(#448),#359);
#448 = PRESENTATION_STYLE_ASSIGNMENT((#449));
#449 = SURFACE_STYLE_USAGE(.BOTH.,#450);
#450 = SURFACE_SIDE_STYLE('',(#451));
#451 = SURFACE_STYLE_FILL_AREA(#452);
#452 = FILL_AREA_STYLE('',(#453));
#453 = FILL_AREA_STYLE_COLOUR('',#411);
ENDSEC;
END-ISO-10303-21;
