ISO-10303-21;
HEADER;
/* RV_Disc_D15.5mm_W6.8mm_P7.5mm.step 3D STEP model for use in ECAD systems
 * Copyright (C) 2018, kicad StepUp
 * 
 * This work is licensed under the [Creative Commons CC-BY-SA 4.0 License](https://creativecommons.org/licenses/by-sa/4.0/legalcode), 
 * with the following exception:
 * To the extent that the creation of electronic designs that use 'Licensed Material' can be considered to be 'Adapted Material', 
 * then the copyright holder waives article 3 of the license with respect to these designs and any generated files which use data provided 
 * as part of the 'Licensed Material'.
 * You are free to use the library data in your own projects without the obligation to share your project files under this or any other license agreement.
 * However, if you wish to redistribute these libraries, or parts thereof (including in modified form) as a collection then the exception above does not apply. 
 * Please refer to https://github.com/KiCad/kicad-packages3D/blob/master/LICENSE.md for further clarification of the exception.
 * Disclaimer of Warranties and Limitation of Liability.
 * These libraries are provided in the hope that they will be useful, but are provided without warranty of any kind, express or implied.
 * *USE 3D CAD DATA AT YOUR OWN RISK*
 * *DO NOT RELY UPON ANY INFORMATION FOUND HERE WITHOUT INDEPENDENT VERIFICATION.*
 * 
 */

FILE_DESCRIPTION(
/* description */ ('model of RV_Disc_D15.5mm_W6.8mm_P7.5mm'),
/* implementation_level */ '2;1');

FILE_NAME(
/* name */ 'RV_Disc_D15.5mm_W6.8mm_P7.5mm.step',
/* time_stamp */ '2018-11-11T21:01:15',
/* author */ ('kicad StepUp','ksu'),
/* organization */ ('FreeCAD'),
/* preprocessor_version */ 'OCC',
/* originating_system */ 'kicad StepUp',
/* authorisation */ '');

FILE_SCHEMA(('AUTOMOTIVE_DESIGN { 1 0 10303 214 1 1 1 1 }'));
ENDSEC;

DATA;
#1 = APPLICATION_PROTOCOL_DEFINITION('international standard',
'automotive_design',2000,#2);
#2 = APPLICATION_CONTEXT(
'core data for automotive mechanical design processes');
#3 = SHAPE_DEFINITION_REPRESENTATION(#4,#10);
#4 = PRODUCT_DEFINITION_SHAPE('','',#5);
#5 = PRODUCT_DEFINITION('design','',#6,#9);
#6 = PRODUCT_DEFINITION_FORMATION('','',#7);
#7 = PRODUCT('RV_Disc_D155mm_W68mm_P75mm','RV_Disc_D155mm_W68mm_P75mm',
'',(#8));
#8 = PRODUCT_CONTEXT('',#2,'mechanical');
#9 = PRODUCT_DEFINITION_CONTEXT('part definition',#2,'design');
#10 = ADVANCED_BREP_SHAPE_REPRESENTATION('',(#11,#15),#372);
#11 = AXIS2_PLACEMENT_3D('',#12,#13,#14);
#12 = CARTESIAN_POINT('',(0.E+000,0.E+000,0.E+000));
#13 = DIRECTION('',(0.E+000,0.E+000,1.));
#14 = DIRECTION('',(1.,0.E+000,-0.E+000));
#15 = MANIFOLD_SOLID_BREP('',#16);
#16 = CLOSED_SHELL('',(#17,#50,#138,#232,#241,#267,#276,#302,#328,#354,
#363));
#17 = ADVANCED_FACE('',(#18),#45,.T.);
#18 = FACE_BOUND('',#19,.F.);
#19 = EDGE_LOOP('',(#20,#30,#37,#38));
#20 = ORIENTED_EDGE('',*,*,#21,.T.);
#21 = EDGE_CURVE('',#22,#24,#26,.T.);
#22 = VERTEX_POINT('',#23);
#23 = CARTESIAN_POINT('',(11.5,-1.617073170732,7.78));
#24 = VERTEX_POINT('',#25);
#25 = CARTESIAN_POINT('',(11.5,-1.782926829268,7.78));
#26 = LINE('',#27,#28);
#27 = CARTESIAN_POINT('',(11.5,1.7,7.78));
#28 = VECTOR('',#29,1.);
#29 = DIRECTION('',(0.E+000,-1.,0.E+000));
#30 = ORIENTED_EDGE('',*,*,#31,.T.);
#31 = EDGE_CURVE('',#24,#24,#32,.T.);
#32 = CIRCLE('',#33,7.75);
#33 = AXIS2_PLACEMENT_3D('',#34,#35,#36);
#34 = CARTESIAN_POINT('',(3.75,-1.782926829268,7.78));
#35 = DIRECTION('',(1.09450004193E-033,-1.,7.66150029351E-033));
#36 = DIRECTION('',(1.,1.09450004193E-033,-3.279194460794E-033));
#37 = ORIENTED_EDGE('',*,*,#21,.F.);
#38 = ORIENTED_EDGE('',*,*,#39,.F.);
#39 = EDGE_CURVE('',#22,#22,#40,.T.);
#40 = CIRCLE('',#41,7.75);
#41 = AXIS2_PLACEMENT_3D('',#42,#43,#44);
#42 = CARTESIAN_POINT('',(3.75,-1.617073170732,7.78));
#43 = DIRECTION('',(1.09450004193E-033,-1.,7.66150029351E-033));
#44 = DIRECTION('',(1.,1.09450004193E-033,3.279194460794E-033));
#45 = CYLINDRICAL_SURFACE('',#46,7.75);
#46 = AXIS2_PLACEMENT_3D('',#47,#48,#49);
#47 = CARTESIAN_POINT('',(3.75,1.7,7.78));
#48 = DIRECTION('',(0.E+000,1.,0.E+000));
#49 = DIRECTION('',(1.,0.E+000,0.E+000));
#50 = ADVANCED_FACE('',(#51,#71),#133,.T.);
#51 = FACE_BOUND('',#52,.F.);
#52 = EDGE_LOOP('',(#53,#54,#63,#70));
#53 = ORIENTED_EDGE('',*,*,#39,.T.);
#54 = ORIENTED_EDGE('',*,*,#55,.T.);
#55 = EDGE_CURVE('',#22,#56,#58,.T.);
#56 = VERTEX_POINT('',#57);
#57 = CARTESIAN_POINT('',(8.182926829268,1.7,7.78));
#58 = CIRCLE('',#59,3.317073170732);
#59 = AXIS2_PLACEMENT_3D('',#60,#61,#62);
#60 = CARTESIAN_POINT('',(8.182926829268,-1.617073170732,7.78));
#61 = DIRECTION('',(-3.279194460794E-033,7.66150029351E-033,1.));
#62 = DIRECTION('',(1.,1.09450004193E-033,3.279194460794E-033));
#63 = ORIENTED_EDGE('',*,*,#64,.F.);
#64 = EDGE_CURVE('',#56,#56,#65,.T.);
#65 = CIRCLE('',#66,4.432926829268);
#66 = AXIS2_PLACEMENT_3D('',#67,#68,#69);
#67 = CARTESIAN_POINT('',(3.75,1.7,7.78));
#68 = DIRECTION('',(1.09450004193E-033,-1.,7.66150029351E-033));
#69 = DIRECTION('',(1.,1.09450004193E-033,3.279194460794E-033));
#70 = ORIENTED_EDGE('',*,*,#55,.F.);
#71 = FACE_BOUND('',#72,.F.);
#72 = EDGE_LOOP('',(#73,#92));
#73 = ORIENTED_EDGE('',*,*,#74,.T.);
#74 = EDGE_CURVE('',#75,#77,#79,.T.);
#75 = VERTEX_POINT('',#76);
#76 = CARTESIAN_POINT('',(0.36,0.E+000,1.281985826011));
#77 = VERTEX_POINT('',#78);
#78 = CARTESIAN_POINT('',(3.10360143405E-002,-0.35865967966,
1.264656460942));
#79 = B_SPLINE_CURVE_WITH_KNOTS('',6,(#80,#81,#82,#83,#84,#85,#86,#87,
#88,#89,#90,#91),.UNSPECIFIED.,.F.,.F.,(7,5,7),(0.E+000,
0.471174677812,1.),.UNSPECIFIED.);
#80 = CARTESIAN_POINT('',(0.36,-5.551115123126E-017,1.281985826011));
#81 = CARTESIAN_POINT('',(0.36,-3.938399592733E-002,1.257183562397));
#82 = CARTESIAN_POINT('',(0.354829251398,-7.946800144769E-002,
1.235613292786));
#83 = CARTESIAN_POINT('',(0.34414605062,-0.119466133102,1.217929670138)
);
#84 = CARTESIAN_POINT('',(0.327715969959,-0.158363340378,1.20478858443)
);
#85 = CARTESIAN_POINT('',(0.305672267853,-0.194883406419,1.196681432146)
);
#86 = CARTESIAN_POINT('',(0.248439657637,-0.264885173581,1.190351325742)
);
#87 = CARTESIAN_POINT('',(0.21194937846,-0.297476411407,1.193456546717)
);
#88 = CARTESIAN_POINT('',(0.17021791982,-0.323950891444,1.203168973108)
);
#89 = CARTESIAN_POINT('',(0.124908587569,-0.34312377431,1.218935737933)
);
#90 = CARTESIAN_POINT('',(7.792978388142E-002,-0.354601805897,
1.239805263911));
#91 = CARTESIAN_POINT('',(3.10360143405E-002,-0.35865967966,
1.264656460942));
#92 = ORIENTED_EDGE('',*,*,#93,.T.);
#93 = EDGE_CURVE('',#77,#75,#94,.T.);
#94 = B_SPLINE_CURVE_WITH_KNOTS('',7,(#95,#96,#97,#98,#99,#100,#101,#102
,#103,#104,#105,#106,#107,#108,#109,#110,#111,#112,#113,#114,#115,
#116,#117,#118,#119,#120,#121,#122,#123,#124,#125,#126,#127,#128,
#129,#130,#131,#132),.UNSPECIFIED.,.F.,.F.,(8,6,6,6,6,6,8),(0.E+000,
0.214673032933,0.41437727882,0.554278025323,0.687881006773,
0.830614276527,1.),.UNSPECIFIED.);
#95 = CARTESIAN_POINT('',(3.10360143405E-002,-0.35865967966,
1.264656460942));
#96 = CARTESIAN_POINT('',(-2.478403643671E-002,-0.363489974211,
1.294238110994));
#97 = CARTESIAN_POINT('',(-8.037514995336E-002,-0.358088957152,
1.329245627237));
#98 = CARTESIAN_POINT('',(-0.133425815752,-0.342985971095,1.368117449478
));
#99 = CARTESIAN_POINT('',(-0.182132702757,-0.31937728648,1.409395702106)
);
#100 = CARTESIAN_POINT('',(-0.225311828194,-0.288614793591,
1.451944686457));
#101 = CARTESIAN_POINT('',(-0.262178954349,-0.251947095304,1.49486477203
));
#102 = CARTESIAN_POINT('',(-0.319885897292,-0.171860907695,
1.576903560532));
#103 = CARTESIAN_POINT('',(-0.341612514288,-0.129163174378,
1.616005547569));
#104 = CARTESIAN_POINT('',(-0.35674176066,-8.329181177559E-002,
1.654005836093));
#105 = CARTESIAN_POINT('',(-0.364789474646,-3.519548871232E-002,
1.690191570429));
#106 = CARTESIAN_POINT('',(-0.36530346437,1.40664576663E-002,
1.723697550551));
#107 = CARTESIAN_POINT('',(-0.357922008244,6.32568297825E-002,
1.753444963927));
#108 = CARTESIAN_POINT('',(-0.331675066873,0.144302620146,1.795413317558
));
#109 = CARTESIAN_POINT('',(-0.316914711522,0.176923958323,1.810207904187
));
#110 = CARTESIAN_POINT('',(-0.298174016882,0.208239359913,1.822044038273
));
#111 = CARTESIAN_POINT('',(-0.275508220102,0.237608350672,1.830393149834
));
#112 = CARTESIAN_POINT('',(-0.249166206718,0.264315229577,1.834730998104
));
#113 = CARTESIAN_POINT('',(-0.219650140103,0.287668857001,1.834678226287
));
#114 = CARTESIAN_POINT('',(-0.157244345124,0.325807616154,1.825948173489
));
#115 = CARTESIAN_POINT('',(-0.124540632811,0.340946508441,1.817655198179
));
#116 = CARTESIAN_POINT('',(-9.031895913542E-002,0.35212932588,
1.805305353769));
#117 = CARTESIAN_POINT('',(-5.537053708878E-002,0.359171985244,
1.789168565259));
#118 = CARTESIAN_POINT('',(-2.043537658459E-002,0.362146421382,
1.769762211063));
#119 = CARTESIAN_POINT('',(1.386171741784E-002,0.361284454234,
1.747707675372));
#120 = CARTESIAN_POINT('',(8.244581992002E-002,0.35224906451,
1.697931810496));
#121 = CARTESIAN_POINT('',(0.116608580903,0.343574942855,1.669899432894)
);
#122 = CARTESIAN_POINT('',(0.149077321972,0.331257775062,1.640181821821)
);
#123 = CARTESIAN_POINT('',(0.179543250079,0.315663469932,1.609364659029)
);
#124 = CARTESIAN_POINT('',(0.207779084898,0.297122952786,1.577949672101)
);
#125 = CARTESIAN_POINT('',(0.233599270541,0.275915870579,1.546353789451)
);
#126 = CARTESIAN_POINT('',(0.284380643155,0.224219211488,1.477660745191)
);
#127 = CARTESIAN_POINT('',(0.308253364309,0.192763954498,1.440675520575)
);
#128 = CARTESIAN_POINT('',(0.328134540713,0.158322414022,1.404607075965)
);
#129 = CARTESIAN_POINT('',(0.343666164092,0.121291603394,1.370059682355)
);
#130 = CARTESIAN_POINT('',(0.354432607761,8.213508937307E-002,
1.337665193432));
#131 = CARTESIAN_POINT('',(0.36,4.144741487186E-002,1.308087537774));
#132 = CARTESIAN_POINT('',(0.36,-5.551115123126E-017,1.281985826011));
#133 = TOROIDAL_SURFACE('',#134,4.432926829268,3.317073170732);
#134 = AXIS2_PLACEMENT_3D('',#135,#136,#137);
#135 = CARTESIAN_POINT('',(3.75,-1.617073170732,7.78));
#136 = DIRECTION('',(-1.09450004193E-033,1.,-7.66150029351E-033));
#137 = DIRECTION('',(1.,1.09450004193E-033,3.279194460794E-033));
#138 = ADVANCED_FACE('',(#139,#159),#227,.T.);
#139 = FACE_BOUND('',#140,.T.);
#140 = EDGE_LOOP('',(#141,#142,#151,#158));
#141 = ORIENTED_EDGE('',*,*,#31,.T.);
#142 = ORIENTED_EDGE('',*,*,#143,.T.);
#143 = EDGE_CURVE('',#24,#144,#146,.T.);
#144 = VERTEX_POINT('',#145);
#145 = CARTESIAN_POINT('',(8.182926829268,-5.1,7.78));
#146 = CIRCLE('',#147,3.317073170732);
#147 = AXIS2_PLACEMENT_3D('',#148,#149,#150);
#148 = CARTESIAN_POINT('',(8.182926829268,-1.782926829268,7.78));
#149 = DIRECTION('',(-3.279194460794E-033,-7.66150029351E-033,-1.));
#150 = DIRECTION('',(1.,1.09450004193E-033,-3.279194460794E-033));
#151 = ORIENTED_EDGE('',*,*,#152,.F.);
#152 = EDGE_CURVE('',#144,#144,#153,.T.);
#153 = CIRCLE('',#154,4.432926829268);
#154 = AXIS2_PLACEMENT_3D('',#155,#156,#157);
#155 = CARTESIAN_POINT('',(3.75,-5.1,7.78));
#156 = DIRECTION('',(1.09450004193E-033,-1.,7.66150029351E-033));
#157 = DIRECTION('',(1.,1.09450004193E-033,-3.279194460794E-033));
#158 = ORIENTED_EDGE('',*,*,#143,.F.);
#159 = FACE_BOUND('',#160,.T.);
#160 = EDGE_LOOP('',(#161,#174));
#161 = ORIENTED_EDGE('',*,*,#162,.T.);
#162 = EDGE_CURVE('',#163,#165,#167,.T.);
#163 = VERTEX_POINT('',#164);
#164 = CARTESIAN_POINT('',(7.86,-3.4,1.711706318464));
#165 = VERTEX_POINT('',#166);
#166 = CARTESIAN_POINT('',(7.82562943418,-3.246489506563,1.591918578241)
);
#167 = B_SPLINE_CURVE_WITH_KNOTS('',5,(#168,#169,#170,#171,#172,#173),
.UNSPECIFIED.,.F.,.F.,(6,6),(0.E+000,1.),.PIECEWISE_BEZIER_KNOTS.);
#168 = CARTESIAN_POINT('',(7.86,-3.4,1.711706318464));
#169 = CARTESIAN_POINT('',(7.86,-3.367858848897,1.69003192109));
#170 = CARTESIAN_POINT('',(7.856412928971,-3.336022876611,1.666870664578
));
#171 = CARTESIAN_POINT('',(7.849375536603,-3.30493095139,1.642599983424)
);
#172 = CARTESIAN_POINT('',(7.839054064495,-3.274966092596,1.617525298841
));
#173 = CARTESIAN_POINT('',(7.82562943418,-3.246489506563,1.591918578241)
);
#174 = ORIENTED_EDGE('',*,*,#175,.T.);
#175 = EDGE_CURVE('',#165,#163,#176,.T.);
#176 = B_SPLINE_CURVE_WITH_KNOTS('',7,(#177,#178,#179,#180,#181,#182,
#183,#184,#185,#186,#187,#188,#189,#190,#191,#192,#193,#194,#195,
#196,#197,#198,#199,#200,#201,#202,#203,#204,#205,#206,#207,#208,
#209,#210,#211,#212,#213,#214,#215,#216,#217,#218,#219,#220,#221,
#222,#223,#224,#225,#226),.UNSPECIFIED.,.F.,.F.,(8,6,6,6,6,6,6,6,8),
(0.E+000,0.204136355362,0.34122680028,0.424578991599,0.468907689538,
0.599337108086,0.761988278761,0.926244294669,1.),.UNSPECIFIED.);
#177 = CARTESIAN_POINT('',(7.82562943418,-3.246489506563,1.591918578241)
);
#178 = CARTESIAN_POINT('',(7.800875323265,-3.193980606679,1.544701516239
));
#179 = CARTESIAN_POINT('',(7.76631375605,-3.146278995038,1.4958723165));
#180 = CARTESIAN_POINT('',(7.722827643478,-3.104996126175,1.446652980153
));
#181 = CARTESIAN_POINT('',(7.671365421768,-3.071906630092,1.39825025943)
);
#182 = CARTESIAN_POINT('',(7.613371170708,-3.048969821456,1.352147128422
));
#183 = CARTESIAN_POINT('',(7.551120617034,-3.038047972789,1.310271576819
));
#184 = CARTESIAN_POINT('',(7.4451651738,-3.041660333275,1.251097888099)
);
#185 = CARTESIAN_POINT('',(7.402170683264,-3.049009114379,1.230292929779
));
#186 = CARTESIAN_POINT('',(7.359915682512,-3.062526076645,1.213235043488
));
#187 = CARTESIAN_POINT('',(7.319677142233,-3.082135498851,1.200629687673
));
#188 = CARTESIAN_POINT('',(7.282697372051,-3.107354297389,1.193025711669
));
#189 = CARTESIAN_POINT('',(7.250024379928,-3.13731349624,1.190710940736)
);
#190 = CARTESIAN_POINT('',(7.205505471156,-3.191259968916,1.195335443872
));
#191 = CARTESIAN_POINT('',(7.190508698313,-3.212993660199,1.199003753191
));
#192 = CARTESIAN_POINT('',(7.177499197509,-3.235813475474,1.204573783382
));
#193 = CARTESIAN_POINT('',(7.166564681585,-3.259453957563,1.211980907909
));
#194 = CARTESIAN_POINT('',(7.15773727409,-3.283655914633,1.221125509428)
);
#195 = CARTESIAN_POINT('',(7.15100474745,-3.308179945782,1.231884517442)
);
#196 = CARTESIAN_POINT('',(7.14383685284,-3.345911126255,1.250631492882)
);
#197 = CARTESIAN_POINT('',(7.141928817611,-3.35904211923,1.257559005438)
);
#198 = CARTESIAN_POINT('',(7.140595001183,-3.37217294631,1.264885529204)
);
#199 = CARTESIAN_POINT('',(7.139826895108,-3.385274288585,1.272590467359
));
#200 = CARTESIAN_POINT('',(7.139614346482,-3.398319021311,1.280652835712
));
#201 = CARTESIAN_POINT('',(7.139946101221,-3.411282211393,1.289051611347
));
#202 = CARTESIAN_POINT('',(7.143353239983,-3.461976182887,1.323406880512
));
#203 = CARTESIAN_POINT('',(7.150505054192,-3.498892885784,1.351770201249
));
#204 = CARTESIAN_POINT('',(7.16195869312,-3.534335079776,1.382339280075)
);
#205 = CARTESIAN_POINT('',(7.177378777545,-3.567864242659,1.414601434882
));
#206 = CARTESIAN_POINT('',(7.196448209422,-3.599125404832,1.448064860795
));
#207 = CARTESIAN_POINT('',(7.2188892416,-3.627803784831,1.482251858402)
);
#208 = CARTESIAN_POINT('',(7.276345724109,-3.685706378257,1.559587539507
));
#209 = CARTESIAN_POINT('',(7.313022838739,-3.713239464105,1.602762736291
));
#210 = CARTESIAN_POINT('',(7.354073946977,-3.73566887245,1.645357663696)
);
#211 = CARTESIAN_POINT('',(7.399070348416,-3.752206071708,1.68627467951)
);
#212 = CARTESIAN_POINT('',(7.447313884762,-3.761862815236,1.72400543081)
);
#213 = CARTESIAN_POINT('',(7.497561685757,-3.763568650434,1.756662691731
));
#214 = CARTESIAN_POINT('',(7.598898325062,-3.749940787678,1.808893323934
));
#215 = CARTESIAN_POINT('',(7.649996936915,-3.734438727209,1.828338068117
));
#216 = CARTESIAN_POINT('',(7.698559951688,-3.709837465583,1.838901852382
));
#217 = CARTESIAN_POINT('',(7.741963211814,-3.677029107924,1.839850672909
));
#218 = CARTESIAN_POINT('',(7.778407386113,-3.637881349962,1.832121947202
));
#219 = CARTESIAN_POINT('',(7.807038040834,-3.594510909302,1.817159569847
));
#220 = CARTESIAN_POINT('',(7.837051372649,-3.528459414978,1.787341218909
));
#221 = CARTESIAN_POINT('',(7.844777195941,-3.50749705771,1.776946822223)
);
#222 = CARTESIAN_POINT('',(7.850920380347,-3.486186735882,1.765520830748
));
#223 = CARTESIAN_POINT('',(7.855489940184,-3.464663622856,1.753180126487
));
#224 = CARTESIAN_POINT('',(7.858506993432,-3.44305168677,1.740033657228)
);
#225 = CARTESIAN_POINT('',(7.86,-3.421463491897,1.726180232324));
#226 = CARTESIAN_POINT('',(7.86,-3.4,1.711706318464));
#227 = TOROIDAL_SURFACE('',#228,4.432926829268,3.317073170732);
#228 = AXIS2_PLACEMENT_3D('',#229,#230,#231);
#229 = CARTESIAN_POINT('',(3.75,-1.782926829268,7.78));
#230 = DIRECTION('',(1.09450004193E-033,-1.,7.66150029351E-033));
#231 = DIRECTION('',(1.,1.09450004193E-033,-3.279194460794E-033));
#232 = ADVANCED_FACE('',(#233),#236,.F.);
#233 = FACE_BOUND('',#234,.F.);
#234 = EDGE_LOOP('',(#235));
#235 = ORIENTED_EDGE('',*,*,#64,.T.);
#236 = PLANE('',#237);
#237 = AXIS2_PLACEMENT_3D('',#238,#239,#240);
#238 = CARTESIAN_POINT('',(3.75,1.7,7.78));
#239 = DIRECTION('',(1.09450004193E-033,-1.,7.66150029351E-033));
#240 = DIRECTION('',(0.E+000,-7.66150029351E-033,-1.));
#241 = ADVANCED_FACE('',(#242),#262,.T.);
#242 = FACE_BOUND('',#243,.T.);
#243 = EDGE_LOOP('',(#244,#245,#253,#260,#261));
#244 = ORIENTED_EDGE('',*,*,#93,.T.);
#245 = ORIENTED_EDGE('',*,*,#246,.T.);
#246 = EDGE_CURVE('',#75,#247,#249,.T.);
#247 = VERTEX_POINT('',#248);
#248 = CARTESIAN_POINT('',(0.36,0.E+000,-2.856));
#249 = LINE('',#250,#251);
#250 = CARTESIAN_POINT('',(0.36,0.E+000,7.78));
#251 = VECTOR('',#252,1.);
#252 = DIRECTION('',(-0.E+000,-0.E+000,-1.));
#253 = ORIENTED_EDGE('',*,*,#254,.T.);
#254 = EDGE_CURVE('',#247,#247,#255,.T.);
#255 = CIRCLE('',#256,0.36);
#256 = AXIS2_PLACEMENT_3D('',#257,#258,#259);
#257 = CARTESIAN_POINT('',(0.E+000,0.E+000,-2.856));
#258 = DIRECTION('',(0.E+000,0.E+000,1.));
#259 = DIRECTION('',(1.,0.E+000,0.E+000));
#260 = ORIENTED_EDGE('',*,*,#246,.F.);
#261 = ORIENTED_EDGE('',*,*,#74,.T.);
#262 = CYLINDRICAL_SURFACE('',#263,0.36);
#263 = AXIS2_PLACEMENT_3D('',#264,#265,#266);
#264 = CARTESIAN_POINT('',(0.E+000,0.E+000,7.78));
#265 = DIRECTION('',(0.E+000,0.E+000,1.));
#266 = DIRECTION('',(1.,0.E+000,0.E+000));
#267 = ADVANCED_FACE('',(#268),#271,.T.);
#268 = FACE_BOUND('',#269,.T.);
#269 = EDGE_LOOP('',(#270));
#270 = ORIENTED_EDGE('',*,*,#152,.T.);
#271 = PLANE('',#272);
#272 = AXIS2_PLACEMENT_3D('',#273,#274,#275);
#273 = CARTESIAN_POINT('',(3.75,-5.1,7.78));
#274 = DIRECTION('',(1.09450004193E-033,-1.,7.66150029351E-033));
#275 = DIRECTION('',(0.E+000,-7.66150029351E-033,-1.));
#276 = ADVANCED_FACE('',(#277),#297,.T.);
#277 = FACE_BOUND('',#278,.T.);
#278 = EDGE_LOOP('',(#279,#280,#288,#295,#296));
#279 = ORIENTED_EDGE('',*,*,#162,.F.);
#280 = ORIENTED_EDGE('',*,*,#281,.T.);
#281 = EDGE_CURVE('',#163,#282,#284,.T.);
#282 = VERTEX_POINT('',#283);
#283 = CARTESIAN_POINT('',(7.86,-3.4,-2.856));
#284 = LINE('',#285,#286);
#285 = CARTESIAN_POINT('',(7.86,-3.4,7.78));
#286 = VECTOR('',#287,1.);
#287 = DIRECTION('',(-0.E+000,-0.E+000,-1.));
#288 = ORIENTED_EDGE('',*,*,#289,.T.);
#289 = EDGE_CURVE('',#282,#282,#290,.T.);
#290 = CIRCLE('',#291,0.36);
#291 = AXIS2_PLACEMENT_3D('',#292,#293,#294);
#292 = CARTESIAN_POINT('',(7.5,-3.4,-2.856));
#293 = DIRECTION('',(0.E+000,0.E+000,1.));
#294 = DIRECTION('',(1.,0.E+000,0.E+000));
#295 = ORIENTED_EDGE('',*,*,#281,.F.);
#296 = ORIENTED_EDGE('',*,*,#175,.F.);
#297 = CYLINDRICAL_SURFACE('',#298,0.36);
#298 = AXIS2_PLACEMENT_3D('',#299,#300,#301);
#299 = CARTESIAN_POINT('',(7.5,-3.4,7.78));
#300 = DIRECTION('',(0.E+000,0.E+000,1.));
#301 = DIRECTION('',(1.,0.E+000,0.E+000));
#302 = ADVANCED_FACE('',(#303),#323,.T.);
#303 = FACE_BOUND('',#304,.F.);
#304 = EDGE_LOOP('',(#305,#314,#315,#316));
#305 = ORIENTED_EDGE('',*,*,#306,.F.);
#306 = EDGE_CURVE('',#247,#307,#309,.T.);
#307 = VERTEX_POINT('',#308);
#308 = CARTESIAN_POINT('',(0.216,0.E+000,-3.));
#309 = CIRCLE('',#310,0.144);
#310 = AXIS2_PLACEMENT_3D('',#311,#312,#313);
#311 = CARTESIAN_POINT('',(0.216,0.E+000,-2.856));
#312 = DIRECTION('',(-0.E+000,1.,0.E+000));
#313 = DIRECTION('',(1.,0.E+000,0.E+000));
#314 = ORIENTED_EDGE('',*,*,#254,.T.);
#315 = ORIENTED_EDGE('',*,*,#306,.T.);
#316 = ORIENTED_EDGE('',*,*,#317,.F.);
#317 = EDGE_CURVE('',#307,#307,#318,.T.);
#318 = CIRCLE('',#319,0.216);
#319 = AXIS2_PLACEMENT_3D('',#320,#321,#322);
#320 = CARTESIAN_POINT('',(0.E+000,0.E+000,-3.));
#321 = DIRECTION('',(0.E+000,0.E+000,1.));
#322 = DIRECTION('',(1.,0.E+000,0.E+000));
#323 = TOROIDAL_SURFACE('',#324,0.216,0.144);
#324 = AXIS2_PLACEMENT_3D('',#325,#326,#327);
#325 = CARTESIAN_POINT('',(0.E+000,0.E+000,-2.856));
#326 = DIRECTION('',(-0.E+000,-0.E+000,-1.));
#327 = DIRECTION('',(1.,0.E+000,0.E+000));
#328 = ADVANCED_FACE('',(#329),#349,.T.);
#329 = FACE_BOUND('',#330,.F.);
#330 = EDGE_LOOP('',(#331,#340,#341,#342));
#331 = ORIENTED_EDGE('',*,*,#332,.F.);
#332 = EDGE_CURVE('',#282,#333,#335,.T.);
#333 = VERTEX_POINT('',#334);
#334 = CARTESIAN_POINT('',(7.716,-3.4,-3.));
#335 = CIRCLE('',#336,0.144);
#336 = AXIS2_PLACEMENT_3D('',#337,#338,#339);
#337 = CARTESIAN_POINT('',(7.716,-3.4,-2.856));
#338 = DIRECTION('',(-0.E+000,1.,0.E+000));
#339 = DIRECTION('',(1.,0.E+000,0.E+000));
#340 = ORIENTED_EDGE('',*,*,#289,.T.);
#341 = ORIENTED_EDGE('',*,*,#332,.T.);
#342 = ORIENTED_EDGE('',*,*,#343,.F.);
#343 = EDGE_CURVE('',#333,#333,#344,.T.);
#344 = CIRCLE('',#345,0.216);
#345 = AXIS2_PLACEMENT_3D('',#346,#347,#348);
#346 = CARTESIAN_POINT('',(7.5,-3.4,-3.));
#347 = DIRECTION('',(0.E+000,0.E+000,1.));
#348 = DIRECTION('',(1.,0.E+000,0.E+000));
#349 = TOROIDAL_SURFACE('',#350,0.216,0.144);
#350 = AXIS2_PLACEMENT_3D('',#351,#352,#353);
#351 = CARTESIAN_POINT('',(7.5,-3.4,-2.856));
#352 = DIRECTION('',(-0.E+000,-0.E+000,-1.));
#353 = DIRECTION('',(1.,0.E+000,0.E+000));
#354 = ADVANCED_FACE('',(#355),#358,.F.);
#355 = FACE_BOUND('',#356,.F.);
#356 = EDGE_LOOP('',(#357));
#357 = ORIENTED_EDGE('',*,*,#317,.T.);
#358 = PLANE('',#359);
#359 = AXIS2_PLACEMENT_3D('',#360,#361,#362);
#360 = CARTESIAN_POINT('',(-1.483767504926E-017,1.497958850874E-017,-3.)
);
#361 = DIRECTION('',(0.E+000,0.E+000,1.));
#362 = DIRECTION('',(1.,0.E+000,0.E+000));
#363 = ADVANCED_FACE('',(#364),#367,.F.);
#364 = FACE_BOUND('',#365,.F.);
#365 = EDGE_LOOP('',(#366));
#366 = ORIENTED_EDGE('',*,*,#343,.T.);
#367 = PLANE('',#368);
#368 = AXIS2_PLACEMENT_3D('',#369,#370,#371);
#369 = CARTESIAN_POINT('',(7.5,-3.4,-3.));
#370 = DIRECTION('',(0.E+000,0.E+000,1.));
#371 = DIRECTION('',(1.,0.E+000,0.E+000));
#372 = ( GEOMETRIC_REPRESENTATION_CONTEXT(3)
GLOBAL_UNCERTAINTY_ASSIGNED_CONTEXT((#376)) GLOBAL_UNIT_ASSIGNED_CONTEXT
((#373,#374,#375)) REPRESENTATION_CONTEXT('Context #1',
'3D Context with UNIT and UNCERTAINTY') );
#373 = ( LENGTH_UNIT() NAMED_UNIT(*) SI_UNIT(.MILLI.,.METRE.) );
#374 = ( NAMED_UNIT(*) PLANE_ANGLE_UNIT() SI_UNIT($,.RADIAN.) );
#375 = ( NAMED_UNIT(*) SI_UNIT($,.STERADIAN.) SOLID_ANGLE_UNIT() );
#376 = UNCERTAINTY_MEASURE_WITH_UNIT(LENGTH_MEASURE(1.E-007),#373,
'distance_accuracy_value','confusion accuracy');
#377 = PRODUCT_RELATED_PRODUCT_CATEGORY('part',$,(#7));
#378 = MECHANICAL_DESIGN_GEOMETRIC_PRESENTATION_REPRESENTATION('',(#379,
#387,#394,#401,#408,#416,#423,#430,#437,#444,#451),#372);
#379 = STYLED_ITEM('color',(#380),#17);
#380 = PRESENTATION_STYLE_ASSIGNMENT((#381));
#381 = SURFACE_STYLE_USAGE(.BOTH.,#382);
#382 = SURFACE_SIDE_STYLE('',(#383));
#383 = SURFACE_STYLE_FILL_AREA(#384);
#384 = FILL_AREA_STYLE('',(#385));
#385 = FILL_AREA_STYLE_COLOUR('',#386);
#386 = COLOUR_RGB('',0.136999994516,0.402000010014,0.726999998093);
#387 = STYLED_ITEM('color',(#388),#50);
#388 = PRESENTATION_STYLE_ASSIGNMENT((#389));
#389 = SURFACE_STYLE_USAGE(.BOTH.,#390);
#390 = SURFACE_SIDE_STYLE('',(#391));
#391 = SURFACE_STYLE_FILL_AREA(#392);
#392 = FILL_AREA_STYLE('',(#393));
#393 = FILL_AREA_STYLE_COLOUR('',#386);
#394 = STYLED_ITEM('color',(#395),#138);
#395 = PRESENTATION_STYLE_ASSIGNMENT((#396));
#396 = SURFACE_STYLE_USAGE(.BOTH.,#397);
#397 = SURFACE_SIDE_STYLE('',(#398));
#398 = SURFACE_STYLE_FILL_AREA(#399);
#399 = FILL_AREA_STYLE('',(#400));
#400 = FILL_AREA_STYLE_COLOUR('',#386);
#401 = STYLED_ITEM('color',(#402),#232);
#402 = PRESENTATION_STYLE_ASSIGNMENT((#403));
#403 = SURFACE_STYLE_USAGE(.BOTH.,#404);
#404 = SURFACE_SIDE_STYLE('',(#405));
#405 = SURFACE_STYLE_FILL_AREA(#406);
#406 = FILL_AREA_STYLE('',(#407));
#407 = FILL_AREA_STYLE_COLOUR('',#386);
#408 = STYLED_ITEM('color',(#409),#241);
#409 = PRESENTATION_STYLE_ASSIGNMENT((#410));
#410 = SURFACE_STYLE_USAGE(.BOTH.,#411);
#411 = SURFACE_SIDE_STYLE('',(#412));
#412 = SURFACE_STYLE_FILL_AREA(#413);
#413 = FILL_AREA_STYLE('',(#414));
#414 = FILL_AREA_STYLE_COLOUR('',#415);
#415 = COLOUR_RGB('',0.824000000954,0.819999992847,0.78100001812);
#416 = STYLED_ITEM('color',(#417),#267);
#417 = PRESENTATION_STYLE_ASSIGNMENT((#418));
#418 = SURFACE_STYLE_USAGE(.BOTH.,#419);
#419 = SURFACE_SIDE_STYLE('',(#420));
#420 = SURFACE_STYLE_FILL_AREA(#421);
#421 = FILL_AREA_STYLE('',(#422));
#422 = FILL_AREA_STYLE_COLOUR('',#386);
#423 = STYLED_ITEM('color',(#424),#276);
#424 = PRESENTATION_STYLE_ASSIGNMENT((#425));
#425 = SURFACE_STYLE_USAGE(.BOTH.,#426);
#426 = SURFACE_SIDE_STYLE('',(#427));
#427 = SURFACE_STYLE_FILL_AREA(#428);
#428 = FILL_AREA_STYLE('',(#429));
#429 = FILL_AREA_STYLE_COLOUR('',#415);
#430 = STYLED_ITEM('color',(#431),#302);
#431 = PRESENTATION_STYLE_ASSIGNMENT((#432));
#432 = SURFACE_STYLE_USAGE(.BOTH.,#433);
#433 = SURFACE_SIDE_STYLE('',(#434));
#434 = SURFACE_STYLE_FILL_AREA(#435);
#435 = FILL_AREA_STYLE('',(#436));
#436 = FILL_AREA_STYLE_COLOUR('',#415);
#437 = STYLED_ITEM('color',(#438),#328);
#438 = PRESENTATION_STYLE_ASSIGNMENT((#439));
#439 = SURFACE_STYLE_USAGE(.BOTH.,#440);
#440 = SURFACE_SIDE_STYLE('',(#441));
#441 = SURFACE_STYLE_FILL_AREA(#442);
#442 = FILL_AREA_STYLE('',(#443));
#443 = FILL_AREA_STYLE_COLOUR('',#415);
#444 = STYLED_ITEM('color',(#445),#354);
#445 = PRESENTATION_STYLE_ASSIGNMENT((#446));
#446 = SURFACE_STYLE_USAGE(.BOTH.,#447);
#447 = SURFACE_SIDE_STYLE('',(#448));
#448 = SURFACE_STYLE_FILL_AREA(#449);
#449 = FILL_AREA_STYLE('',(#450));
#450 = FILL_AREA_STYLE_COLOUR('',#415);
#451 = STYLED_ITEM('color',(#452),#363);
#452 = PRESENTATION_STYLE_ASSIGNMENT((#453));
#453 = SURFACE_STYLE_USAGE(.BOTH.,#454);
#454 = SURFACE_SIDE_STYLE('',(#455));
#455 = SURFACE_STYLE_FILL_AREA(#456);
#456 = FILL_AREA_STYLE('',(#457));
#457 = FILL_AREA_STYLE_COLOUR('',#415);
ENDSEC;
END-ISO-10303-21;
