ISO-10303-21;
HEADER;
/* Crystal_C38-LF_D3.0mm_L8.0mm_Vertical.step 3D STEP model for use in ECAD systems
 * Copyright (C) 2019, kicad StepUp
 * 
 * This work is licensed under the [Creative Commons CC-BY-SA 4.0 License](https://creativecommons.org/licenses/by-sa/4.0/legalcode), 
 * with the following exception:
 * To the extent that the creation of electronic designs that use 'Licensed Material' can be considered to be 'Adapted Material', 
 * then the copyright holder waives article 3 of the license with respect to these designs and any generated files which use data provided 
 * as part of the 'Licensed Material'.
 * You are free to use the library data in your own projects without the obligation to share your project files under this or any other license agreement.
 * However, if you wish to redistribute these libraries, or parts thereof (including in modified form) as a collection then the exception above does not apply. 
 * Please refer to https://github.com/KiCad/kicad-packages3D/blob/master/LICENSE.md for further clarification of the exception.
 * Disclaimer of Warranties and Limitation of Liability.
 * These libraries are provided in the hope that they will be useful, but are provided without warranty of any kind, express or implied.
 * *USE 3D CAD DATA AT YOUR OWN RISK*
 * *DO NOT RELY UPON ANY INFORMATION FOUND HERE WITHOUT INDEPENDENT VERIFICATION.*
 * 
 * 
 * 
 * 
 * 
 * 
 * 
 * 
 * 
 * 
 * 
 * 
 * 
 * 
 * 
 * 
 * 
 */

FILE_DESCRIPTION(
/* description */ ('model of Crystal_C38-LF_D3.0mm_L8.0mm_Vertical'),
/* implementation_level */ '2;1');

FILE_NAME(
/* name */ 'Crystal_C38-LF_D3.0mm_L8.0mm_Vertical.step',
/* time_stamp */ '2019-07-07T07:40:40',
/* author */ ('kicad StepUp','ksu'),
/* organization */ ('FreeCAD'),
/* preprocessor_version */ 'OCC',
/* originating_system */ 'kicad StepUp',
/* authorisation */ '');

FILE_SCHEMA(('AUTOMOTIVE_DESIGN { 1 0 10303 214 1 1 1 1 }'));
ENDSEC;

DATA;
#1 = APPLICATION_PROTOCOL_DEFINITION('international standard',
'automotive_design',2000,#2);
#2 = APPLICATION_CONTEXT(
'core data for automotive mechanical design processes');
#3 = SHAPE_DEFINITION_REPRESENTATION(#4,#10);
#4 = PRODUCT_DEFINITION_SHAPE('','',#5);
#5 = PRODUCT_DEFINITION('design','',#6,#9);
#6 = PRODUCT_DEFINITION_FORMATION('','',#7);
#7 = PRODUCT('C38_LF_Vertical','C38_LF_Vertical','',(#8));
#8 = PRODUCT_CONTEXT('',#2,'mechanical');
#9 = PRODUCT_DEFINITION_CONTEXT('part definition',#2,'design');
#10 = ADVANCED_BREP_SHAPE_REPRESENTATION('',(#11,#15),#392);
#11 = AXIS2_PLACEMENT_3D('',#12,#13,#14);
#12 = CARTESIAN_POINT('',(0.E+000,0.E+000,0.E+000));
#13 = DIRECTION('',(0.E+000,0.E+000,1.));
#14 = DIRECTION('',(1.,0.E+000,-0.E+000));
#15 = MANIFOLD_SOLID_BREP('',#16);
#16 = CLOSED_SHELL('',(#17,#50,#76,#104,#113,#138,#169,#194,#219,#244,
#272,#297,#322,#348,#374,#383));
#17 = ADVANCED_FACE('',(#18),#45,.T.);
#18 = FACE_BOUND('',#19,.T.);
#19 = EDGE_LOOP('',(#20,#30,#37,#38));
#20 = ORIENTED_EDGE('',*,*,#21,.T.);
#21 = EDGE_CURVE('',#22,#24,#26,.T.);
#22 = VERTEX_POINT('',#23);
#23 = CARTESIAN_POINT('',(0.15,0.E+000,-2.925));
#24 = VERTEX_POINT('',#25);
#25 = CARTESIAN_POINT('',(0.15,0.E+000,0.E+000));
#26 = LINE('',#27,#28);
#27 = CARTESIAN_POINT('',(0.15,0.E+000,-3.));
#28 = VECTOR('',#29,1.);
#29 = DIRECTION('',(0.E+000,0.E+000,1.));
#30 = ORIENTED_EDGE('',*,*,#31,.F.);
#31 = EDGE_CURVE('',#24,#24,#32,.T.);
#32 = CIRCLE('',#33,0.15);
#33 = AXIS2_PLACEMENT_3D('',#34,#35,#36);
#34 = CARTESIAN_POINT('',(0.E+000,0.E+000,0.E+000));
#35 = DIRECTION('',(0.E+000,0.E+000,1.));
#36 = DIRECTION('',(1.,0.E+000,0.E+000));
#37 = ORIENTED_EDGE('',*,*,#21,.F.);
#38 = ORIENTED_EDGE('',*,*,#39,.T.);
#39 = EDGE_CURVE('',#22,#22,#40,.T.);
#40 = CIRCLE('',#41,0.15);
#41 = AXIS2_PLACEMENT_3D('',#42,#43,#44);
#42 = CARTESIAN_POINT('',(0.E+000,0.E+000,-2.925));
#43 = DIRECTION('',(0.E+000,0.E+000,1.));
#44 = DIRECTION('',(1.,0.E+000,0.E+000));
#45 = CYLINDRICAL_SURFACE('',#46,0.15);
#46 = AXIS2_PLACEMENT_3D('',#47,#48,#49);
#47 = CARTESIAN_POINT('',(0.E+000,0.E+000,-3.));
#48 = DIRECTION('',(0.E+000,0.E+000,1.));
#49 = DIRECTION('',(1.,0.E+000,0.E+000));
#50 = ADVANCED_FACE('',(#51),#71,.T.);
#51 = FACE_BOUND('',#52,.F.);
#52 = EDGE_LOOP('',(#53,#62,#63,#64));
#53 = ORIENTED_EDGE('',*,*,#54,.F.);
#54 = EDGE_CURVE('',#22,#55,#57,.T.);
#55 = VERTEX_POINT('',#56);
#56 = CARTESIAN_POINT('',(7.5E-002,0.E+000,-3.));
#57 = CIRCLE('',#58,7.5E-002);
#58 = AXIS2_PLACEMENT_3D('',#59,#60,#61);
#59 = CARTESIAN_POINT('',(7.5E-002,0.E+000,-2.925));
#60 = DIRECTION('',(-0.E+000,1.,0.E+000));
#61 = DIRECTION('',(1.,0.E+000,0.E+000));
#62 = ORIENTED_EDGE('',*,*,#39,.T.);
#63 = ORIENTED_EDGE('',*,*,#54,.T.);
#64 = ORIENTED_EDGE('',*,*,#65,.F.);
#65 = EDGE_CURVE('',#55,#55,#66,.T.);
#66 = CIRCLE('',#67,7.5E-002);
#67 = AXIS2_PLACEMENT_3D('',#68,#69,#70);
#68 = CARTESIAN_POINT('',(0.E+000,0.E+000,-3.));
#69 = DIRECTION('',(0.E+000,0.E+000,1.));
#70 = DIRECTION('',(1.,0.E+000,0.E+000));
#71 = TOROIDAL_SURFACE('',#72,7.5E-002,7.5E-002);
#72 = AXIS2_PLACEMENT_3D('',#73,#74,#75);
#73 = CARTESIAN_POINT('',(0.E+000,0.E+000,-2.925));
#74 = DIRECTION('',(-0.E+000,-0.E+000,-1.));
#75 = DIRECTION('',(1.,0.E+000,0.E+000));
#76 = ADVANCED_FACE('',(#77),#96,.T.);
#77 = FACE_BOUND('',#78,.T.);
#78 = EDGE_LOOP('',(#79,#87,#94,#95));
#79 = ORIENTED_EDGE('',*,*,#80,.T.);
#80 = EDGE_CURVE('',#24,#81,#83,.T.);
#81 = VERTEX_POINT('',#82);
#82 = CARTESIAN_POINT('',(0.75,0.E+000,1.));
#83 = LINE('',#84,#85);
#84 = CARTESIAN_POINT('',(0.15,0.E+000,0.E+000));
#85 = VECTOR('',#86,1.);
#86 = DIRECTION('',(0.514495755428,0.E+000,0.857492925713));
#87 = ORIENTED_EDGE('',*,*,#88,.F.);
#88 = EDGE_CURVE('',#81,#81,#89,.T.);
#89 = CIRCLE('',#90,0.15);
#90 = AXIS2_PLACEMENT_3D('',#91,#92,#93);
#91 = CARTESIAN_POINT('',(0.6,0.E+000,1.));
#92 = DIRECTION('',(5.551115123126E-017,-0.E+000,1.));
#93 = DIRECTION('',(1.,0.E+000,-5.551115123126E-017));
#94 = ORIENTED_EDGE('',*,*,#80,.F.);
#95 = ORIENTED_EDGE('',*,*,#31,.T.);
#96 = SURFACE_OF_LINEAR_EXTRUSION('',#97,#102);
#97 = CIRCLE('',#98,0.15);
#98 = AXIS2_PLACEMENT_3D('',#99,#100,#101);
#99 = CARTESIAN_POINT('',(0.E+000,0.E+000,0.E+000));
#100 = DIRECTION('',(5.551115123126E-017,-0.E+000,1.));
#101 = DIRECTION('',(1.,0.E+000,-5.551115123126E-017));
#102 = VECTOR('',#103,1.);
#103 = DIRECTION('',(0.514495755428,0.E+000,0.857492925713));
#104 = ADVANCED_FACE('',(#105),#108,.F.);
#105 = FACE_BOUND('',#106,.F.);
#106 = EDGE_LOOP('',(#107));
#107 = ORIENTED_EDGE('',*,*,#65,.T.);
#108 = PLANE('',#109);
#109 = AXIS2_PLACEMENT_3D('',#110,#111,#112);
#110 = CARTESIAN_POINT('',(-1.780521005911E-017,2.779371033817E-018,-3.)
);
#111 = DIRECTION('',(0.E+000,0.E+000,1.));
#112 = DIRECTION('',(1.,0.E+000,0.E+000));
#113 = ADVANCED_FACE('',(#114),#133,.T.);
#114 = FACE_BOUND('',#115,.T.);
#115 = EDGE_LOOP('',(#116,#117,#125,#132));
#116 = ORIENTED_EDGE('',*,*,#88,.T.);
#117 = ORIENTED_EDGE('',*,*,#118,.T.);
#118 = EDGE_CURVE('',#81,#119,#121,.T.);
#119 = VERTEX_POINT('',#120);
#120 = CARTESIAN_POINT('',(0.75,0.E+000,2.));
#121 = LINE('',#122,#123);
#122 = CARTESIAN_POINT('',(0.75,0.E+000,1.));
#123 = VECTOR('',#124,1.);
#124 = DIRECTION('',(0.E+000,0.E+000,1.));
#125 = ORIENTED_EDGE('',*,*,#126,.F.);
#126 = EDGE_CURVE('',#119,#119,#127,.T.);
#127 = CIRCLE('',#128,0.15);
#128 = AXIS2_PLACEMENT_3D('',#129,#130,#131);
#129 = CARTESIAN_POINT('',(0.6,0.E+000,2.));
#130 = DIRECTION('',(0.E+000,0.E+000,1.));
#131 = DIRECTION('',(1.,0.E+000,0.E+000));
#132 = ORIENTED_EDGE('',*,*,#118,.F.);
#133 = CYLINDRICAL_SURFACE('',#134,0.15);
#134 = AXIS2_PLACEMENT_3D('',#135,#136,#137);
#135 = CARTESIAN_POINT('',(0.6,0.E+000,1.));
#136 = DIRECTION('',(0.E+000,0.E+000,1.));
#137 = DIRECTION('',(1.,0.E+000,0.E+000));
#138 = ADVANCED_FACE('',(#139,#150,#153),#164,.F.);
#139 = FACE_BOUND('',#140,.F.);
#140 = EDGE_LOOP('',(#141));
#141 = ORIENTED_EDGE('',*,*,#142,.T.);
#142 = EDGE_CURVE('',#143,#143,#145,.T.);
#143 = VERTEX_POINT('',#144);
#144 = CARTESIAN_POINT('',(2.45,0.E+000,2.));
#145 = CIRCLE('',#146,1.5);
#146 = AXIS2_PLACEMENT_3D('',#147,#148,#149);
#147 = CARTESIAN_POINT('',(0.95,0.E+000,2.));
#148 = DIRECTION('',(0.E+000,0.E+000,1.));
#149 = DIRECTION('',(1.,0.E+000,0.E+000));
#150 = FACE_BOUND('',#151,.F.);
#151 = EDGE_LOOP('',(#152));
#152 = ORIENTED_EDGE('',*,*,#126,.F.);
#153 = FACE_BOUND('',#154,.F.);
#154 = EDGE_LOOP('',(#155));
#155 = ORIENTED_EDGE('',*,*,#156,.F.);
#156 = EDGE_CURVE('',#157,#157,#159,.T.);
#157 = VERTEX_POINT('',#158);
#158 = CARTESIAN_POINT('',(1.45,0.E+000,2.));
#159 = CIRCLE('',#160,0.15);
#160 = AXIS2_PLACEMENT_3D('',#161,#162,#163);
#161 = CARTESIAN_POINT('',(1.3,0.E+000,2.));
#162 = DIRECTION('',(0.E+000,0.E+000,1.));
#163 = DIRECTION('',(1.,0.E+000,0.E+000));
#164 = PLANE('',#165);
#165 = AXIS2_PLACEMENT_3D('',#166,#167,#168);
#166 = CARTESIAN_POINT('',(0.95,-4.255667768225E-018,2.));
#167 = DIRECTION('',(0.E+000,0.E+000,1.));
#168 = DIRECTION('',(1.,0.E+000,0.E+000));
#169 = ADVANCED_FACE('',(#170),#189,.T.);
#170 = FACE_BOUND('',#171,.F.);
#171 = EDGE_LOOP('',(#172,#173,#181,#188));
#172 = ORIENTED_EDGE('',*,*,#142,.F.);
#173 = ORIENTED_EDGE('',*,*,#174,.T.);
#174 = EDGE_CURVE('',#143,#175,#177,.T.);
#175 = VERTEX_POINT('',#176);
#176 = CARTESIAN_POINT('',(2.45,0.E+000,2.2));
#177 = LINE('',#178,#179);
#178 = CARTESIAN_POINT('',(2.45,0.E+000,2.));
#179 = VECTOR('',#180,1.);
#180 = DIRECTION('',(0.E+000,0.E+000,1.));
#181 = ORIENTED_EDGE('',*,*,#182,.T.);
#182 = EDGE_CURVE('',#175,#175,#183,.T.);
#183 = CIRCLE('',#184,1.5);
#184 = AXIS2_PLACEMENT_3D('',#185,#186,#187);
#185 = CARTESIAN_POINT('',(0.95,0.E+000,2.2));
#186 = DIRECTION('',(0.E+000,0.E+000,1.));
#187 = DIRECTION('',(1.,0.E+000,0.E+000));
#188 = ORIENTED_EDGE('',*,*,#174,.F.);
#189 = CYLINDRICAL_SURFACE('',#190,1.5);
#190 = AXIS2_PLACEMENT_3D('',#191,#192,#193);
#191 = CARTESIAN_POINT('',(0.95,0.E+000,2.));
#192 = DIRECTION('',(-0.E+000,-0.E+000,-1.));
#193 = DIRECTION('',(1.,0.E+000,0.E+000));
#194 = ADVANCED_FACE('',(#195),#214,.T.);
#195 = FACE_BOUND('',#196,.T.);
#196 = EDGE_LOOP('',(#197,#206,#212,#213));
#197 = ORIENTED_EDGE('',*,*,#198,.T.);
#198 = EDGE_CURVE('',#199,#199,#201,.T.);
#199 = VERTEX_POINT('',#200);
#200 = CARTESIAN_POINT('',(1.45,0.E+000,1.));
#201 = CIRCLE('',#202,0.15);
#202 = AXIS2_PLACEMENT_3D('',#203,#204,#205);
#203 = CARTESIAN_POINT('',(1.3,0.E+000,1.));
#204 = DIRECTION('',(-5.551115123126E-017,0.E+000,1.));
#205 = DIRECTION('',(1.,0.E+000,5.551115123126E-017));
#206 = ORIENTED_EDGE('',*,*,#207,.T.);
#207 = EDGE_CURVE('',#199,#157,#208,.T.);
#208 = LINE('',#209,#210);
#209 = CARTESIAN_POINT('',(1.45,0.E+000,1.));
#210 = VECTOR('',#211,1.);
#211 = DIRECTION('',(0.E+000,0.E+000,1.));
#212 = ORIENTED_EDGE('',*,*,#156,.F.);
#213 = ORIENTED_EDGE('',*,*,#207,.F.);
#214 = CYLINDRICAL_SURFACE('',#215,0.15);
#215 = AXIS2_PLACEMENT_3D('',#216,#217,#218);
#216 = CARTESIAN_POINT('',(1.3,0.E+000,1.));
#217 = DIRECTION('',(0.E+000,0.E+000,1.));
#218 = DIRECTION('',(1.,0.E+000,0.E+000));
#219 = ADVANCED_FACE('',(#220),#239,.T.);
#220 = FACE_BOUND('',#221,.F.);
#221 = EDGE_LOOP('',(#222,#223,#231,#238));
#222 = ORIENTED_EDGE('',*,*,#182,.F.);
#223 = ORIENTED_EDGE('',*,*,#224,.T.);
#224 = EDGE_CURVE('',#175,#225,#227,.T.);
#225 = VERTEX_POINT('',#226);
#226 = CARTESIAN_POINT('',(2.45,0.E+000,2.3));
#227 = LINE('',#228,#229);
#228 = CARTESIAN_POINT('',(2.45,0.E+000,2.));
#229 = VECTOR('',#230,1.);
#230 = DIRECTION('',(0.E+000,0.E+000,1.));
#231 = ORIENTED_EDGE('',*,*,#232,.T.);
#232 = EDGE_CURVE('',#225,#225,#233,.T.);
#233 = CIRCLE('',#234,1.5);
#234 = AXIS2_PLACEMENT_3D('',#235,#236,#237);
#235 = CARTESIAN_POINT('',(0.95,0.E+000,2.3));
#236 = DIRECTION('',(0.E+000,0.E+000,1.));
#237 = DIRECTION('',(1.,0.E+000,0.E+000));
#238 = ORIENTED_EDGE('',*,*,#224,.F.);
#239 = CYLINDRICAL_SURFACE('',#240,1.5);
#240 = AXIS2_PLACEMENT_3D('',#241,#242,#243);
#241 = CARTESIAN_POINT('',(0.95,0.E+000,2.));
#242 = DIRECTION('',(-0.E+000,-0.E+000,-1.));
#243 = DIRECTION('',(1.,0.E+000,0.E+000));
#244 = ADVANCED_FACE('',(#245),#264,.T.);
#245 = FACE_BOUND('',#246,.T.);
#246 = EDGE_LOOP('',(#247,#255,#256,#257));
#247 = ORIENTED_EDGE('',*,*,#248,.T.);
#248 = EDGE_CURVE('',#249,#199,#251,.T.);
#249 = VERTEX_POINT('',#250);
#250 = CARTESIAN_POINT('',(2.05,0.E+000,0.E+000));
#251 = LINE('',#252,#253);
#252 = CARTESIAN_POINT('',(2.05,0.E+000,0.E+000));
#253 = VECTOR('',#254,1.);
#254 = DIRECTION('',(-0.514495755428,0.E+000,0.857492925713));
#255 = ORIENTED_EDGE('',*,*,#198,.F.);
#256 = ORIENTED_EDGE('',*,*,#248,.F.);
#257 = ORIENTED_EDGE('',*,*,#258,.T.);
#258 = EDGE_CURVE('',#249,#249,#259,.T.);
#259 = CIRCLE('',#260,0.15);
#260 = AXIS2_PLACEMENT_3D('',#261,#262,#263);
#261 = CARTESIAN_POINT('',(1.9,0.E+000,0.E+000));
#262 = DIRECTION('',(0.E+000,0.E+000,1.));
#263 = DIRECTION('',(1.,0.E+000,0.E+000));
#264 = SURFACE_OF_LINEAR_EXTRUSION('',#265,#270);
#265 = CIRCLE('',#266,0.15);
#266 = AXIS2_PLACEMENT_3D('',#267,#268,#269);
#267 = CARTESIAN_POINT('',(1.9,0.E+000,0.E+000));
#268 = DIRECTION('',(-5.551115123126E-017,0.E+000,1.));
#269 = DIRECTION('',(1.,0.E+000,5.551115123126E-017));
#270 = VECTOR('',#271,1.);
#271 = DIRECTION('',(-0.514495755428,0.E+000,0.857492925713));
#272 = ADVANCED_FACE('',(#273),#292,.T.);
#273 = FACE_BOUND('',#274,.F.);
#274 = EDGE_LOOP('',(#275,#276,#284,#291));
#275 = ORIENTED_EDGE('',*,*,#232,.F.);
#276 = ORIENTED_EDGE('',*,*,#277,.T.);
#277 = EDGE_CURVE('',#225,#278,#280,.T.);
#278 = VERTEX_POINT('',#279);
#279 = CARTESIAN_POINT('',(2.45,-4.160809447708E-035,9.15));
#280 = LINE('',#281,#282);
#281 = CARTESIAN_POINT('',(2.45,0.E+000,2.2));
#282 = VECTOR('',#283,1.);
#283 = DIRECTION('',(0.E+000,0.E+000,1.));
#284 = ORIENTED_EDGE('',*,*,#285,.T.);
#285 = EDGE_CURVE('',#278,#278,#286,.T.);
#286 = CIRCLE('',#287,1.5);
#287 = AXIS2_PLACEMENT_3D('',#288,#289,#290);
#288 = CARTESIAN_POINT('',(0.95,1.499135861033E-033,9.15));
#289 = DIRECTION('',(-3.207317652111E-050,1.664323779083E-034,1.));
#290 = DIRECTION('',(1.,-1.027162637007E-033,3.207317652111E-050));
#291 = ORIENTED_EDGE('',*,*,#277,.F.);
#292 = CYLINDRICAL_SURFACE('',#293,1.5);
#293 = AXIS2_PLACEMENT_3D('',#294,#295,#296);
#294 = CARTESIAN_POINT('',(0.95,0.E+000,2.2));
#295 = DIRECTION('',(-0.E+000,-0.E+000,-1.));
#296 = DIRECTION('',(1.,0.E+000,0.E+000));
#297 = ADVANCED_FACE('',(#298),#317,.T.);
#298 = FACE_BOUND('',#299,.T.);
#299 = EDGE_LOOP('',(#300,#308,#309,#310));
#300 = ORIENTED_EDGE('',*,*,#301,.T.);
#301 = EDGE_CURVE('',#302,#249,#304,.T.);
#302 = VERTEX_POINT('',#303);
#303 = CARTESIAN_POINT('',(2.05,0.E+000,-2.925));
#304 = LINE('',#305,#306);
#305 = CARTESIAN_POINT('',(2.05,0.E+000,-3.));
#306 = VECTOR('',#307,1.);
#307 = DIRECTION('',(0.E+000,0.E+000,1.));
#308 = ORIENTED_EDGE('',*,*,#258,.F.);
#309 = ORIENTED_EDGE('',*,*,#301,.F.);
#310 = ORIENTED_EDGE('',*,*,#311,.T.);
#311 = EDGE_CURVE('',#302,#302,#312,.T.);
#312 = CIRCLE('',#313,0.15);
#313 = AXIS2_PLACEMENT_3D('',#314,#315,#316);
#314 = CARTESIAN_POINT('',(1.9,0.E+000,-2.925));
#315 = DIRECTION('',(0.E+000,0.E+000,1.));
#316 = DIRECTION('',(1.,0.E+000,0.E+000));
#317 = CYLINDRICAL_SURFACE('',#318,0.15);
#318 = AXIS2_PLACEMENT_3D('',#319,#320,#321);
#319 = CARTESIAN_POINT('',(1.9,0.E+000,-3.));
#320 = DIRECTION('',(0.E+000,0.E+000,1.));
#321 = DIRECTION('',(1.,0.E+000,0.E+000));
#322 = ADVANCED_FACE('',(#323),#343,.T.);
#323 = FACE_BOUND('',#324,.T.);
#324 = EDGE_LOOP('',(#325,#334,#335,#336));
#325 = ORIENTED_EDGE('',*,*,#326,.F.);
#326 = EDGE_CURVE('',#278,#327,#329,.T.);
#327 = VERTEX_POINT('',#328);
#328 = CARTESIAN_POINT('',(2.2,2.567906592516E-034,9.4));
#329 = CIRCLE('',#330,0.25);
#330 = AXIS2_PLACEMENT_3D('',#331,#332,#333);
#331 = CARTESIAN_POINT('',(2.2,2.151825647745E-034,9.15));
#332 = DIRECTION('',(-1.027162637007E-033,-1.,1.664323779083E-034));
#333 = DIRECTION('',(1.,-1.027162637007E-033,3.207317652111E-050));
#334 = ORIENTED_EDGE('',*,*,#285,.T.);
#335 = ORIENTED_EDGE('',*,*,#326,.T.);
#336 = ORIENTED_EDGE('',*,*,#337,.F.);
#337 = EDGE_CURVE('',#327,#327,#338,.T.);
#338 = CIRCLE('',#339,1.25);
#339 = AXIS2_PLACEMENT_3D('',#340,#341,#342);
#340 = CARTESIAN_POINT('',(0.95,1.54074395551E-033,9.4));
#341 = DIRECTION('',(-3.207317652111E-050,1.664323779083E-034,1.));
#342 = DIRECTION('',(1.,-1.027162637007E-033,3.207317652111E-050));
#343 = TOROIDAL_SURFACE('',#344,1.25,0.25);
#344 = AXIS2_PLACEMENT_3D('',#345,#346,#347);
#345 = CARTESIAN_POINT('',(0.95,1.499135861033E-033,9.15));
#346 = DIRECTION('',(-3.207317652111E-050,1.664323779083E-034,1.));
#347 = DIRECTION('',(1.,-1.027162637007E-033,3.207317652111E-050));
#348 = ADVANCED_FACE('',(#349),#369,.T.);
#349 = FACE_BOUND('',#350,.F.);
#350 = EDGE_LOOP('',(#351,#360,#361,#362));
#351 = ORIENTED_EDGE('',*,*,#352,.F.);
#352 = EDGE_CURVE('',#302,#353,#355,.T.);
#353 = VERTEX_POINT('',#354);
#354 = CARTESIAN_POINT('',(1.975,0.E+000,-3.));
#355 = CIRCLE('',#356,7.5E-002);
#356 = AXIS2_PLACEMENT_3D('',#357,#358,#359);
#357 = CARTESIAN_POINT('',(1.975,0.E+000,-2.925));
#358 = DIRECTION('',(-0.E+000,1.,0.E+000));
#359 = DIRECTION('',(1.,0.E+000,0.E+000));
#360 = ORIENTED_EDGE('',*,*,#311,.T.);
#361 = ORIENTED_EDGE('',*,*,#352,.T.);
#362 = ORIENTED_EDGE('',*,*,#363,.F.);
#363 = EDGE_CURVE('',#353,#353,#364,.T.);
#364 = CIRCLE('',#365,7.5E-002);
#365 = AXIS2_PLACEMENT_3D('',#366,#367,#368);
#366 = CARTESIAN_POINT('',(1.9,0.E+000,-3.));
#367 = DIRECTION('',(0.E+000,0.E+000,1.));
#368 = DIRECTION('',(1.,0.E+000,0.E+000));
#369 = TOROIDAL_SURFACE('',#370,7.5E-002,7.5E-002);
#370 = AXIS2_PLACEMENT_3D('',#371,#372,#373);
#371 = CARTESIAN_POINT('',(1.9,0.E+000,-2.925));
#372 = DIRECTION('',(-0.E+000,-0.E+000,-1.));
#373 = DIRECTION('',(1.,0.E+000,0.E+000));
#374 = ADVANCED_FACE('',(#375),#378,.T.);
#375 = FACE_BOUND('',#376,.T.);
#376 = EDGE_LOOP('',(#377));
#377 = ORIENTED_EDGE('',*,*,#337,.T.);
#378 = PLANE('',#379);
#379 = AXIS2_PLACEMENT_3D('',#380,#381,#382);
#380 = CARTESIAN_POINT('',(0.95,-4.255667768225E-018,9.4));
#381 = DIRECTION('',(-3.207317652111E-050,1.664323779083E-034,1.));
#382 = DIRECTION('',(0.E+000,1.,-1.664323779083E-034));
#383 = ADVANCED_FACE('',(#384),#387,.F.);
#384 = FACE_BOUND('',#385,.F.);
#385 = EDGE_LOOP('',(#386));
#386 = ORIENTED_EDGE('',*,*,#363,.T.);
#387 = PLANE('',#388);
#388 = AXIS2_PLACEMENT_3D('',#389,#390,#391);
#389 = CARTESIAN_POINT('',(1.9,2.779371033817E-018,-3.));
#390 = DIRECTION('',(0.E+000,0.E+000,1.));
#391 = DIRECTION('',(1.,0.E+000,0.E+000));
#392 = ( GEOMETRIC_REPRESENTATION_CONTEXT(3)
GLOBAL_UNCERTAINTY_ASSIGNED_CONTEXT((#396)) GLOBAL_UNIT_ASSIGNED_CONTEXT
((#393,#394,#395)) REPRESENTATION_CONTEXT('Context #1',
'3D Context with UNIT and UNCERTAINTY') );
#393 = ( LENGTH_UNIT() NAMED_UNIT(*) SI_UNIT(.MILLI.,.METRE.) );
#394 = ( NAMED_UNIT(*) PLANE_ANGLE_UNIT() SI_UNIT($,.RADIAN.) );
#395 = ( NAMED_UNIT(*) SI_UNIT($,.STERADIAN.) SOLID_ANGLE_UNIT() );
#396 = UNCERTAINTY_MEASURE_WITH_UNIT(LENGTH_MEASURE(1.E-007),#393,
'distance_accuracy_value','confusion accuracy');
#397 = PRODUCT_RELATED_PRODUCT_CATEGORY('part',$,(#7));
#398 = MECHANICAL_DESIGN_GEOMETRIC_PRESENTATION_REPRESENTATION('',(#399,
#407,#414,#421,#428,#435,#443,#450,#457,#464,#471,#479,#486,#493,
#500,#507),#392);
#399 = STYLED_ITEM('color',(#400),#17);
#400 = PRESENTATION_STYLE_ASSIGNMENT((#401));
#401 = SURFACE_STYLE_USAGE(.BOTH.,#402);
#402 = SURFACE_SIDE_STYLE('',(#403));
#403 = SURFACE_STYLE_FILL_AREA(#404);
#404 = FILL_AREA_STYLE('',(#405));
#405 = FILL_AREA_STYLE_COLOUR('',#406);
#406 = COLOUR_RGB('',0.507539987564,0.507539987564,0.507539987564);
#407 = STYLED_ITEM('color',(#408),#50);
#408 = PRESENTATION_STYLE_ASSIGNMENT((#409));
#409 = SURFACE_STYLE_USAGE(.BOTH.,#410);
#410 = SURFACE_SIDE_STYLE('',(#411));
#411 = SURFACE_STYLE_FILL_AREA(#412);
#412 = FILL_AREA_STYLE('',(#413));
#413 = FILL_AREA_STYLE_COLOUR('',#406);
#414 = STYLED_ITEM('color',(#415),#76);
#415 = PRESENTATION_STYLE_ASSIGNMENT((#416));
#416 = SURFACE_STYLE_USAGE(.BOTH.,#417);
#417 = SURFACE_SIDE_STYLE('',(#418));
#418 = SURFACE_STYLE_FILL_AREA(#419);
#419 = FILL_AREA_STYLE('',(#420));
#420 = FILL_AREA_STYLE_COLOUR('',#406);
#421 = STYLED_ITEM('color',(#422),#104);
#422 = PRESENTATION_STYLE_ASSIGNMENT((#423));
#423 = SURFACE_STYLE_USAGE(.BOTH.,#424);
#424 = SURFACE_SIDE_STYLE('',(#425));
#425 = SURFACE_STYLE_FILL_AREA(#426);
#426 = FILL_AREA_STYLE('',(#427));
#427 = FILL_AREA_STYLE_COLOUR('',#406);
#428 = STYLED_ITEM('color',(#429),#113);
#429 = PRESENTATION_STYLE_ASSIGNMENT((#430));
#430 = SURFACE_STYLE_USAGE(.BOTH.,#431);
#431 = SURFACE_SIDE_STYLE('',(#432));
#432 = SURFACE_STYLE_FILL_AREA(#433);
#433 = FILL_AREA_STYLE('',(#434));
#434 = FILL_AREA_STYLE_COLOUR('',#406);
#435 = STYLED_ITEM('color',(#436),#138);
#436 = PRESENTATION_STYLE_ASSIGNMENT((#437));
#437 = SURFACE_STYLE_USAGE(.BOTH.,#438);
#438 = SURFACE_SIDE_STYLE('',(#439));
#439 = SURFACE_STYLE_FILL_AREA(#440);
#440 = FILL_AREA_STYLE('',(#441));
#441 = FILL_AREA_STYLE_COLOUR('',#442);
#442 = COLOUR_RGB('',0.379000008106,0.270000010729,0.215000003576);
#443 = STYLED_ITEM('color',(#444),#169);
#444 = PRESENTATION_STYLE_ASSIGNMENT((#445));
#445 = SURFACE_STYLE_USAGE(.BOTH.,#446);
#446 = SURFACE_SIDE_STYLE('',(#447));
#447 = SURFACE_STYLE_FILL_AREA(#448);
#448 = FILL_AREA_STYLE('',(#449));
#449 = FILL_AREA_STYLE_COLOUR('',#442);
#450 = STYLED_ITEM('color',(#451),#194);
#451 = PRESENTATION_STYLE_ASSIGNMENT((#452));
#452 = SURFACE_STYLE_USAGE(.BOTH.,#453);
#453 = SURFACE_SIDE_STYLE('',(#454));
#454 = SURFACE_STYLE_FILL_AREA(#455);
#455 = FILL_AREA_STYLE('',(#456));
#456 = FILL_AREA_STYLE_COLOUR('',#406);
#457 = STYLED_ITEM('color',(#458),#219);
#458 = PRESENTATION_STYLE_ASSIGNMENT((#459));
#459 = SURFACE_STYLE_USAGE(.BOTH.,#460);
#460 = SURFACE_SIDE_STYLE('',(#461));
#461 = SURFACE_STYLE_FILL_AREA(#462);
#462 = FILL_AREA_STYLE('',(#463));
#463 = FILL_AREA_STYLE_COLOUR('',#442);
#464 = STYLED_ITEM('color',(#465),#244);
#465 = PRESENTATION_STYLE_ASSIGNMENT((#466));
#466 = SURFACE_STYLE_USAGE(.BOTH.,#467);
#467 = SURFACE_SIDE_STYLE('',(#468));
#468 = SURFACE_STYLE_FILL_AREA(#469);
#469 = FILL_AREA_STYLE('',(#470));
#470 = FILL_AREA_STYLE_COLOUR('',#406);
#471 = STYLED_ITEM('color',(#472),#272);
#472 = PRESENTATION_STYLE_ASSIGNMENT((#473));
#473 = SURFACE_STYLE_USAGE(.BOTH.,#474);
#474 = SURFACE_SIDE_STYLE('',(#475));
#475 = SURFACE_STYLE_FILL_AREA(#476);
#476 = FILL_AREA_STYLE('',(#477));
#477 = FILL_AREA_STYLE_COLOUR('',#478);
#478 = COLOUR_RGB('',0.372321993113,0.371574014425,0.373172998428);
#479 = STYLED_ITEM('color',(#480),#297);
#480 = PRESENTATION_STYLE_ASSIGNMENT((#481));
#481 = SURFACE_STYLE_USAGE(.BOTH.,#482);
#482 = SURFACE_SIDE_STYLE('',(#483));
#483 = SURFACE_STYLE_FILL_AREA(#484);
#484 = FILL_AREA_STYLE('',(#485));
#485 = FILL_AREA_STYLE_COLOUR('',#406);
#486 = STYLED_ITEM('color',(#487),#322);
#487 = PRESENTATION_STYLE_ASSIGNMENT((#488));
#488 = SURFACE_STYLE_USAGE(.BOTH.,#489);
#489 = SURFACE_SIDE_STYLE('',(#490));
#490 = SURFACE_STYLE_FILL_AREA(#491);
#491 = FILL_AREA_STYLE('',(#492));
#492 = FILL_AREA_STYLE_COLOUR('',#478);
#493 = STYLED_ITEM('color',(#494),#348);
#494 = PRESENTATION_STYLE_ASSIGNMENT((#495));
#495 = SURFACE_STYLE_USAGE(.BOTH.,#496);
#496 = SURFACE_SIDE_STYLE('',(#497));
#497 = SURFACE_STYLE_FILL_AREA(#498);
#498 = FILL_AREA_STYLE('',(#499));
#499 = FILL_AREA_STYLE_COLOUR('',#406);
#500 = STYLED_ITEM('color',(#501),#374);
#501 = PRESENTATION_STYLE_ASSIGNMENT((#502));
#502 = SURFACE_STYLE_USAGE(.BOTH.,#503);
#503 = SURFACE_SIDE_STYLE('',(#504));
#504 = SURFACE_STYLE_FILL_AREA(#505);
#505 = FILL_AREA_STYLE('',(#506));
#506 = FILL_AREA_STYLE_COLOUR('',#478);
#507 = STYLED_ITEM('color',(#508),#383);
#508 = PRESENTATION_STYLE_ASSIGNMENT((#509));
#509 = SURFACE_STYLE_USAGE(.BOTH.,#510);
#510 = SURFACE_SIDE_STYLE('',(#511));
#511 = SURFACE_STYLE_FILL_AREA(#512);
#512 = FILL_AREA_STYLE('',(#513));
#513 = FILL_AREA_STYLE_COLOUR('',#406);
ENDSEC;
END-ISO-10303-21;
