ISO-10303-21;
HEADER;
/* RV_Disc_D21.5mm_W7.5mm_P10mm.step 3D STEP model for use in ECAD systems
 * Copyright (C) 2018, kicad StepUp
 * 
 * This work is licensed under the [Creative Commons CC-BY-SA 4.0 License](https://creativecommons.org/licenses/by-sa/4.0/legalcode), 
 * with the following exception:
 * To the extent that the creation of electronic designs that use 'Licensed Material' can be considered to be 'Adapted Material', 
 * then the copyright holder waives article 3 of the license with respect to these designs and any generated files which use data provided 
 * as part of the 'Licensed Material'.
 * You are free to use the library data in your own projects without the obligation to share your project files under this or any other license agreement.
 * However, if you wish to redistribute these libraries, or parts thereof (including in modified form) as a collection then the exception above does not apply. 
 * Please refer to https://github.com/KiCad/kicad-packages3D/blob/master/LICENSE.md for further clarification of the exception.
 * Disclaimer of Warranties and Limitation of Liability.
 * These libraries are provided in the hope that they will be useful, but are provided without warranty of any kind, express or implied.
 * *USE 3D CAD DATA AT YOUR OWN RISK*
 * *DO NOT RELY UPON ANY INFORMATION FOUND HERE WITHOUT INDEPENDENT VERIFICATION.*
 * 
 */

FILE_DESCRIPTION(
/* description */ ('model of RV_Disc_D21.5mm_W7.5mm_P10mm'),
/* implementation_level */ '2;1');

FILE_NAME(
/* name */ 'RV_Disc_D21.5mm_W7.5mm_P10mm.step',
/* time_stamp */ '2018-11-11T21:06:12',
/* author */ ('kicad StepUp','ksu'),
/* organization */ ('FreeCAD'),
/* preprocessor_version */ 'OCC',
/* originating_system */ 'kicad StepUp',
/* authorisation */ '');

FILE_SCHEMA(('AUTOMOTIVE_DESIGN { 1 0 10303 214 1 1 1 1 }'));
ENDSEC;

DATA;
#1 = APPLICATION_PROTOCOL_DEFINITION('international standard',
'automotive_design',2000,#2);
#2 = APPLICATION_CONTEXT(
'core data for automotive mechanical design processes');
#3 = SHAPE_DEFINITION_REPRESENTATION(#4,#10);
#4 = PRODUCT_DEFINITION_SHAPE('','',#5);
#5 = PRODUCT_DEFINITION('design','',#6,#9);
#6 = PRODUCT_DEFINITION_FORMATION('','',#7);
#7 = PRODUCT('RV_Disc_D215mm_W75mm_P10mm','RV_Disc_D215mm_W75mm_P10mm',
'',(#8));
#8 = PRODUCT_CONTEXT('',#2,'mechanical');
#9 = PRODUCT_DEFINITION_CONTEXT('part definition',#2,'design');
#10 = ADVANCED_BREP_SHAPE_REPRESENTATION('',(#11,#15),#411);
#11 = AXIS2_PLACEMENT_3D('',#12,#13,#14);
#12 = CARTESIAN_POINT('',(0.E+000,0.E+000,0.E+000));
#13 = DIRECTION('',(0.E+000,0.E+000,1.));
#14 = DIRECTION('',(1.,0.E+000,-0.E+000));
#15 = MANIFOLD_SOLID_BREP('',#16);
#16 = CLOSED_SHELL('',(#17,#50,#169,#271,#280,#306,#315,#341,#367,#393,
#402));
#17 = ADVANCED_FACE('',(#18),#45,.T.);
#18 = FACE_BOUND('',#19,.F.);
#19 = EDGE_LOOP('',(#20,#30,#37,#38));
#20 = ORIENTED_EDGE('',*,*,#21,.T.);
#21 = EDGE_CURVE('',#22,#24,#26,.T.);
#22 = VERTEX_POINT('',#23);
#23 = CARTESIAN_POINT('',(15.75,-1.858536585366,10.78));
#24 = VERTEX_POINT('',#25);
#25 = CARTESIAN_POINT('',(15.75,-2.041463414634,10.78));
#26 = LINE('',#27,#28);
#27 = CARTESIAN_POINT('',(15.75,1.8,10.78));
#28 = VECTOR('',#29,1.);
#29 = DIRECTION('',(0.E+000,-1.,0.E+000));
#30 = ORIENTED_EDGE('',*,*,#31,.T.);
#31 = EDGE_CURVE('',#24,#24,#32,.T.);
#32 = CIRCLE('',#33,10.75);
#33 = AXIS2_PLACEMENT_3D('',#34,#35,#36);
#34 = CARTESIAN_POINT('',(5.,-2.041463414634,10.78));
#35 = DIRECTION('',(1.137711779659E-033,-1.,-3.413135338977E-033));
#36 = DIRECTION('',(1.,1.137711779659E-033,1.161588884507E-033));
#37 = ORIENTED_EDGE('',*,*,#21,.F.);
#38 = ORIENTED_EDGE('',*,*,#39,.F.);
#39 = EDGE_CURVE('',#22,#22,#40,.T.);
#40 = CIRCLE('',#41,10.75);
#41 = AXIS2_PLACEMENT_3D('',#42,#43,#44);
#42 = CARTESIAN_POINT('',(5.,-1.858536585366,10.78));
#43 = DIRECTION('',(1.137711779659E-033,-1.,-3.413135338977E-033));
#44 = DIRECTION('',(1.,1.137711779659E-033,-1.161588884507E-033));
#45 = CYLINDRICAL_SURFACE('',#46,10.75);
#46 = AXIS2_PLACEMENT_3D('',#47,#48,#49);
#47 = CARTESIAN_POINT('',(5.,1.8,10.78));
#48 = DIRECTION('',(0.E+000,1.,0.E+000));
#49 = DIRECTION('',(1.,0.E+000,0.E+000));
#50 = ADVANCED_FACE('',(#51,#71),#164,.T.);
#51 = FACE_BOUND('',#52,.F.);
#52 = EDGE_LOOP('',(#53,#54,#63,#70));
#53 = ORIENTED_EDGE('',*,*,#39,.T.);
#54 = ORIENTED_EDGE('',*,*,#55,.T.);
#55 = EDGE_CURVE('',#22,#56,#58,.T.);
#56 = VERTEX_POINT('',#57);
#57 = CARTESIAN_POINT('',(12.091463414634,1.8,10.78));
#58 = CIRCLE('',#59,3.658536585366);
#59 = AXIS2_PLACEMENT_3D('',#60,#61,#62);
#60 = CARTESIAN_POINT('',(12.091463414634,-1.858536585366,10.78));
#61 = DIRECTION('',(1.161588884507E-033,-3.413135338977E-033,1.));
#62 = DIRECTION('',(1.,1.137711779659E-033,-1.161588884507E-033));
#63 = ORIENTED_EDGE('',*,*,#64,.F.);
#64 = EDGE_CURVE('',#56,#56,#65,.T.);
#65 = CIRCLE('',#66,7.091463414634);
#66 = AXIS2_PLACEMENT_3D('',#67,#68,#69);
#67 = CARTESIAN_POINT('',(5.,1.8,10.78));
#68 = DIRECTION('',(1.137711779659E-033,-1.,-3.413135338977E-033));
#69 = DIRECTION('',(1.,1.137711779659E-033,-1.161588884507E-033));
#70 = ORIENTED_EDGE('',*,*,#55,.F.);
#71 = FACE_BOUND('',#72,.F.);
#72 = EDGE_LOOP('',(#73,#110));
#73 = ORIENTED_EDGE('',*,*,#74,.T.);
#74 = EDGE_CURVE('',#75,#77,#79,.T.);
#75 = VERTEX_POINT('',#76);
#76 = CARTESIAN_POINT('',(0.45,0.E+000,1.603299479794));
#77 = VERTEX_POINT('',#78);
#78 = CARTESIAN_POINT('',(-0.311104130368,-0.325137232669,1.823115150171
));
#79 = B_SPLINE_CURVE_WITH_KNOTS('',8,(#80,#81,#82,#83,#84,#85,#86,#87,
#88,#89,#90,#91,#92,#93,#94,#95,#96,#97,#98,#99,#100,#101,#102,#103,
#104,#105,#106,#107,#108,#109),.UNSPECIFIED.,.F.,.F.,(9,7,7,7,9),(
0.E+000,0.108942091755,0.303125956057,0.509954492077,1.),
.UNSPECIFIED.);
#80 = CARTESIAN_POINT('',(0.45,-2.775557561563E-016,1.603299479794));
#81 = CARTESIAN_POINT('',(0.45,-1.339661267946E-002,1.594480743758));
#82 = CARTESIAN_POINT('',(0.449544199501,-2.686850464803E-002,
1.585938273643));
#83 = CARTESIAN_POINT('',(0.44862365113,-4.040020066293E-002,
1.577686730971));
#84 = CARTESIAN_POINT('',(0.447229673467,-5.397481092999E-002,
1.569741067381));
#85 = CARTESIAN_POINT('',(0.445354113309,-6.757402708949E-002,
1.562116352965));
#86 = CARTESIAN_POINT('',(0.442989607929,-8.117811820211E-002,
1.55482760461));
#87 = CARTESIAN_POINT('',(0.440129847339,-9.476592673486E-002,
1.547889614336));
#88 = CARTESIAN_POINT('',(0.430780784301,-0.132465172836,1.52960102289)
);
#89 = CARTESIAN_POINT('',(0.423201600321,-0.156495124383,1.519043891376)
);
#90 = CARTESIAN_POINT('',(0.414004503498,-0.180272744618,1.509729280092)
);
#91 = CARTESIAN_POINT('',(0.403176181157,-0.203653752944,1.501735081361)
);
#92 = CARTESIAN_POINT('',(0.390722814264,-0.226483230591,1.49512927328)
);
#93 = CARTESIAN_POINT('',(0.376674575597,-0.248599197916,1.489965921244)
);
#94 = CARTESIAN_POINT('',(0.361089600875,-0.269838101187,1.48628109051)
);
#95 = CARTESIAN_POINT('',(0.325916181073,-0.311561947421,1.481753485291)
);
#96 = CARTESIAN_POINT('',(0.30612829961,-0.331913719662,1.481110797285)
);
#97 = CARTESIAN_POINT('',(0.284801779716,-0.350903199789,1.482179226762)
);
#98 = CARTESIAN_POINT('',(0.262075149893,-0.368358131804,1.484946664247)
);
#99 = CARTESIAN_POINT('',(0.238112104268,-0.384131290714,1.489373951163)
);
#100 = CARTESIAN_POINT('',(0.213096130952,-0.398103443785,1.495398561151
));
#101 = CARTESIAN_POINT('',(0.187225140406,-0.410186311795,1.502938281383
));
#102 = CARTESIAN_POINT('',(9.787366307223E-002,-0.444348707042,
1.533116084177));
#103 = CARTESIAN_POINT('',(3.135345536781E-002,-0.45747848289,
1.562307735232));
#104 = CARTESIAN_POINT('',(-3.592368486449E-002,-0.458878911595,
1.598118720963));
#105 = CARTESIAN_POINT('',(-0.101182418499,-0.449124313347,
1.638710119815));
#106 = CARTESIAN_POINT('',(-0.16241143226,-0.429495230481,1.682551191395
));
#107 = CARTESIAN_POINT('',(-0.218286838532,-0.401460734741,
1.728420088966));
#108 = CARTESIAN_POINT('',(-0.268038431882,-0.366344191855,
1.775463479537));
#109 = CARTESIAN_POINT('',(-0.311104130368,-0.325137232669,
1.823115150171));
#110 = ORIENTED_EDGE('',*,*,#111,.T.);
#111 = EDGE_CURVE('',#77,#75,#112,.T.);
#112 = B_SPLINE_CURVE_WITH_KNOTS('',8,(#113,#114,#115,#116,#117,#118,
#119,#120,#121,#122,#123,#124,#125,#126,#127,#128,#129,#130,#131,
#132,#133,#134,#135,#136,#137,#138,#139,#140,#141,#142,#143,#144,
#145,#146,#147,#148,#149,#150,#151,#152,#153,#154,#155,#156,#157,
#158,#159,#160,#161,#162,#163),.UNSPECIFIED.,.F.,.F.,(9,7,7,7,7,7,7,
9),(0.E+000,6.604037013693E-002,0.322698202443,0.379286651134,
0.477006843087,0.698972351788,0.800870901847,1.),.UNSPECIFIED.);
#113 = CARTESIAN_POINT('',(-0.311104130368,-0.325137232669,
1.823115150171));
#114 = CARTESIAN_POINT('',(-0.321474050972,-0.315214883559,
1.834589340965));
#115 = CARTESIAN_POINT('',(-0.331452754361,-0.30494277266,1.846094853753
));
#116 = CARTESIAN_POINT('',(-0.341030952197,-0.294337084643,
1.857621647318));
#117 = CARTESIAN_POINT('',(-0.350199774432,-0.283413852299,
1.869159811506));
#118 = CARTESIAN_POINT('',(-0.358950769305,-0.272188956538,
1.880699567227));
#119 = CARTESIAN_POINT('',(-0.367275903347,-0.260678126386,
1.892231266454));
#120 = CARTESIAN_POINT('',(-0.375167561377,-0.248896938991,
1.903745392224));
#121 = CARTESIAN_POINT('',(-0.411575890129,-0.190083911788,1.95987602785
));
#122 = CARTESIAN_POINT('',(-0.43384103992,-0.13951370361,2.004056676969)
);
#123 = CARTESIAN_POINT('',(-0.449058602239,-8.600187469332E-002,
2.047286780699));
#124 = CARTESIAN_POINT('',(-0.456844814223,-3.039665279857E-002,
2.089010704239));
#125 = CARTESIAN_POINT('',(-0.456819306588,2.637002630468E-002,
2.128547037271));
#126 = CARTESIAN_POINT('',(-0.448636014794,8.324723468426E-002,
2.165029808961));
#127 = CARTESIAN_POINT('',(-0.432021860546,0.139036181878,2.197350341401
));
#128 = CARTESIAN_POINT('',(-0.401277874682,0.204070928914,2.229999405225
));
#129 = CARTESIAN_POINT('',(-0.395309163277,0.215693387417,2.235624501573
));
#130 = CARTESIAN_POINT('',(-0.388925413187,0.227173209776,2.240961174818
));
#131 = CARTESIAN_POINT('',(-0.382127235635,0.238492920889,2.245993192445
));
#132 = CARTESIAN_POINT('',(-0.374916348883,0.249634161046,2.250703732149
));
#133 = CARTESIAN_POINT('',(-0.367295795864,0.260577814307,2.255075611439
));
#134 = CARTESIAN_POINT('',(-0.359270161813,0.271304136878,2.259091517238
));
#135 = CARTESIAN_POINT('',(-0.336298104781,0.299905460601,2.269024691131
));
#136 = CARTESIAN_POINT('',(-0.320559273727,0.317312197961,2.274203201755
));
#137 = CARTESIAN_POINT('',(-0.303664389607,0.333905027478,2.278179661353
));
#138 = CARTESIAN_POINT('',(-0.285665380169,0.349572548915,2.280866405168
));
#139 = CARTESIAN_POINT('',(-0.266634200877,0.364204094586,2.282184406791
));
#140 = CARTESIAN_POINT('',(-0.246664718189,0.377694802677,2.282070343478
));
#141 = CARTESIAN_POINT('',(-0.225873285279,0.389951701184,2.280484529695
));
#142 = CARTESIAN_POINT('',(-0.155618221032,0.425771024191,2.270458186358
));
#143 = CARTESIAN_POINT('',(-0.103133421429,0.443984108222,2.255840507205
));
#144 = CARTESIAN_POINT('',(-4.888563769046E-002,0.454395738649,
2.233434864549));
#145 = CARTESIAN_POINT('',(5.122233042699E-003,0.457001826321,
2.204181190395));
#146 = CARTESIAN_POINT('',(5.741700218137E-002,0.452509848208,
2.169656107804));
#147 = CARTESIAN_POINT('',(0.107020519447,0.441788098724,2.131396980221)
);
#148 = CARTESIAN_POINT('',(0.153349811301,0.425722361697,2.090714551664)
);
#149 = CARTESIAN_POINT('',(0.21572149518,0.395524488743,2.029254674008)
);
#150 = CARTESIAN_POINT('',(0.234630385485,0.385028189712,2.009574859374)
);
#151 = CARTESIAN_POINT('',(0.252799942937,0.37359368559,1.989634748458)
);
#152 = CARTESIAN_POINT('',(0.270208247334,0.3612721378,1.969509693086));
#153 = CARTESIAN_POINT('',(0.286834547715,0.348109648831,1.949269058142)
);
#154 = CARTESIAN_POINT('',(0.302658362899,0.334147867044,1.928977051888)
);
#155 = CARTESIAN_POINT('',(0.317658582017,0.319424591483,1.908693556278)
);
#156 = CARTESIAN_POINT('',(0.359472133066,0.27378172586,1.848963979115)
);
#157 = CARTESIAN_POINT('',(0.383885340492,0.240829454359,1.809722347067)
);
#158 = CARTESIAN_POINT('',(0.404898327693,0.205368669058,1.771156215848)
);
#159 = CARTESIAN_POINT('',(0.422300011057,0.167633333187,1.733668123211)
);
#160 = CARTESIAN_POINT('',(0.435825548185,0.12787748714,1.697678200721)
);
#161 = CARTESIAN_POINT('',(0.445168258602,8.640853762948E-002,
1.66363436227));
#162 = CARTESIAN_POINT('',(0.45,4.361661518795E-002,1.632011470305));
#163 = CARTESIAN_POINT('',(0.45,-2.775557561563E-016,1.603299479794));
#164 = TOROIDAL_SURFACE('',#165,7.091463414634,3.658536585366);
#165 = AXIS2_PLACEMENT_3D('',#166,#167,#168);
#166 = CARTESIAN_POINT('',(5.,-1.858536585366,10.78));
#167 = DIRECTION('',(-1.137711779659E-033,1.,3.413135338977E-033));
#168 = DIRECTION('',(1.,1.137711779659E-033,-1.161588884507E-033));
#169 = ADVANCED_FACE('',(#170,#190),#266,.T.);
#170 = FACE_BOUND('',#171,.T.);
#171 = EDGE_LOOP('',(#172,#173,#182,#189));
#172 = ORIENTED_EDGE('',*,*,#31,.T.);
#173 = ORIENTED_EDGE('',*,*,#174,.T.);
#174 = EDGE_CURVE('',#24,#175,#177,.T.);
#175 = VERTEX_POINT('',#176);
#176 = CARTESIAN_POINT('',(12.091463414634,-5.7,10.78));
#177 = CIRCLE('',#178,3.658536585366);
#178 = AXIS2_PLACEMENT_3D('',#179,#180,#181);
#179 = CARTESIAN_POINT('',(12.091463414634,-2.041463414634,10.78));
#180 = DIRECTION('',(1.161588884507E-033,3.413135338977E-033,-1.));
#181 = DIRECTION('',(1.,1.137711779659E-033,1.161588884507E-033));
#182 = ORIENTED_EDGE('',*,*,#183,.F.);
#183 = EDGE_CURVE('',#175,#175,#184,.T.);
#184 = CIRCLE('',#185,7.091463414634);
#185 = AXIS2_PLACEMENT_3D('',#186,#187,#188);
#186 = CARTESIAN_POINT('',(5.,-5.7,10.78));
#187 = DIRECTION('',(1.137711779659E-033,-1.,-3.413135338977E-033));
#188 = DIRECTION('',(1.,1.137711779659E-033,1.161588884507E-033));
#189 = ORIENTED_EDGE('',*,*,#174,.F.);
#190 = FACE_BOUND('',#191,.T.);
#191 = EDGE_LOOP('',(#192,#219));
#192 = ORIENTED_EDGE('',*,*,#193,.T.);
#193 = EDGE_CURVE('',#194,#196,#198,.T.);
#194 = VERTEX_POINT('',#195);
#195 = CARTESIAN_POINT('',(10.45,-3.9,2.107524434307));
#196 = VERTEX_POINT('',#197);
#197 = CARTESIAN_POINT('',(9.684575237399,-3.579052622478,1.482257082076
));
#198 = B_SPLINE_CURVE_WITH_KNOTS('',7,(#199,#200,#201,#202,#203,#204,
#205,#206,#207,#208,#209,#210,#211,#212,#213,#214,#215,#216,#217,
#218),.UNSPECIFIED.,.F.,.F.,(8,6,6,8),(0.E+000,0.252862573205,
0.55427614738,1.),.UNSPECIFIED.);
#199 = CARTESIAN_POINT('',(10.45,-3.9,2.107524434307));
#200 = CARTESIAN_POINT('',(10.45,-3.86360237302,2.082171520155));
#201 = CARTESIAN_POINT('',(10.446565413634,-3.827499741603,
2.055671027704));
#202 = CARTESIAN_POINT('',(10.439796227526,-3.791991125281,
2.028271371587));
#203 = CARTESIAN_POINT('',(10.429796069311,-3.757358219347,
2.000183796129));
#204 = CARTESIAN_POINT('',(10.416673818205,-3.723871396619,
1.971592794555));
#205 = CARTESIAN_POINT('',(10.40054521558,-3.691795709205,1.942666528198
));
#206 = CARTESIAN_POINT('',(10.358873569139,-3.625161331356,
1.878880741391));
#207 = CARTESIAN_POINT('',(10.332125894932,-3.591321789325,
1.843961116463));
#208 = CARTESIAN_POINT('',(10.301501764004,-3.560316830892,
1.809074583564));
#209 = CARTESIAN_POINT('',(10.267240656534,-3.532616722644,1.77450068819
));
#210 = CARTESIAN_POINT('',(10.22964381882,-3.508719991023,1.740553275815
));
#211 = CARTESIAN_POINT('',(10.189102117035,-3.48914031439,1.70760121967)
);
#212 = CARTESIAN_POINT('',(10.082556865472,-3.452562055808,
1.629489188325));
#213 = CARTESIAN_POINT('',(10.013129690025,-3.441105957758,
1.585651293196));
#214 = CARTESIAN_POINT('',(9.940223337579,-3.442286798673,1.546783714148
));
#215 = CARTESIAN_POINT('',(9.867188082106,-3.457471458165,1.51515445949)
);
#216 = CARTESIAN_POINT('',(9.797889546799,-3.48670963834,1.492950645226)
);
#217 = CARTESIAN_POINT('',(9.736168538753,-3.528347098859,1.481954354857
));
#218 = CARTESIAN_POINT('',(9.684575237399,-3.579052622478,1.482257082076
));
#219 = ORIENTED_EDGE('',*,*,#220,.T.);
#220 = EDGE_CURVE('',#196,#194,#221,.T.);
#221 = B_SPLINE_CURVE_WITH_KNOTS('',8,(#222,#223,#224,#225,#226,#227,
#228,#229,#230,#231,#232,#233,#234,#235,#236,#237,#238,#239,#240,
#241,#242,#243,#244,#245,#246,#247,#248,#249,#250,#251,#252,#253,
#254,#255,#256,#257,#258,#259,#260,#261,#262,#263,#264,#265),
.UNSPECIFIED.,.F.,.F.,(9,7,7,7,7,7,9),(0.E+000,0.203382025798,
0.399920933821,0.579722755214,0.82039179615,0.870038289335,1.),
.UNSPECIFIED.);
#222 = CARTESIAN_POINT('',(9.684575237399,-3.579052622478,1.482257082076
));
#223 = CARTESIAN_POINT('',(9.649871435738,-3.613159267888,1.482460709002
));
#224 = CARTESIAN_POINT('',(9.619616851953,-3.651323873235,1.487672683267
));
#225 = CARTESIAN_POINT('',(9.594535782124,-3.692636380975,1.497940547663
));
#226 = CARTESIAN_POINT('',(9.574982729899,-3.736058292337,1.513037032674
));
#227 = CARTESIAN_POINT('',(9.560997997306,-3.780602598593,1.532543374296
));
#228 = CARTESIAN_POINT('',(9.552406094143,-3.825417750039,1.55593396488)
);
#229 = CARTESIAN_POINT('',(9.548917521151,-3.869808768484,1.582649632421
));
#230 = CARTESIAN_POINT('',(9.551428477697,-3.955187518756,1.640651573651
));
#231 = CARTESIAN_POINT('',(9.557113804017,-3.996266512951,1.671772200003
));
#232 = CARTESIAN_POINT('',(9.56695759793,-4.036036341586,1.705069249614)
);
#233 = CARTESIAN_POINT('',(9.580666541675,-4.074157618926,1.740118428449
));
#234 = CARTESIAN_POINT('',(9.597968800906,-4.11035900707,1.776518704302)
);
#235 = CARTESIAN_POINT('',(9.618629571761,-4.144412337126,1.813891702279
));
#236 = CARTESIAN_POINT('',(9.642460237005,-4.176104668064,1.85187241313)
);
#237 = CARTESIAN_POINT('',(9.693894574496,-4.231831544423,1.925055334992
));
#238 = CARTESIAN_POINT('',(9.72097660134,-4.256258671372,1.960179768627)
);
#239 = CARTESIAN_POINT('',(9.75046680156,-4.278336788147,1.995200811989)
);
#240 = CARTESIAN_POINT('',(9.782273985564,-4.297861628624,2.029808775634
));
#241 = CARTESIAN_POINT('',(9.816296255408,-4.314575194533,2.063627883006
));
#242 = CARTESIAN_POINT('',(9.852397866969,-4.328167367111,2.096206193544
));
#243 = CARTESIAN_POINT('',(9.890382883256,-4.338280472365,2.127015549892
));
#244 = CARTESIAN_POINT('',(9.982948057744,-4.352864273722,2.193537200042
));
#245 = CARTESIAN_POINT('',(10.039393197067,-4.35436117288,2.227810497069
));
#246 = CARTESIAN_POINT('',(10.097510431003,-4.347587525951,2.25581698565
));
#247 = CARTESIAN_POINT('',(10.155156543439,-4.331869559046,
2.275564580821));
#248 = CARTESIAN_POINT('',(10.210097456818,-4.307349609784,
2.285990226294));
#249 = CARTESIAN_POINT('',(10.260267186324,-4.274979740631,
2.287240004302));
#250 = CARTESIAN_POINT('',(10.304140599518,-4.236416363699,
2.280297680923));
#251 = CARTESIAN_POINT('',(10.348521563771,-4.184899864283,
2.263898821324));
#252 = CARTESIAN_POINT('',(10.355820624496,-4.175901133214,
2.260807360196));
#253 = CARTESIAN_POINT('',(10.362824242387,-4.166726578512,
2.257439618532));
#254 = CARTESIAN_POINT('',(10.369528519064,-4.157389119327,
2.253806609669));
#255 = CARTESIAN_POINT('',(10.375930518943,-4.147901377433,
2.249919391899));
#256 = CARTESIAN_POINT('',(10.382028159537,-4.138275596586,
2.245788932394));
#257 = CARTESIAN_POINT('',(10.387820101766,-4.128523561876,
2.241425971131));
#258 = CARTESIAN_POINT('',(10.407665364827,-4.09282714666,2.224838311771
));
#259 = CARTESIAN_POINT('',(10.419922081652,-4.066215694105,2.21131639076
));
#260 = CARTESIAN_POINT('',(10.430068827007,-4.039017762439,
2.196459806835));
#261 = CARTESIAN_POINT('',(10.438118813166,-4.011414025258,
2.180439547054));
#262 = CARTESIAN_POINT('',(10.444099344637,-3.983569110344,
2.163409562166));
#263 = CARTESIAN_POINT('',(10.448046417233,-3.955631574007,
2.145505189699));
#264 = CARTESIAN_POINT('',(10.45,-3.927734968142,2.12684333844));
#265 = CARTESIAN_POINT('',(10.45,-3.9,2.107524434307));
#266 = TOROIDAL_SURFACE('',#267,7.091463414634,3.658536585366);
#267 = AXIS2_PLACEMENT_3D('',#268,#269,#270);
#268 = CARTESIAN_POINT('',(5.,-2.041463414634,10.78));
#269 = DIRECTION('',(1.137711779659E-033,-1.,-3.413135338977E-033));
#270 = DIRECTION('',(1.,1.137711779659E-033,1.161588884507E-033));
#271 = ADVANCED_FACE('',(#272),#275,.F.);
#272 = FACE_BOUND('',#273,.F.);
#273 = EDGE_LOOP('',(#274));
#274 = ORIENTED_EDGE('',*,*,#64,.T.);
#275 = PLANE('',#276);
#276 = AXIS2_PLACEMENT_3D('',#277,#278,#279);
#277 = CARTESIAN_POINT('',(5.,1.8,10.78));
#278 = DIRECTION('',(1.137711779659E-033,-1.,-3.413135338977E-033));
#279 = DIRECTION('',(0.E+000,3.413135338977E-033,-1.));
#280 = ADVANCED_FACE('',(#281),#301,.T.);
#281 = FACE_BOUND('',#282,.T.);
#282 = EDGE_LOOP('',(#283,#284,#292,#299,#300));
#283 = ORIENTED_EDGE('',*,*,#111,.T.);
#284 = ORIENTED_EDGE('',*,*,#285,.T.);
#285 = EDGE_CURVE('',#75,#286,#288,.T.);
#286 = VERTEX_POINT('',#287);
#287 = CARTESIAN_POINT('',(0.45,0.E+000,-2.82));
#288 = LINE('',#289,#290);
#289 = CARTESIAN_POINT('',(0.45,0.E+000,10.78));
#290 = VECTOR('',#291,1.);
#291 = DIRECTION('',(-0.E+000,-0.E+000,-1.));
#292 = ORIENTED_EDGE('',*,*,#293,.T.);
#293 = EDGE_CURVE('',#286,#286,#294,.T.);
#294 = CIRCLE('',#295,0.45);
#295 = AXIS2_PLACEMENT_3D('',#296,#297,#298);
#296 = CARTESIAN_POINT('',(0.E+000,0.E+000,-2.82));
#297 = DIRECTION('',(0.E+000,0.E+000,1.));
#298 = DIRECTION('',(1.,0.E+000,0.E+000));
#299 = ORIENTED_EDGE('',*,*,#285,.F.);
#300 = ORIENTED_EDGE('',*,*,#74,.T.);
#301 = CYLINDRICAL_SURFACE('',#302,0.45);
#302 = AXIS2_PLACEMENT_3D('',#303,#304,#305);
#303 = CARTESIAN_POINT('',(0.E+000,0.E+000,10.78));
#304 = DIRECTION('',(0.E+000,0.E+000,1.));
#305 = DIRECTION('',(1.,0.E+000,0.E+000));
#306 = ADVANCED_FACE('',(#307),#310,.T.);
#307 = FACE_BOUND('',#308,.T.);
#308 = EDGE_LOOP('',(#309));
#309 = ORIENTED_EDGE('',*,*,#183,.T.);
#310 = PLANE('',#311);
#311 = AXIS2_PLACEMENT_3D('',#312,#313,#314);
#312 = CARTESIAN_POINT('',(5.,-5.7,10.78));
#313 = DIRECTION('',(1.137711779659E-033,-1.,-3.413135338977E-033));
#314 = DIRECTION('',(0.E+000,3.413135338977E-033,-1.));
#315 = ADVANCED_FACE('',(#316),#336,.T.);
#316 = FACE_BOUND('',#317,.T.);
#317 = EDGE_LOOP('',(#318,#319,#327,#334,#335));
#318 = ORIENTED_EDGE('',*,*,#193,.F.);
#319 = ORIENTED_EDGE('',*,*,#320,.T.);
#320 = EDGE_CURVE('',#194,#321,#323,.T.);
#321 = VERTEX_POINT('',#322);
#322 = CARTESIAN_POINT('',(10.45,-3.9,-2.82));
#323 = LINE('',#324,#325);
#324 = CARTESIAN_POINT('',(10.45,-3.9,10.78));
#325 = VECTOR('',#326,1.);
#326 = DIRECTION('',(-0.E+000,-0.E+000,-1.));
#327 = ORIENTED_EDGE('',*,*,#328,.T.);
#328 = EDGE_CURVE('',#321,#321,#329,.T.);
#329 = CIRCLE('',#330,0.45);
#330 = AXIS2_PLACEMENT_3D('',#331,#332,#333);
#331 = CARTESIAN_POINT('',(10.,-3.9,-2.82));
#332 = DIRECTION('',(0.E+000,0.E+000,1.));
#333 = DIRECTION('',(1.,0.E+000,0.E+000));
#334 = ORIENTED_EDGE('',*,*,#320,.F.);
#335 = ORIENTED_EDGE('',*,*,#220,.F.);
#336 = CYLINDRICAL_SURFACE('',#337,0.45);
#337 = AXIS2_PLACEMENT_3D('',#338,#339,#340);
#338 = CARTESIAN_POINT('',(10.,-3.9,10.78));
#339 = DIRECTION('',(0.E+000,0.E+000,1.));
#340 = DIRECTION('',(1.,0.E+000,0.E+000));
#341 = ADVANCED_FACE('',(#342),#362,.T.);
#342 = FACE_BOUND('',#343,.F.);
#343 = EDGE_LOOP('',(#344,#353,#354,#355));
#344 = ORIENTED_EDGE('',*,*,#345,.F.);
#345 = EDGE_CURVE('',#286,#346,#348,.T.);
#346 = VERTEX_POINT('',#347);
#347 = CARTESIAN_POINT('',(0.27,0.E+000,-3.));
#348 = CIRCLE('',#349,0.18);
#349 = AXIS2_PLACEMENT_3D('',#350,#351,#352);
#350 = CARTESIAN_POINT('',(0.27,0.E+000,-2.82));
#351 = DIRECTION('',(-0.E+000,1.,0.E+000));
#352 = DIRECTION('',(1.,0.E+000,0.E+000));
#353 = ORIENTED_EDGE('',*,*,#293,.T.);
#354 = ORIENTED_EDGE('',*,*,#345,.T.);
#355 = ORIENTED_EDGE('',*,*,#356,.F.);
#356 = EDGE_CURVE('',#346,#346,#357,.T.);
#357 = CIRCLE('',#358,0.27);
#358 = AXIS2_PLACEMENT_3D('',#359,#360,#361);
#359 = CARTESIAN_POINT('',(0.E+000,0.E+000,-3.));
#360 = DIRECTION('',(0.E+000,0.E+000,1.));
#361 = DIRECTION('',(1.,0.E+000,0.E+000));
#362 = TOROIDAL_SURFACE('',#363,0.27,0.18);
#363 = AXIS2_PLACEMENT_3D('',#364,#365,#366);
#364 = CARTESIAN_POINT('',(0.E+000,0.E+000,-2.82));
#365 = DIRECTION('',(-0.E+000,-0.E+000,-1.));
#366 = DIRECTION('',(1.,0.E+000,0.E+000));
#367 = ADVANCED_FACE('',(#368),#388,.T.);
#368 = FACE_BOUND('',#369,.F.);
#369 = EDGE_LOOP('',(#370,#379,#380,#381));
#370 = ORIENTED_EDGE('',*,*,#371,.F.);
#371 = EDGE_CURVE('',#321,#372,#374,.T.);
#372 = VERTEX_POINT('',#373);
#373 = CARTESIAN_POINT('',(10.27,-3.9,-3.));
#374 = CIRCLE('',#375,0.18);
#375 = AXIS2_PLACEMENT_3D('',#376,#377,#378);
#376 = CARTESIAN_POINT('',(10.27,-3.9,-2.82));
#377 = DIRECTION('',(-0.E+000,1.,0.E+000));
#378 = DIRECTION('',(1.,0.E+000,0.E+000));
#379 = ORIENTED_EDGE('',*,*,#328,.T.);
#380 = ORIENTED_EDGE('',*,*,#371,.T.);
#381 = ORIENTED_EDGE('',*,*,#382,.F.);
#382 = EDGE_CURVE('',#372,#372,#383,.T.);
#383 = CIRCLE('',#384,0.27);
#384 = AXIS2_PLACEMENT_3D('',#385,#386,#387);
#385 = CARTESIAN_POINT('',(10.,-3.9,-3.));
#386 = DIRECTION('',(0.E+000,0.E+000,1.));
#387 = DIRECTION('',(1.,0.E+000,0.E+000));
#388 = TOROIDAL_SURFACE('',#389,0.27,0.18);
#389 = AXIS2_PLACEMENT_3D('',#390,#391,#392);
#390 = CARTESIAN_POINT('',(10.,-3.9,-2.82));
#391 = DIRECTION('',(-0.E+000,-0.E+000,-1.));
#392 = DIRECTION('',(1.,0.E+000,0.E+000));
#393 = ADVANCED_FACE('',(#394),#397,.F.);
#394 = FACE_BOUND('',#395,.F.);
#395 = EDGE_LOOP('',(#396));
#396 = ORIENTED_EDGE('',*,*,#356,.T.);
#397 = PLANE('',#398);
#398 = AXIS2_PLACEMENT_3D('',#399,#400,#401);
#399 = CARTESIAN_POINT('',(-1.18701400394E-017,2.911085817041E-017,-3.)
);
#400 = DIRECTION('',(0.E+000,0.E+000,1.));
#401 = DIRECTION('',(1.,0.E+000,0.E+000));
#402 = ADVANCED_FACE('',(#403),#406,.F.);
#403 = FACE_BOUND('',#404,.F.);
#404 = EDGE_LOOP('',(#405));
#405 = ORIENTED_EDGE('',*,*,#382,.T.);
#406 = PLANE('',#407);
#407 = AXIS2_PLACEMENT_3D('',#408,#409,#410);
#408 = CARTESIAN_POINT('',(10.,-3.9,-3.));
#409 = DIRECTION('',(0.E+000,0.E+000,1.));
#410 = DIRECTION('',(1.,0.E+000,0.E+000));
#411 = ( GEOMETRIC_REPRESENTATION_CONTEXT(3)
GLOBAL_UNCERTAINTY_ASSIGNED_CONTEXT((#415)) GLOBAL_UNIT_ASSIGNED_CONTEXT
((#412,#413,#414)) REPRESENTATION_CONTEXT('Context #1',
'3D Context with UNIT and UNCERTAINTY') );
#412 = ( LENGTH_UNIT() NAMED_UNIT(*) SI_UNIT(.MILLI.,.METRE.) );
#413 = ( NAMED_UNIT(*) PLANE_ANGLE_UNIT() SI_UNIT($,.RADIAN.) );
#414 = ( NAMED_UNIT(*) SI_UNIT($,.STERADIAN.) SOLID_ANGLE_UNIT() );
#415 = UNCERTAINTY_MEASURE_WITH_UNIT(LENGTH_MEASURE(1.E-007),#412,
'distance_accuracy_value','confusion accuracy');
#416 = PRODUCT_RELATED_PRODUCT_CATEGORY('part',$,(#7));
#417 = MECHANICAL_DESIGN_GEOMETRIC_PRESENTATION_REPRESENTATION('',(#418,
#426,#433,#440,#447,#455,#462,#469,#476,#483,#490),#411);
#418 = STYLED_ITEM('color',(#419),#17);
#419 = PRESENTATION_STYLE_ASSIGNMENT((#420));
#420 = SURFACE_STYLE_USAGE(.BOTH.,#421);
#421 = SURFACE_SIDE_STYLE('',(#422));
#422 = SURFACE_STYLE_FILL_AREA(#423);
#423 = FILL_AREA_STYLE('',(#424));
#424 = FILL_AREA_STYLE_COLOUR('',#425);
#425 = COLOUR_RGB('',0.136999994516,0.402000010014,0.726999998093);
#426 = STYLED_ITEM('color',(#427),#50);
#427 = PRESENTATION_STYLE_ASSIGNMENT((#428));
#428 = SURFACE_STYLE_USAGE(.BOTH.,#429);
#429 = SURFACE_SIDE_STYLE('',(#430));
#430 = SURFACE_STYLE_FILL_AREA(#431);
#431 = FILL_AREA_STYLE('',(#432));
#432 = FILL_AREA_STYLE_COLOUR('',#425);
#433 = STYLED_ITEM('color',(#434),#169);
#434 = PRESENTATION_STYLE_ASSIGNMENT((#435));
#435 = SURFACE_STYLE_USAGE(.BOTH.,#436);
#436 = SURFACE_SIDE_STYLE('',(#437));
#437 = SURFACE_STYLE_FILL_AREA(#438);
#438 = FILL_AREA_STYLE('',(#439));
#439 = FILL_AREA_STYLE_COLOUR('',#425);
#440 = STYLED_ITEM('color',(#441),#271);
#441 = PRESENTATION_STYLE_ASSIGNMENT((#442));
#442 = SURFACE_STYLE_USAGE(.BOTH.,#443);
#443 = SURFACE_SIDE_STYLE('',(#444));
#444 = SURFACE_STYLE_FILL_AREA(#445);
#445 = FILL_AREA_STYLE('',(#446));
#446 = FILL_AREA_STYLE_COLOUR('',#425);
#447 = STYLED_ITEM('color',(#448),#280);
#448 = PRESENTATION_STYLE_ASSIGNMENT((#449));
#449 = SURFACE_STYLE_USAGE(.BOTH.,#450);
#450 = SURFACE_SIDE_STYLE('',(#451));
#451 = SURFACE_STYLE_FILL_AREA(#452);
#452 = FILL_AREA_STYLE('',(#453));
#453 = FILL_AREA_STYLE_COLOUR('',#454);
#454 = COLOUR_RGB('',0.824000000954,0.819999992847,0.78100001812);
#455 = STYLED_ITEM('color',(#456),#306);
#456 = PRESENTATION_STYLE_ASSIGNMENT((#457));
#457 = SURFACE_STYLE_USAGE(.BOTH.,#458);
#458 = SURFACE_SIDE_STYLE('',(#459));
#459 = SURFACE_STYLE_FILL_AREA(#460);
#460 = FILL_AREA_STYLE('',(#461));
#461 = FILL_AREA_STYLE_COLOUR('',#425);
#462 = STYLED_ITEM('color',(#463),#315);
#463 = PRESENTATION_STYLE_ASSIGNMENT((#464));
#464 = SURFACE_STYLE_USAGE(.BOTH.,#465);
#465 = SURFACE_SIDE_STYLE('',(#466));
#466 = SURFACE_STYLE_FILL_AREA(#467);
#467 = FILL_AREA_STYLE('',(#468));
#468 = FILL_AREA_STYLE_COLOUR('',#454);
#469 = STYLED_ITEM('color',(#470),#341);
#470 = PRESENTATION_STYLE_ASSIGNMENT((#471));
#471 = SURFACE_STYLE_USAGE(.BOTH.,#472);
#472 = SURFACE_SIDE_STYLE('',(#473));
#473 = SURFACE_STYLE_FILL_AREA(#474);
#474 = FILL_AREA_STYLE('',(#475));
#475 = FILL_AREA_STYLE_COLOUR('',#454);
#476 = STYLED_ITEM('color',(#477),#367);
#477 = PRESENTATION_STYLE_ASSIGNMENT((#478));
#478 = SURFACE_STYLE_USAGE(.BOTH.,#479);
#479 = SURFACE_SIDE_STYLE('',(#480));
#480 = SURFACE_STYLE_FILL_AREA(#481);
#481 = FILL_AREA_STYLE('',(#482));
#482 = FILL_AREA_STYLE_COLOUR('',#454);
#483 = STYLED_ITEM('color',(#484),#393);
#484 = PRESENTATION_STYLE_ASSIGNMENT((#485));
#485 = SURFACE_STYLE_USAGE(.BOTH.,#486);
#486 = SURFACE_SIDE_STYLE('',(#487));
#487 = SURFACE_STYLE_FILL_AREA(#488);
#488 = FILL_AREA_STYLE('',(#489));
#489 = FILL_AREA_STYLE_COLOUR('',#454);
#490 = STYLED_ITEM('color',(#491),#402);
#491 = PRESENTATION_STYLE_ASSIGNMENT((#492));
#492 = SURFACE_STYLE_USAGE(.BOTH.,#493);
#493 = SURFACE_SIDE_STYLE('',(#494));
#494 = SURFACE_STYLE_FILL_AREA(#495);
#495 = FILL_AREA_STYLE('',(#496));
#496 = FILL_AREA_STYLE_COLOUR('',#454);
ENDSEC;
END-ISO-10303-21;
