ISO-10303-21;
HEADER;
/* RV_Disc_D15.5mm_W6.3mm_P7.5mm.step 3D STEP model for use in ECAD systems
 * Copyright (C) 2018, kicad StepUp
 * 
 * This work is licensed under the [Creative Commons CC-BY-SA 4.0 License](https://creativecommons.org/licenses/by-sa/4.0/legalcode), 
 * with the following exception:
 * To the extent that the creation of electronic designs that use 'Licensed Material' can be considered to be 'Adapted Material', 
 * then the copyright holder waives article 3 of the license with respect to these designs and any generated files which use data provided 
 * as part of the 'Licensed Material'.
 * You are free to use the library data in your own projects without the obligation to share your project files under this or any other license agreement.
 * However, if you wish to redistribute these libraries, or parts thereof (including in modified form) as a collection then the exception above does not apply. 
 * Please refer to https://github.com/KiCad/kicad-packages3D/blob/master/LICENSE.md for further clarification of the exception.
 * Disclaimer of Warranties and Limitation of Liability.
 * These libraries are provided in the hope that they will be useful, but are provided without warranty of any kind, express or implied.
 * *USE 3D CAD DATA AT YOUR OWN RISK*
 * *DO NOT RELY UPON ANY INFORMATION FOUND HERE WITHOUT INDEPENDENT VERIFICATION.*
 * 
 */

FILE_DESCRIPTION(
/* description */ ('model of RV_Disc_D15.5mm_W6.3mm_P7.5mm'),
/* implementation_level */ '2;1');

FILE_NAME(
/* name */ 'RV_Disc_D15.5mm_W6.3mm_P7.5mm.step',
/* time_stamp */ '2018-11-11T21:00:53',
/* author */ ('kicad StepUp','ksu'),
/* organization */ ('FreeCAD'),
/* preprocessor_version */ 'OCC',
/* originating_system */ 'kicad StepUp',
/* authorisation */ '');

FILE_SCHEMA(('AUTOMOTIVE_DESIGN { 1 0 10303 214 1 1 1 1 }'));
ENDSEC;

DATA;
#1 = APPLICATION_PROTOCOL_DEFINITION('international standard',
'automotive_design',2000,#2);
#2 = APPLICATION_CONTEXT(
'core data for automotive mechanical design processes');
#3 = SHAPE_DEFINITION_REPRESENTATION(#4,#10);
#4 = PRODUCT_DEFINITION_SHAPE('','',#5);
#5 = PRODUCT_DEFINITION('design','',#6,#9);
#6 = PRODUCT_DEFINITION_FORMATION('','',#7);
#7 = PRODUCT('RV_Disc_D155mm_W63mm_P75mm','RV_Disc_D155mm_W63mm_P75mm',
'',(#8));
#8 = PRODUCT_CONTEXT('',#2,'mechanical');
#9 = PRODUCT_DEFINITION_CONTEXT('part definition',#2,'design');
#10 = ADVANCED_BREP_SHAPE_REPRESENTATION('',(#11,#15),#372);
#11 = AXIS2_PLACEMENT_3D('',#12,#13,#14);
#12 = CARTESIAN_POINT('',(0.E+000,0.E+000,0.E+000));
#13 = DIRECTION('',(0.E+000,0.E+000,1.));
#14 = DIRECTION('',(1.,0.E+000,-0.E+000));
#15 = MANIFOLD_SOLID_BREP('',#16);
#16 = CLOSED_SHELL('',(#17,#50,#138,#232,#241,#267,#276,#302,#328,#354,
#363));
#17 = ADVANCED_FACE('',(#18),#45,.T.);
#18 = FACE_BOUND('',#19,.F.);
#19 = EDGE_LOOP('',(#20,#30,#37,#38));
#20 = ORIENTED_EDGE('',*,*,#21,.T.);
#21 = EDGE_CURVE('',#22,#24,#26,.T.);
#22 = VERTEX_POINT('',#23);
#23 = CARTESIAN_POINT('',(11.5,-1.423170731707,7.78));
#24 = VERTEX_POINT('',#25);
#25 = CARTESIAN_POINT('',(11.5,-1.576829268293,7.78));
#26 = LINE('',#27,#28);
#27 = CARTESIAN_POINT('',(11.5,1.65,7.78));
#28 = VECTOR('',#29,1.);
#29 = DIRECTION('',(0.E+000,-1.,0.E+000));
#30 = ORIENTED_EDGE('',*,*,#31,.T.);
#31 = EDGE_CURVE('',#24,#24,#32,.T.);
#32 = CIRCLE('',#33,7.75);
#33 = AXIS2_PLACEMENT_3D('',#34,#35,#36);
#34 = CARTESIAN_POINT('',(3.75,-1.576829268293,7.78));
#35 = DIRECTION('',(1.09450004193E-033,-1.,7.66150029351E-033));
#36 = DIRECTION('',(1.,1.09450004193E-033,-3.03807722103E-033));
#37 = ORIENTED_EDGE('',*,*,#21,.F.);
#38 = ORIENTED_EDGE('',*,*,#39,.F.);
#39 = EDGE_CURVE('',#22,#22,#40,.T.);
#40 = CIRCLE('',#41,7.75);
#41 = AXIS2_PLACEMENT_3D('',#42,#43,#44);
#42 = CARTESIAN_POINT('',(3.75,-1.423170731707,7.78));
#43 = DIRECTION('',(1.09450004193E-033,-1.,7.66150029351E-033));
#44 = DIRECTION('',(1.,1.09450004193E-033,3.03807722103E-033));
#45 = CYLINDRICAL_SURFACE('',#46,7.75);
#46 = AXIS2_PLACEMENT_3D('',#47,#48,#49);
#47 = CARTESIAN_POINT('',(3.75,1.65,7.78));
#48 = DIRECTION('',(0.E+000,1.,0.E+000));
#49 = DIRECTION('',(1.,0.E+000,0.E+000));
#50 = ADVANCED_FACE('',(#51,#71),#133,.T.);
#51 = FACE_BOUND('',#52,.F.);
#52 = EDGE_LOOP('',(#53,#54,#63,#70));
#53 = ORIENTED_EDGE('',*,*,#39,.T.);
#54 = ORIENTED_EDGE('',*,*,#55,.T.);
#55 = EDGE_CURVE('',#22,#56,#58,.T.);
#56 = VERTEX_POINT('',#57);
#57 = CARTESIAN_POINT('',(8.426829268293,1.65,7.78));
#58 = CIRCLE('',#59,3.073170731707);
#59 = AXIS2_PLACEMENT_3D('',#60,#61,#62);
#60 = CARTESIAN_POINT('',(8.426829268293,-1.423170731707,7.78));
#61 = DIRECTION('',(-3.03807722103E-033,7.66150029351E-033,1.));
#62 = DIRECTION('',(1.,1.09450004193E-033,3.03807722103E-033));
#63 = ORIENTED_EDGE('',*,*,#64,.F.);
#64 = EDGE_CURVE('',#56,#56,#65,.T.);
#65 = CIRCLE('',#66,4.676829268293);
#66 = AXIS2_PLACEMENT_3D('',#67,#68,#69);
#67 = CARTESIAN_POINT('',(3.75,1.65,7.78));
#68 = DIRECTION('',(1.09450004193E-033,-1.,7.66150029351E-033));
#69 = DIRECTION('',(1.,1.09450004193E-033,3.03807722103E-033));
#70 = ORIENTED_EDGE('',*,*,#55,.F.);
#71 = FACE_BOUND('',#72,.F.);
#72 = EDGE_LOOP('',(#73,#92));
#73 = ORIENTED_EDGE('',*,*,#74,.T.);
#74 = EDGE_CURVE('',#75,#77,#79,.T.);
#75 = VERTEX_POINT('',#76);
#76 = CARTESIAN_POINT('',(0.36,0.E+000,1.201483502871));
#77 = VERTEX_POINT('',#78);
#78 = CARTESIAN_POINT('',(2.100195960153E-003,-0.359993873805,
1.214147988183));
#79 = B_SPLINE_CURVE_WITH_KNOTS('',6,(#80,#81,#82,#83,#84,#85,#86,#87,
#88,#89,#90,#91),.UNSPECIFIED.,.F.,.F.,(7,5,7),(0.E+000,
0.422336617379,1.),.UNSPECIFIED.);
#80 = CARTESIAN_POINT('',(0.36,-1.665334536938E-016,1.201483502871));
#81 = CARTESIAN_POINT('',(0.36,-3.736759875284E-002,1.17951907297));
#82 = CARTESIAN_POINT('',(0.355345280345,-7.533179223181E-002,
1.160502136986));
#83 = CARTESIAN_POINT('',(0.345758992057,-0.113209672906,1.14496255783)
);
#84 = CARTESIAN_POINT('',(0.331064276942,-0.150144198176,1.133405947154)
);
#85 = CARTESIAN_POINT('',(0.311366174941,-0.185092184227,1.12619194246)
);
#86 = CARTESIAN_POINT('',(0.254112133256,-0.260835820585,1.119545244791)
);
#87 = CARTESIAN_POINT('',(0.212627675868,-0.299088339857,1.123946852377)
);
#88 = CARTESIAN_POINT('',(0.164065383738,-0.329294405113,1.136788913636)
);
#89 = CARTESIAN_POINT('',(0.110903973392,-0.349655964521,1.157134240342)
);
#90 = CARTESIAN_POINT('',(5.605138783006E-002,-0.359679123795,
1.183485363619));
#91 = CARTESIAN_POINT('',(2.100195960153E-003,-0.359993873805,
1.214147988183));
#92 = ORIENTED_EDGE('',*,*,#93,.T.);
#93 = EDGE_CURVE('',#77,#75,#94,.T.);
#94 = B_SPLINE_CURVE_WITH_KNOTS('',7,(#95,#96,#97,#98,#99,#100,#101,#102
,#103,#104,#105,#106,#107,#108,#109,#110,#111,#112,#113,#114,#115,
#116,#117,#118,#119,#120,#121,#122,#123,#124,#125,#126,#127,#128,
#129,#130,#131,#132),.UNSPECIFIED.,.F.,.F.,(8,6,6,6,6,6,8),(0.E+000,
0.196276182036,0.404180864245,0.546097295196,0.683224613347,
0.82228985262,1.),.UNSPECIFIED.);
#95 = CARTESIAN_POINT('',(2.100195960153E-003,-0.359993873805,
1.214147988183));
#96 = CARTESIAN_POINT('',(-4.783278235305E-002,-0.360285181649,
1.242526900942));
#97 = CARTESIAN_POINT('',(-9.695599871038E-002,-0.352491166245,
1.274462609152));
#98 = CARTESIAN_POINT('',(-0.143695904938,-0.337102199887,1.308882378967
));
#99 = CARTESIAN_POINT('',(-0.186810641142,-0.314978175027,1.344824657109
));
#100 = CARTESIAN_POINT('',(-0.225431470838,-0.287080049253,
1.381525025414));
#101 = CARTESIAN_POINT('',(-0.258947787154,-0.254320567781,
1.418364280064));
#102 = CARTESIAN_POINT('',(-0.316411388537,-0.178541194843,
1.493380438529));
#103 = CARTESIAN_POINT('',(-0.339626293544,-0.135091739953,
1.531445103143));
#104 = CARTESIAN_POINT('',(-0.355914360796,-8.819642777602E-002,
1.568312224131));
#105 = CARTESIAN_POINT('',(-0.364748914546,-3.890533375784E-002,
1.603272631549));
#106 = CARTESIAN_POINT('',(-0.365660140833,1.161540270149E-002,
1.635468427171));
#107 = CARTESIAN_POINT('',(-0.358295810068,6.202002181559E-002,
1.663829083777));
#108 = CARTESIAN_POINT('',(-0.331789233593,0.144006218758,1.702914478303
));
#109 = CARTESIAN_POINT('',(-0.317131183101,0.176471006965,1.716373485147
));
#110 = CARTESIAN_POINT('',(-0.298552024824,0.207608407148,1.727011761706
));
#111 = CARTESIAN_POINT('',(-0.276122267492,0.236799216501,1.73435189403)
);
#112 = CARTESIAN_POINT('',(-0.250090556868,0.263363291653,1.737922226862
));
#113 = CARTESIAN_POINT('',(-0.220933033189,0.286647335176,1.73737652936)
);
#114 = CARTESIAN_POINT('',(-0.158853883383,0.325041693148,1.72812940769)
);
#115 = CARTESIAN_POINT('',(-0.126068775321,0.340415706572,1.719699905706
));
#116 = CARTESIAN_POINT('',(-9.168369813585E-002,0.351827031428,
1.707341721818));
#117 = CARTESIAN_POINT('',(-5.647905454814E-002,0.35906262589,
1.691283925076));
#118 = CARTESIAN_POINT('',(-2.121198107158E-002,0.362159801277,
1.67200706104));
#119 = CARTESIAN_POINT('',(1.345321422315E-002,0.361333251162,
1.650127001564));
#120 = CARTESIAN_POINT('',(8.095689645826E-002,0.352450300921,
1.602139408653));
#121 = CARTESIAN_POINT('',(0.113805487842,0.344286060922,1.575945927136)
);
#122 = CARTESIAN_POINT('',(0.14511973819,0.332744678864,1.54826916077));
#123 = CARTESIAN_POINT('',(0.174613815745,0.318150179618,1.519621654528)
);
#124 = CARTESIAN_POINT('',(0.202077289469,0.300799805117,1.490447196635)
);
#125 = CARTESIAN_POINT('',(0.227341474759,0.280946444513,1.461116461981)
);
#126 = CARTESIAN_POINT('',(0.279513566117,0.230498912233,1.394681996114)
);
#127 = CARTESIAN_POINT('',(0.304896415271,0.198482876325,1.357722517349)
);
#128 = CARTESIAN_POINT('',(0.326055761154,0.163217085963,1.321762037989)
);
#129 = CARTESIAN_POINT('',(0.342599263536,0.125141981809,1.287462942306)
);
#130 = CARTESIAN_POINT('',(0.354071309675,8.477223730744E-002,
1.255512722014));
#131 = CARTESIAN_POINT('',(0.36,4.277110976164E-002,1.226624081167));
#132 = CARTESIAN_POINT('',(0.36,-1.665334536938E-016,1.201483502871));
#133 = TOROIDAL_SURFACE('',#134,4.676829268293,3.073170731707);
#134 = AXIS2_PLACEMENT_3D('',#135,#136,#137);
#135 = CARTESIAN_POINT('',(3.75,-1.423170731707,7.78));
#136 = DIRECTION('',(-1.09450004193E-033,1.,-7.66150029351E-033));
#137 = DIRECTION('',(1.,1.09450004193E-033,3.03807722103E-033));
#138 = ADVANCED_FACE('',(#139,#159),#227,.T.);
#139 = FACE_BOUND('',#140,.T.);
#140 = EDGE_LOOP('',(#141,#142,#151,#158));
#141 = ORIENTED_EDGE('',*,*,#31,.T.);
#142 = ORIENTED_EDGE('',*,*,#143,.T.);
#143 = EDGE_CURVE('',#24,#144,#146,.T.);
#144 = VERTEX_POINT('',#145);
#145 = CARTESIAN_POINT('',(8.426829268293,-4.65,7.78));
#146 = CIRCLE('',#147,3.073170731707);
#147 = AXIS2_PLACEMENT_3D('',#148,#149,#150);
#148 = CARTESIAN_POINT('',(8.426829268293,-1.576829268293,7.78));
#149 = DIRECTION('',(-3.03807722103E-033,-7.66150029351E-033,-1.));
#150 = DIRECTION('',(1.,1.09450004193E-033,-3.03807722103E-033));
#151 = ORIENTED_EDGE('',*,*,#152,.F.);
#152 = EDGE_CURVE('',#144,#144,#153,.T.);
#153 = CIRCLE('',#154,4.676829268293);
#154 = AXIS2_PLACEMENT_3D('',#155,#156,#157);
#155 = CARTESIAN_POINT('',(3.75,-4.65,7.78));
#156 = DIRECTION('',(1.09450004193E-033,-1.,7.66150029351E-033));
#157 = DIRECTION('',(1.,1.09450004193E-033,-3.03807722103E-033));
#158 = ORIENTED_EDGE('',*,*,#143,.F.);
#159 = FACE_BOUND('',#160,.T.);
#160 = EDGE_LOOP('',(#161,#180));
#161 = ORIENTED_EDGE('',*,*,#162,.T.);
#162 = EDGE_CURVE('',#163,#165,#167,.T.);
#163 = VERTEX_POINT('',#164);
#164 = CARTESIAN_POINT('',(7.86,-3.,1.625580506417));
#165 = VERTEX_POINT('',#166);
#166 = CARTESIAN_POINT('',(7.522141972434,-2.640681571504,1.228332773772
));
#167 = B_SPLINE_CURVE_WITH_KNOTS('',6,(#168,#169,#170,#171,#172,#173,
#174,#175,#176,#177,#178,#179),.UNSPECIFIED.,.F.,.F.,(7,5,7),(
0.E+000,0.436494105332,1.),.UNSPECIFIED.);
#168 = CARTESIAN_POINT('',(7.86,-3.,1.625580506417));
#169 = CARTESIAN_POINT('',(7.86,-2.9605423396,1.60078934071));
#170 = CARTESIAN_POINT('',(7.85480989619,-2.921490672419,1.57387430872)
);
#171 = CARTESIAN_POINT('',(7.844631902345,-2.883550438923,1.545391710405
));
#172 = CARTESIAN_POINT('',(7.829716609535,-2.847354468243,1.515796968709
));
#173 = CARTESIAN_POINT('',(7.810359995532,-2.813492654681,1.485489105532
));
#174 = CARTESIAN_POINT('',(7.756614570267,-2.742584433742,1.415307429638
));
#175 = CARTESIAN_POINT('',(7.719521494654,-2.707518550304,1.375256021652
));
#176 = CARTESIAN_POINT('',(7.676341967519,-2.678514092441,1.335486977959
));
#177 = CARTESIAN_POINT('',(7.627970868576,-2.656884031451,1.296889235133
));
#178 = CARTESIAN_POINT('',(7.575880571249,-2.643993059252,1.260682887809
));
#179 = CARTESIAN_POINT('',(7.522141972434,-2.640681571504,1.228332773772
));
#180 = ORIENTED_EDGE('',*,*,#181,.T.);
#181 = EDGE_CURVE('',#165,#163,#182,.T.);
#182 = B_SPLINE_CURVE_WITH_KNOTS('',7,(#183,#184,#185,#186,#187,#188,
#189,#190,#191,#192,#193,#194,#195,#196,#197,#198,#199,#200,#201,
#202,#203,#204,#205,#206,#207,#208,#209,#210,#211,#212,#213,#214,
#215,#216,#217,#218,#219,#220,#221,#222,#223,#224,#225,#226),
.UNSPECIFIED.,.F.,.F.,(8,6,6,6,6,6,6,8),(0.E+000,0.198299489969,
0.300948352319,0.354847361292,0.510082461217,0.704195808064,
0.906962851313,1.),.UNSPECIFIED.);
#183 = CARTESIAN_POINT('',(7.522141972434,-2.640681571504,1.228332773772
));
#184 = CARTESIAN_POINT('',(7.472653365775,-2.637631977391,1.198541113694
));
#185 = CARTESIAN_POINT('',(7.421802806533,-2.642480950618,1.171927364114
));
#186 = CARTESIAN_POINT('',(7.371379886374,-2.655843929317,1.149721993625
));
#187 = CARTESIAN_POINT('',(7.323416621878,-2.67771754401,1.133074478932)
);
#188 = CARTESIAN_POINT('',(7.279894754395,-2.707373645581,1.122918587266
));
#189 = CARTESIAN_POINT('',(7.242440301417,-2.743415029199,1.119773534615
));
#190 = CARTESIAN_POINT('',(7.196250845092,-2.804997787597,1.125400183224
));
#191 = CARTESIAN_POINT('',(7.182370311655,-2.827227714527,1.129156561611
));
#192 = CARTESIAN_POINT('',(7.17049411731,-2.85043533542,1.134732508864)
);
#193 = CARTESIAN_POINT('',(7.160693690929,-2.874362442468,1.142068035667
));
#194 = CARTESIAN_POINT('',(7.152989584342,-2.898759222442,1.151070750856
));
#195 = CARTESIAN_POINT('',(7.147362269682,-2.923395837903,1.161625907888
));
#196 = CARTESIAN_POINT('',(7.141877180436,-2.96102028084,1.179897372183)
);
#197 = CARTESIAN_POINT('',(7.140548454368,-2.973984390562,1.186581589183
));
#198 = CARTESIAN_POINT('',(7.139772816281,-2.986929430846,1.193641202196
));
#199 = CARTESIAN_POINT('',(7.139541705483,-2.999828224823,1.201057470374
));
#200 = CARTESIAN_POINT('',(7.139845158229,-3.012655581599,1.208811215682
));
#201 = CARTESIAN_POINT('',(7.140672278007,-3.025388273942,1.216883121345
));
#202 = CARTESIAN_POINT('',(7.145869405933,-3.074342626763,1.249363172761
));
#203 = CARTESIAN_POINT('',(7.153975415659,-3.109705921078,1.275944256604
));
#204 = CARTESIAN_POINT('',(7.166054323977,-3.143605167481,1.304548257541
));
#205 = CARTESIAN_POINT('',(7.181807861177,-3.17564817472,1.334722812493)
);
#206 = CARTESIAN_POINT('',(7.200953013434,-3.205511569153,1.366027202549
));
#207 = CARTESIAN_POINT('',(7.223238649013,-3.232904191591,1.398027815316
));
#208 = CARTESIAN_POINT('',(7.27995444353,-3.28830665843,1.470596356907)
);
#209 = CARTESIAN_POINT('',(7.315960658108,-3.314686899587,1.511216427975
));
#210 = CARTESIAN_POINT('',(7.356075913164,-3.336189270923,1.551361928344
));
#211 = CARTESIAN_POINT('',(7.399889528849,-3.352079049169,1.590025280185
));
#212 = CARTESIAN_POINT('',(7.446734738375,-3.361445336001,1.625834531811
));
#213 = CARTESIAN_POINT('',(7.495442098609,-3.363325231276,1.657110068222
));
#214 = CARTESIAN_POINT('',(7.595380603654,-3.350926865859,1.708919325434
));
#215 = CARTESIAN_POINT('',(7.646566386605,-3.335932758888,1.728880645934
));
#216 = CARTESIAN_POINT('',(7.695251746009,-3.311880673481,1.740393190817
));
#217 = CARTESIAN_POINT('',(7.73889807488,-3.279633243469,1.742766703632)
);
#218 = CARTESIAN_POINT('',(7.775731777172,-3.240970200856,1.736847410668
));
#219 = CARTESIAN_POINT('',(7.804861693853,-3.197931691956,1.723939127652
));
#220 = CARTESIAN_POINT('',(7.835865011415,-3.131623443477,1.697056708102
));
#221 = CARTESIAN_POINT('',(7.843977697372,-3.110216705106,1.687421937118
));
#222 = CARTESIAN_POINT('',(7.850437063804,-3.088414779756,1.676729089883
));
#223 = CARTESIAN_POINT('',(7.855247172524,-3.066363274255,1.665094664094
));
#224 = CARTESIAN_POINT('',(7.858425911082,-3.044196828977,1.652627692086
));
#225 = CARTESIAN_POINT('',(7.86,-3.022038643123,1.639427339911));
#226 = CARTESIAN_POINT('',(7.86,-3.,1.625580506417));
#227 = TOROIDAL_SURFACE('',#228,4.676829268293,3.073170731707);
#228 = AXIS2_PLACEMENT_3D('',#229,#230,#231);
#229 = CARTESIAN_POINT('',(3.75,-1.576829268293,7.78));
#230 = DIRECTION('',(1.09450004193E-033,-1.,7.66150029351E-033));
#231 = DIRECTION('',(1.,1.09450004193E-033,-3.03807722103E-033));
#232 = ADVANCED_FACE('',(#233),#236,.F.);
#233 = FACE_BOUND('',#234,.F.);
#234 = EDGE_LOOP('',(#235));
#235 = ORIENTED_EDGE('',*,*,#64,.T.);
#236 = PLANE('',#237);
#237 = AXIS2_PLACEMENT_3D('',#238,#239,#240);
#238 = CARTESIAN_POINT('',(3.75,1.65,7.78));
#239 = DIRECTION('',(1.09450004193E-033,-1.,7.66150029351E-033));
#240 = DIRECTION('',(0.E+000,-7.66150029351E-033,-1.));
#241 = ADVANCED_FACE('',(#242),#262,.T.);
#242 = FACE_BOUND('',#243,.T.);
#243 = EDGE_LOOP('',(#244,#245,#253,#260,#261));
#244 = ORIENTED_EDGE('',*,*,#93,.T.);
#245 = ORIENTED_EDGE('',*,*,#246,.T.);
#246 = EDGE_CURVE('',#75,#247,#249,.T.);
#247 = VERTEX_POINT('',#248);
#248 = CARTESIAN_POINT('',(0.36,0.E+000,-2.856));
#249 = LINE('',#250,#251);
#250 = CARTESIAN_POINT('',(0.36,0.E+000,7.78));
#251 = VECTOR('',#252,1.);
#252 = DIRECTION('',(-0.E+000,-0.E+000,-1.));
#253 = ORIENTED_EDGE('',*,*,#254,.T.);
#254 = EDGE_CURVE('',#247,#247,#255,.T.);
#255 = CIRCLE('',#256,0.36);
#256 = AXIS2_PLACEMENT_3D('',#257,#258,#259);
#257 = CARTESIAN_POINT('',(0.E+000,0.E+000,-2.856));
#258 = DIRECTION('',(0.E+000,0.E+000,1.));
#259 = DIRECTION('',(1.,0.E+000,0.E+000));
#260 = ORIENTED_EDGE('',*,*,#246,.F.);
#261 = ORIENTED_EDGE('',*,*,#74,.T.);
#262 = CYLINDRICAL_SURFACE('',#263,0.36);
#263 = AXIS2_PLACEMENT_3D('',#264,#265,#266);
#264 = CARTESIAN_POINT('',(0.E+000,0.E+000,7.78));
#265 = DIRECTION('',(0.E+000,0.E+000,1.));
#266 = DIRECTION('',(1.,0.E+000,0.E+000));
#267 = ADVANCED_FACE('',(#268),#271,.T.);
#268 = FACE_BOUND('',#269,.T.);
#269 = EDGE_LOOP('',(#270));
#270 = ORIENTED_EDGE('',*,*,#152,.T.);
#271 = PLANE('',#272);
#272 = AXIS2_PLACEMENT_3D('',#273,#274,#275);
#273 = CARTESIAN_POINT('',(3.75,-4.65,7.78));
#274 = DIRECTION('',(1.09450004193E-033,-1.,7.66150029351E-033));
#275 = DIRECTION('',(0.E+000,-7.66150029351E-033,-1.));
#276 = ADVANCED_FACE('',(#277),#297,.T.);
#277 = FACE_BOUND('',#278,.T.);
#278 = EDGE_LOOP('',(#279,#280,#288,#295,#296));
#279 = ORIENTED_EDGE('',*,*,#162,.F.);
#280 = ORIENTED_EDGE('',*,*,#281,.T.);
#281 = EDGE_CURVE('',#163,#282,#284,.T.);
#282 = VERTEX_POINT('',#283);
#283 = CARTESIAN_POINT('',(7.86,-3.,-2.856));
#284 = LINE('',#285,#286);
#285 = CARTESIAN_POINT('',(7.86,-3.,7.78));
#286 = VECTOR('',#287,1.);
#287 = DIRECTION('',(-0.E+000,-0.E+000,-1.));
#288 = ORIENTED_EDGE('',*,*,#289,.T.);
#289 = EDGE_CURVE('',#282,#282,#290,.T.);
#290 = CIRCLE('',#291,0.36);
#291 = AXIS2_PLACEMENT_3D('',#292,#293,#294);
#292 = CARTESIAN_POINT('',(7.5,-3.,-2.856));
#293 = DIRECTION('',(0.E+000,0.E+000,1.));
#294 = DIRECTION('',(1.,0.E+000,0.E+000));
#295 = ORIENTED_EDGE('',*,*,#281,.F.);
#296 = ORIENTED_EDGE('',*,*,#181,.F.);
#297 = CYLINDRICAL_SURFACE('',#298,0.36);
#298 = AXIS2_PLACEMENT_3D('',#299,#300,#301);
#299 = CARTESIAN_POINT('',(7.5,-3.,7.78));
#300 = DIRECTION('',(0.E+000,0.E+000,1.));
#301 = DIRECTION('',(1.,0.E+000,0.E+000));
#302 = ADVANCED_FACE('',(#303),#323,.T.);
#303 = FACE_BOUND('',#304,.F.);
#304 = EDGE_LOOP('',(#305,#314,#315,#316));
#305 = ORIENTED_EDGE('',*,*,#306,.F.);
#306 = EDGE_CURVE('',#247,#307,#309,.T.);
#307 = VERTEX_POINT('',#308);
#308 = CARTESIAN_POINT('',(0.216,0.E+000,-3.));
#309 = CIRCLE('',#310,0.144);
#310 = AXIS2_PLACEMENT_3D('',#311,#312,#313);
#311 = CARTESIAN_POINT('',(0.216,0.E+000,-2.856));
#312 = DIRECTION('',(-0.E+000,1.,0.E+000));
#313 = DIRECTION('',(1.,0.E+000,0.E+000));
#314 = ORIENTED_EDGE('',*,*,#254,.T.);
#315 = ORIENTED_EDGE('',*,*,#306,.T.);
#316 = ORIENTED_EDGE('',*,*,#317,.F.);
#317 = EDGE_CURVE('',#307,#307,#318,.T.);
#318 = CIRCLE('',#319,0.216);
#319 = AXIS2_PLACEMENT_3D('',#320,#321,#322);
#320 = CARTESIAN_POINT('',(0.E+000,0.E+000,-3.));
#321 = DIRECTION('',(0.E+000,0.E+000,1.));
#322 = DIRECTION('',(1.,0.E+000,0.E+000));
#323 = TOROIDAL_SURFACE('',#324,0.216,0.144);
#324 = AXIS2_PLACEMENT_3D('',#325,#326,#327);
#325 = CARTESIAN_POINT('',(0.E+000,0.E+000,-2.856));
#326 = DIRECTION('',(-0.E+000,-0.E+000,-1.));
#327 = DIRECTION('',(1.,0.E+000,0.E+000));
#328 = ADVANCED_FACE('',(#329),#349,.T.);
#329 = FACE_BOUND('',#330,.F.);
#330 = EDGE_LOOP('',(#331,#340,#341,#342));
#331 = ORIENTED_EDGE('',*,*,#332,.F.);
#332 = EDGE_CURVE('',#282,#333,#335,.T.);
#333 = VERTEX_POINT('',#334);
#334 = CARTESIAN_POINT('',(7.716,-3.,-3.));
#335 = CIRCLE('',#336,0.144);
#336 = AXIS2_PLACEMENT_3D('',#337,#338,#339);
#337 = CARTESIAN_POINT('',(7.716,-3.,-2.856));
#338 = DIRECTION('',(-0.E+000,1.,0.E+000));
#339 = DIRECTION('',(1.,0.E+000,0.E+000));
#340 = ORIENTED_EDGE('',*,*,#289,.T.);
#341 = ORIENTED_EDGE('',*,*,#332,.T.);
#342 = ORIENTED_EDGE('',*,*,#343,.F.);
#343 = EDGE_CURVE('',#333,#333,#344,.T.);
#344 = CIRCLE('',#345,0.216);
#345 = AXIS2_PLACEMENT_3D('',#346,#347,#348);
#346 = CARTESIAN_POINT('',(7.5,-3.,-3.));
#347 = DIRECTION('',(0.E+000,0.E+000,1.));
#348 = DIRECTION('',(1.,0.E+000,0.E+000));
#349 = TOROIDAL_SURFACE('',#350,0.216,0.144);
#350 = AXIS2_PLACEMENT_3D('',#351,#352,#353);
#351 = CARTESIAN_POINT('',(7.5,-3.,-2.856));
#352 = DIRECTION('',(-0.E+000,-0.E+000,-1.));
#353 = DIRECTION('',(1.,0.E+000,0.E+000));
#354 = ADVANCED_FACE('',(#355),#358,.F.);
#355 = FACE_BOUND('',#356,.F.);
#356 = EDGE_LOOP('',(#357));
#357 = ORIENTED_EDGE('',*,*,#317,.T.);
#358 = PLANE('',#359);
#359 = AXIS2_PLACEMENT_3D('',#360,#361,#362);
#360 = CARTESIAN_POINT('',(-1.483767504926E-017,1.497958850874E-017,-3.)
);
#361 = DIRECTION('',(0.E+000,0.E+000,1.));
#362 = DIRECTION('',(1.,0.E+000,0.E+000));
#363 = ADVANCED_FACE('',(#364),#367,.F.);
#364 = FACE_BOUND('',#365,.F.);
#365 = EDGE_LOOP('',(#366));
#366 = ORIENTED_EDGE('',*,*,#343,.T.);
#367 = PLANE('',#368);
#368 = AXIS2_PLACEMENT_3D('',#369,#370,#371);
#369 = CARTESIAN_POINT('',(7.5,-3.,-3.));
#370 = DIRECTION('',(0.E+000,0.E+000,1.));
#371 = DIRECTION('',(1.,0.E+000,0.E+000));
#372 = ( GEOMETRIC_REPRESENTATION_CONTEXT(3)
GLOBAL_UNCERTAINTY_ASSIGNED_CONTEXT((#376)) GLOBAL_UNIT_ASSIGNED_CONTEXT
((#373,#374,#375)) REPRESENTATION_CONTEXT('Context #1',
'3D Context with UNIT and UNCERTAINTY') );
#373 = ( LENGTH_UNIT() NAMED_UNIT(*) SI_UNIT(.MILLI.,.METRE.) );
#374 = ( NAMED_UNIT(*) PLANE_ANGLE_UNIT() SI_UNIT($,.RADIAN.) );
#375 = ( NAMED_UNIT(*) SI_UNIT($,.STERADIAN.) SOLID_ANGLE_UNIT() );
#376 = UNCERTAINTY_MEASURE_WITH_UNIT(LENGTH_MEASURE(1.E-007),#373,
'distance_accuracy_value','confusion accuracy');
#377 = PRODUCT_RELATED_PRODUCT_CATEGORY('part',$,(#7));
#378 = MECHANICAL_DESIGN_GEOMETRIC_PRESENTATION_REPRESENTATION('',(#379,
#387,#394,#401,#408,#416,#423,#430,#437,#444,#451),#372);
#379 = STYLED_ITEM('color',(#380),#17);
#380 = PRESENTATION_STYLE_ASSIGNMENT((#381));
#381 = SURFACE_STYLE_USAGE(.BOTH.,#382);
#382 = SURFACE_SIDE_STYLE('',(#383));
#383 = SURFACE_STYLE_FILL_AREA(#384);
#384 = FILL_AREA_STYLE('',(#385));
#385 = FILL_AREA_STYLE_COLOUR('',#386);
#386 = COLOUR_RGB('',0.136999994516,0.402000010014,0.726999998093);
#387 = STYLED_ITEM('color',(#388),#50);
#388 = PRESENTATION_STYLE_ASSIGNMENT((#389));
#389 = SURFACE_STYLE_USAGE(.BOTH.,#390);
#390 = SURFACE_SIDE_STYLE('',(#391));
#391 = SURFACE_STYLE_FILL_AREA(#392);
#392 = FILL_AREA_STYLE('',(#393));
#393 = FILL_AREA_STYLE_COLOUR('',#386);
#394 = STYLED_ITEM('color',(#395),#138);
#395 = PRESENTATION_STYLE_ASSIGNMENT((#396));
#396 = SURFACE_STYLE_USAGE(.BOTH.,#397);
#397 = SURFACE_SIDE_STYLE('',(#398));
#398 = SURFACE_STYLE_FILL_AREA(#399);
#399 = FILL_AREA_STYLE('',(#400));
#400 = FILL_AREA_STYLE_COLOUR('',#386);
#401 = STYLED_ITEM('color',(#402),#232);
#402 = PRESENTATION_STYLE_ASSIGNMENT((#403));
#403 = SURFACE_STYLE_USAGE(.BOTH.,#404);
#404 = SURFACE_SIDE_STYLE('',(#405));
#405 = SURFACE_STYLE_FILL_AREA(#406);
#406 = FILL_AREA_STYLE('',(#407));
#407 = FILL_AREA_STYLE_COLOUR('',#386);
#408 = STYLED_ITEM('color',(#409),#241);
#409 = PRESENTATION_STYLE_ASSIGNMENT((#410));
#410 = SURFACE_STYLE_USAGE(.BOTH.,#411);
#411 = SURFACE_SIDE_STYLE('',(#412));
#412 = SURFACE_STYLE_FILL_AREA(#413);
#413 = FILL_AREA_STYLE('',(#414));
#414 = FILL_AREA_STYLE_COLOUR('',#415);
#415 = COLOUR_RGB('',0.824000000954,0.819999992847,0.78100001812);
#416 = STYLED_ITEM('color',(#417),#267);
#417 = PRESENTATION_STYLE_ASSIGNMENT((#418));
#418 = SURFACE_STYLE_USAGE(.BOTH.,#419);
#419 = SURFACE_SIDE_STYLE('',(#420));
#420 = SURFACE_STYLE_FILL_AREA(#421);
#421 = FILL_AREA_STYLE('',(#422));
#422 = FILL_AREA_STYLE_COLOUR('',#386);
#423 = STYLED_ITEM('color',(#424),#276);
#424 = PRESENTATION_STYLE_ASSIGNMENT((#425));
#425 = SURFACE_STYLE_USAGE(.BOTH.,#426);
#426 = SURFACE_SIDE_STYLE('',(#427));
#427 = SURFACE_STYLE_FILL_AREA(#428);
#428 = FILL_AREA_STYLE('',(#429));
#429 = FILL_AREA_STYLE_COLOUR('',#415);
#430 = STYLED_ITEM('color',(#431),#302);
#431 = PRESENTATION_STYLE_ASSIGNMENT((#432));
#432 = SURFACE_STYLE_USAGE(.BOTH.,#433);
#433 = SURFACE_SIDE_STYLE('',(#434));
#434 = SURFACE_STYLE_FILL_AREA(#435);
#435 = FILL_AREA_STYLE('',(#436));
#436 = FILL_AREA_STYLE_COLOUR('',#415);
#437 = STYLED_ITEM('color',(#438),#328);
#438 = PRESENTATION_STYLE_ASSIGNMENT((#439));
#439 = SURFACE_STYLE_USAGE(.BOTH.,#440);
#440 = SURFACE_SIDE_STYLE('',(#441));
#441 = SURFACE_STYLE_FILL_AREA(#442);
#442 = FILL_AREA_STYLE('',(#443));
#443 = FILL_AREA_STYLE_COLOUR('',#415);
#444 = STYLED_ITEM('color',(#445),#354);
#445 = PRESENTATION_STYLE_ASSIGNMENT((#446));
#446 = SURFACE_STYLE_USAGE(.BOTH.,#447);
#447 = SURFACE_SIDE_STYLE('',(#448));
#448 = SURFACE_STYLE_FILL_AREA(#449);
#449 = FILL_AREA_STYLE('',(#450));
#450 = FILL_AREA_STYLE_COLOUR('',#415);
#451 = STYLED_ITEM('color',(#452),#363);
#452 = PRESENTATION_STYLE_ASSIGNMENT((#453));
#453 = SURFACE_STYLE_USAGE(.BOTH.,#454);
#454 = SURFACE_SIDE_STYLE('',(#455));
#455 = SURFACE_STYLE_FILL_AREA(#456);
#456 = FILL_AREA_STYLE('',(#457));
#457 = FILL_AREA_STYLE_COLOUR('',#415);
ENDSEC;
END-ISO-10303-21;
