ISO-10303-21;
HEADER;
FILE_DESCRIPTION(('FreeCAD Model'),'2;1');
FILE_NAME(
'D:/KiCAD/packages3D-source/Diode_THT.3dshapes\\
D_T-1_P2.54mm_Vertical_KathodeUp.step','2017-11-24T18:04:55',(
    'kicad StepUp'),('ksu MCAD'),'Open CASCADE STEP processor 7.1',
  'FreeCAD','Unknown');
FILE_SCHEMA(('AUTOMOTIVE_DESIGN { 1 0 10303 214 1 1 1 1 }'));
ENDSEC;
DATA;
#1 = APPLICATION_PROTOCOL_DEFINITION('international standard',
  'automotive_design',2000,#2);
#2 = APPLICATION_CONTEXT(
  'core data for automotive mechanical design processes');
#3 = SHAPE_DEFINITION_REPRESENTATION(#4,#10);
#4 = PRODUCT_DEFINITION_SHAPE('','',#5);
#5 = PRODUCT_DEFINITION('design','',#6,#9);
#6 = PRODUCT_DEFINITION_FORMATION('','',#7);
#7 = PRODUCT('D_T-1_P2.54mm_Vertical_KathodeUp',
  'D_T-1_P2.54mm_Vertical_KathodeUp','',(#8));
#8 = PRODUCT_CONTEXT('',#2,'mechanical');
#9 = PRODUCT_DEFINITION_CONTEXT('part definition',#2,'design');
#10 = ADVANCED_BREP_SHAPE_REPRESENTATION('',(#11,#15),#402);
#11 = AXIS2_PLACEMENT_3D('',#12,#13,#14);
#12 = CARTESIAN_POINT('',(0.E+000,0.E+000,0.E+000));
#13 = DIRECTION('',(0.E+000,0.E+000,1.));
#14 = DIRECTION('',(1.,0.E+000,-0.E+000));
#15 = MANIFOLD_SOLID_BREP('',#16);
#16 = CLOSED_SHELL('',(#17,#50,#59,#85,#110,#136,#161,#181,#207,#232,
    #252,#277,#297,#322,#348,#368,#393));
#17 = ADVANCED_FACE('',(#18),#45,.T.);
#18 = FACE_BOUND('',#19,.T.);
#19 = EDGE_LOOP('',(#20,#30,#37,#38));
#20 = ORIENTED_EDGE('',*,*,#21,.T.);
#21 = EDGE_CURVE('',#22,#24,#26,.T.);
#22 = VERTEX_POINT('',#23);
#23 = CARTESIAN_POINT('',(0.35,-7.518590907154E-016,-3.));
#24 = VERTEX_POINT('',#25);
#25 = CARTESIAN_POINT('',(0.35,9.325873406851E-016,4.2));
#26 = LINE('',#27,#28);
#27 = CARTESIAN_POINT('',(0.35,-6.661338147751E-016,-3.));
#28 = VECTOR('',#29,1.);
#29 = DIRECTION('',(0.E+000,2.22044604925E-016,1.));
#30 = ORIENTED_EDGE('',*,*,#31,.F.);
#31 = EDGE_CURVE('',#24,#24,#32,.T.);
#32 = CIRCLE('',#33,0.35);
#33 = AXIS2_PLACEMENT_3D('',#34,#35,#36);
#34 = CARTESIAN_POINT('',(0.E+000,9.325873406851E-016,4.2));
#35 = DIRECTION('',(-0.E+000,2.22044604925E-016,1.));
#36 = DIRECTION('',(1.,0.E+000,0.E+000));
#37 = ORIENTED_EDGE('',*,*,#21,.F.);
#38 = ORIENTED_EDGE('',*,*,#39,.T.);
#39 = EDGE_CURVE('',#22,#22,#40,.T.);
#40 = CIRCLE('',#41,0.35);
#41 = AXIS2_PLACEMENT_3D('',#42,#43,#44);
#42 = CARTESIAN_POINT('',(0.E+000,-6.661338147751E-016,-3.));
#43 = DIRECTION('',(-0.E+000,2.22044604925E-016,1.));
#44 = DIRECTION('',(1.,0.E+000,0.E+000));
#45 = CYLINDRICAL_SURFACE('',#46,0.35);
#46 = AXIS2_PLACEMENT_3D('',#47,#48,#49);
#47 = CARTESIAN_POINT('',(0.E+000,-6.661338147751E-016,-3.));
#48 = DIRECTION('',(0.E+000,2.22044604925E-016,1.));
#49 = DIRECTION('',(1.,0.E+000,0.E+000));
#50 = ADVANCED_FACE('',(#51),#54,.T.);
#51 = FACE_BOUND('',#52,.F.);
#52 = EDGE_LOOP('',(#53));
#53 = ORIENTED_EDGE('',*,*,#39,.T.);
#54 = PLANE('',#55);
#55 = AXIS2_PLACEMENT_3D('',#56,#57,#58);
#56 = CARTESIAN_POINT('',(0.35,-6.661338147751E-016,-3.));
#57 = DIRECTION('',(0.E+000,0.E+000,-1.));
#58 = DIRECTION('',(-1.,0.E+000,0.E+000));
#59 = ADVANCED_FACE('',(#60),#80,.T.);
#60 = FACE_BOUND('',#61,.T.);
#61 = EDGE_LOOP('',(#62,#71,#78,#79));
#62 = ORIENTED_EDGE('',*,*,#63,.T.);
#63 = EDGE_CURVE('',#24,#64,#66,.T.);
#64 = VERTEX_POINT('',#65);
#65 = CARTESIAN_POINT('',(0.7,1.010302952409E-015,4.55));
#66 = CIRCLE('',#67,0.35);
#67 = AXIS2_PLACEMENT_3D('',#68,#69,#70);
#68 = CARTESIAN_POINT('',(0.7,1.061175254596E-015,4.2));
#69 = DIRECTION('',(0.E+000,1.,-2.22044604925E-016));
#70 = DIRECTION('',(1.,0.E+000,0.E+000));
#71 = ORIENTED_EDGE('',*,*,#72,.T.);
#72 = EDGE_CURVE('',#64,#64,#73,.T.);
#73 = CIRCLE('',#74,0.35);
#74 = AXIS2_PLACEMENT_3D('',#75,#76,#77);
#75 = CARTESIAN_POINT('',(0.7,1.088018564133E-015,4.9));
#76 = DIRECTION('',(-1.,-4.078893220341E-032,-1.836970198721E-016));
#77 = DIRECTION('',(-1.836970198721E-016,2.22044604925E-016,1.));
#78 = ORIENTED_EDGE('',*,*,#63,.F.);
#79 = ORIENTED_EDGE('',*,*,#31,.T.);
#80 = TOROIDAL_SURFACE('',#81,0.7,0.35);
#81 = AXIS2_PLACEMENT_3D('',#82,#83,#84);
#82 = CARTESIAN_POINT('',(0.7,9.325873406851E-016,4.2));
#83 = DIRECTION('',(0.E+000,1.,-2.22044604925E-016));
#84 = DIRECTION('',(1.,0.E+000,0.E+000));
#85 = ADVANCED_FACE('',(#86),#105,.T.);
#86 = FACE_BOUND('',#87,.T.);
#87 = EDGE_LOOP('',(#88,#96,#103,#104));
#88 = ORIENTED_EDGE('',*,*,#89,.T.);
#89 = EDGE_CURVE('',#64,#90,#92,.T.);
#90 = VERTEX_POINT('',#91);
#91 = CARTESIAN_POINT('',(1.84,1.010302952409E-015,4.55));
#92 = LINE('',#93,#94);
#93 = CARTESIAN_POINT('',(0.7,1.010302952409E-015,4.55));
#94 = VECTOR('',#95,1.);
#95 = DIRECTION('',(1.,0.E+000,0.E+000));
#96 = ORIENTED_EDGE('',*,*,#97,.F.);
#97 = EDGE_CURVE('',#90,#90,#98,.T.);
#98 = CIRCLE('',#99,0.35);
#99 = AXIS2_PLACEMENT_3D('',#100,#101,#102);
#100 = CARTESIAN_POINT('',(1.84,1.088018564133E-015,4.9));
#101 = DIRECTION('',(1.,0.E+000,0.E+000));
#102 = DIRECTION('',(0.E+000,-2.22044604925E-016,-1.));
#103 = ORIENTED_EDGE('',*,*,#89,.F.);
#104 = ORIENTED_EDGE('',*,*,#72,.F.);
#105 = CYLINDRICAL_SURFACE('',#106,0.35);
#106 = AXIS2_PLACEMENT_3D('',#107,#108,#109);
#107 = CARTESIAN_POINT('',(0.7,1.088018564133E-015,4.9));
#108 = DIRECTION('',(1.,0.E+000,0.E+000));
#109 = DIRECTION('',(0.E+000,-2.22044604925E-016,-1.));
#110 = ADVANCED_FACE('',(#111),#131,.T.);
#111 = FACE_BOUND('',#112,.T.);
#112 = EDGE_LOOP('',(#113,#122,#129,#130));
#113 = ORIENTED_EDGE('',*,*,#114,.T.);
#114 = EDGE_CURVE('',#90,#115,#117,.T.);
#115 = VERTEX_POINT('',#116);
#116 = CARTESIAN_POINT('',(2.19,9.325873406851E-016,4.2));
#117 = CIRCLE('',#118,0.35);
#118 = AXIS2_PLACEMENT_3D('',#119,#120,#121);
#119 = CARTESIAN_POINT('',(1.84,1.061175254596E-015,4.2));
#120 = DIRECTION('',(0.E+000,1.,-2.22044604925E-016));
#121 = DIRECTION('',(1.,0.E+000,0.E+000));
#122 = ORIENTED_EDGE('',*,*,#123,.T.);
#123 = EDGE_CURVE('',#115,#115,#124,.T.);
#124 = CIRCLE('',#125,0.35);
#125 = AXIS2_PLACEMENT_3D('',#126,#127,#128);
#126 = CARTESIAN_POINT('',(2.54,9.325873406851E-016,4.2));
#127 = DIRECTION('',(-2.449293598295E-016,2.22044604925E-016,1.));
#128 = DIRECTION('',(1.,5.438524293788E-032,2.449293598295E-016));
#129 = ORIENTED_EDGE('',*,*,#114,.F.);
#130 = ORIENTED_EDGE('',*,*,#97,.T.);
#131 = TOROIDAL_SURFACE('',#132,0.7,0.35);
#132 = AXIS2_PLACEMENT_3D('',#133,#134,#135);
#133 = CARTESIAN_POINT('',(1.84,9.325873406851E-016,4.2));
#134 = DIRECTION('',(0.E+000,1.,-2.22044604925E-016));
#135 = DIRECTION('',(1.,0.E+000,0.E+000));
#136 = ADVANCED_FACE('',(#137),#156,.T.);
#137 = FACE_BOUND('',#138,.T.);
#138 = EDGE_LOOP('',(#139,#140,#148,#155));
#139 = ORIENTED_EDGE('',*,*,#123,.F.);
#140 = ORIENTED_EDGE('',*,*,#141,.T.);
#141 = EDGE_CURVE('',#115,#142,#144,.T.);
#142 = VERTEX_POINT('',#143);
#143 = CARTESIAN_POINT('',(2.19,8.215650382226E-016,3.7));
#144 = LINE('',#145,#146);
#145 = CARTESIAN_POINT('',(2.19,-6.661338147751E-016,-3.));
#146 = VECTOR('',#147,1.);
#147 = DIRECTION('',(0.E+000,-2.22044604925E-016,-1.));
#148 = ORIENTED_EDGE('',*,*,#149,.F.);
#149 = EDGE_CURVE('',#142,#142,#150,.T.);
#150 = CIRCLE('',#151,0.35);
#151 = AXIS2_PLACEMENT_3D('',#152,#153,#154);
#152 = CARTESIAN_POINT('',(2.54,8.215650382226E-016,3.7));
#153 = DIRECTION('',(0.E+000,-2.22044604925E-016,-1.));
#154 = DIRECTION('',(-1.,5.473822126269E-048,-1.215432671457E-063));
#155 = ORIENTED_EDGE('',*,*,#141,.F.);
#156 = CYLINDRICAL_SURFACE('',#157,0.35);
#157 = AXIS2_PLACEMENT_3D('',#158,#159,#160);
#158 = CARTESIAN_POINT('',(2.54,-6.661338147751E-016,-3.));
#159 = DIRECTION('',(0.E+000,-2.22044604925E-016,-1.));
#160 = DIRECTION('',(-1.,5.473822126269E-048,-1.215432671457E-063));
#161 = ADVANCED_FACE('',(#162,#173),#176,.F.);
#162 = FACE_BOUND('',#163,.T.);
#163 = EDGE_LOOP('',(#164));
#164 = ORIENTED_EDGE('',*,*,#165,.F.);
#165 = EDGE_CURVE('',#166,#166,#168,.T.);
#166 = VERTEX_POINT('',#167);
#167 = CARTESIAN_POINT('',(3.58,2.300382107023E-015,3.7));
#168 = CIRCLE('',#169,1.04);
#169 = AXIS2_PLACEMENT_3D('',#170,#171,#172);
#170 = CARTESIAN_POINT('',(2.54,1.643130076445E-015,3.7));
#171 = DIRECTION('',(0.E+000,-4.440892098501E-016,-1.));
#172 = DIRECTION('',(1.,6.319731063251E-016,-2.806524374344E-031));
#173 = FACE_BOUND('',#174,.T.);
#174 = EDGE_LOOP('',(#175));
#175 = ORIENTED_EDGE('',*,*,#149,.T.);
#176 = PLANE('',#177);
#177 = AXIS2_PLACEMENT_3D('',#178,#179,#180);
#178 = CARTESIAN_POINT('',(2.54,1.643130076445E-015,3.7));
#179 = DIRECTION('',(0.E+000,-4.440892098501E-016,-1.));
#180 = DIRECTION('',(1.,6.319731063251E-016,-2.806524374344E-031));
#181 = ADVANCED_FACE('',(#182),#202,.T.);
#182 = FACE_BOUND('',#183,.T.);
#183 = EDGE_LOOP('',(#184,#193,#194,#195));
#184 = ORIENTED_EDGE('',*,*,#185,.F.);
#185 = EDGE_CURVE('',#166,#186,#188,.T.);
#186 = VERTEX_POINT('',#187);
#187 = CARTESIAN_POINT('',(3.84,2.349231920107E-015,3.44));
#188 = CIRCLE('',#189,0.26);
#189 = AXIS2_PLACEMENT_3D('',#190,#191,#192);
#190 = CARTESIAN_POINT('',(3.58,2.184918912462E-015,3.44));
#191 = DIRECTION('',(-6.319731063251E-016,1.,-4.440892098501E-016));
#192 = DIRECTION('',(1.,6.319731063251E-016,-2.806524374344E-031));
#193 = ORIENTED_EDGE('',*,*,#165,.T.);
#194 = ORIENTED_EDGE('',*,*,#185,.T.);
#195 = ORIENTED_EDGE('',*,*,#196,.F.);
#196 = EDGE_CURVE('',#186,#186,#197,.T.);
#197 = CIRCLE('',#198,1.3);
#198 = AXIS2_PLACEMENT_3D('',#199,#200,#201);
#199 = CARTESIAN_POINT('',(2.54,1.527666881884E-015,3.44));
#200 = DIRECTION('',(0.E+000,-4.440892098501E-016,-1.));
#201 = DIRECTION('',(1.,6.319731063251E-016,-2.806524374344E-031));
#202 = TOROIDAL_SURFACE('',#203,1.04,0.26);
#203 = AXIS2_PLACEMENT_3D('',#204,#205,#206);
#204 = CARTESIAN_POINT('',(2.54,1.527666881884E-015,3.44));
#205 = DIRECTION('',(0.E+000,-4.440892098501E-016,-1.));
#206 = DIRECTION('',(1.,6.319731063251E-016,-2.806524374344E-031));
#207 = ADVANCED_FACE('',(#208),#227,.T.);
#208 = FACE_BOUND('',#209,.T.);
#209 = EDGE_LOOP('',(#210,#211,#219,#226));
#210 = ORIENTED_EDGE('',*,*,#196,.T.);
#211 = ORIENTED_EDGE('',*,*,#212,.T.);
#212 = EDGE_CURVE('',#186,#213,#215,.T.);
#213 = VERTEX_POINT('',#214);
#214 = CARTESIAN_POINT('',(3.84,2.144950883576E-015,3.22));
#215 = LINE('',#216,#217);
#216 = CARTESIAN_POINT('',(3.84,2.464695114668E-015,3.7));
#217 = VECTOR('',#218,1.);
#218 = DIRECTION('',(0.E+000,-6.661338147751E-016,-1.));
#219 = ORIENTED_EDGE('',*,*,#220,.F.);
#220 = EDGE_CURVE('',#213,#213,#221,.T.);
#221 = CIRCLE('',#222,1.3);
#222 = AXIS2_PLACEMENT_3D('',#223,#224,#225);
#223 = CARTESIAN_POINT('',(2.54,1.429967255717E-015,3.22));
#224 = DIRECTION('',(0.E+000,-4.440892098501E-016,-1.));
#225 = DIRECTION('',(1.,6.319731063251E-016,-2.806524374344E-031));
#226 = ORIENTED_EDGE('',*,*,#212,.F.);
#227 = CYLINDRICAL_SURFACE('',#228,1.3);
#228 = AXIS2_PLACEMENT_3D('',#229,#230,#231);
#229 = CARTESIAN_POINT('',(2.54,1.643130076445E-015,3.7));
#230 = DIRECTION('',(0.E+000,-4.440892098501E-016,-1.));
#231 = DIRECTION('',(1.,6.319731063251E-016,-2.806524374344E-031));
#232 = ADVANCED_FACE('',(#233,#244),#247,.F.);
#233 = FACE_BOUND('',#234,.T.);
#234 = EDGE_LOOP('',(#235));
#235 = ORIENTED_EDGE('',*,*,#236,.F.);
#236 = EDGE_CURVE('',#237,#237,#239,.T.);
#237 = VERTEX_POINT('',#238);
#238 = CARTESIAN_POINT('',(3.85,2.144950883576E-015,3.22));
#239 = CIRCLE('',#240,1.31);
#240 = AXIS2_PLACEMENT_3D('',#241,#242,#243);
#241 = CARTESIAN_POINT('',(2.54,1.429967255717E-015,3.22));
#242 = DIRECTION('',(0.E+000,-4.440892098501E-016,-1.));
#243 = DIRECTION('',(1.,5.457890288997E-016,-2.423790185889E-031));
#244 = FACE_BOUND('',#245,.T.);
#245 = EDGE_LOOP('',(#246));
#246 = ORIENTED_EDGE('',*,*,#220,.T.);
#247 = PLANE('',#248);
#248 = AXIS2_PLACEMENT_3D('',#249,#250,#251);
#249 = CARTESIAN_POINT('',(2.54,1.429967255717E-015,3.22));
#250 = DIRECTION('',(0.E+000,-4.440892098501E-016,-1.));
#251 = DIRECTION('',(1.,5.54250874309E-016,-2.461368328306E-031));
#252 = ADVANCED_FACE('',(#253),#272,.T.);
#253 = FACE_BOUND('',#254,.T.);
#254 = EDGE_LOOP('',(#255,#256,#264,#271));
#255 = ORIENTED_EDGE('',*,*,#236,.T.);
#256 = ORIENTED_EDGE('',*,*,#257,.T.);
#257 = EDGE_CURVE('',#237,#258,#260,.T.);
#258 = VERTEX_POINT('',#259);
#259 = CARTESIAN_POINT('',(3.85,1.612043831756E-015,2.42));
#260 = LINE('',#261,#262);
#261 = CARTESIAN_POINT('',(3.85,2.144950883576E-015,3.22));
#262 = VECTOR('',#263,1.);
#263 = DIRECTION('',(0.E+000,-6.661338147751E-016,-1.));
#264 = ORIENTED_EDGE('',*,*,#265,.F.);
#265 = EDGE_CURVE('',#258,#258,#266,.T.);
#266 = CIRCLE('',#267,1.31);
#267 = AXIS2_PLACEMENT_3D('',#268,#269,#270);
#268 = CARTESIAN_POINT('',(2.54,1.074695887837E-015,2.42));
#269 = DIRECTION('',(0.E+000,-4.440892098501E-016,-1.));
#270 = DIRECTION('',(1.,4.101892701669E-016,-1.821606288774E-031));
#271 = ORIENTED_EDGE('',*,*,#257,.F.);
#272 = CYLINDRICAL_SURFACE('',#273,1.31);
#273 = AXIS2_PLACEMENT_3D('',#274,#275,#276);
#274 = CARTESIAN_POINT('',(2.54,1.429967255717E-015,3.22));
#275 = DIRECTION('',(0.E+000,-4.440892098501E-016,-1.));
#276 = DIRECTION('',(1.,5.457890288997E-016,-2.423790185889E-031));
#277 = ADVANCED_FACE('',(#278,#281),#292,.T.);
#278 = FACE_BOUND('',#279,.F.);
#279 = EDGE_LOOP('',(#280));
#280 = ORIENTED_EDGE('',*,*,#265,.F.);
#281 = FACE_BOUND('',#282,.F.);
#282 = EDGE_LOOP('',(#283));
#283 = ORIENTED_EDGE('',*,*,#284,.T.);
#284 = EDGE_CURVE('',#285,#285,#287,.T.);
#285 = VERTEX_POINT('',#286);
#286 = CARTESIAN_POINT('',(3.84,1.612043831756E-015,2.42));
#287 = CIRCLE('',#288,1.3);
#288 = AXIS2_PLACEMENT_3D('',#289,#290,#291);
#289 = CARTESIAN_POINT('',(2.54,1.074695887837E-015,2.42));
#290 = DIRECTION('',(0.E+000,-4.440892098501E-016,-1.));
#291 = DIRECTION('',(1.,6.319731063251E-016,-2.806524374344E-031));
#292 = PLANE('',#293);
#293 = AXIS2_PLACEMENT_3D('',#294,#295,#296);
#294 = CARTESIAN_POINT('',(2.54,1.074695887837E-015,2.42));
#295 = DIRECTION('',(0.E+000,-4.440892098501E-016,-1.));
#296 = DIRECTION('',(1.,4.165487937353E-016,-1.849848246739E-031));
#297 = ADVANCED_FACE('',(#298),#317,.T.);
#298 = FACE_BOUND('',#299,.T.);
#299 = EDGE_LOOP('',(#300,#301,#309,#316));
#300 = ORIENTED_EDGE('',*,*,#284,.T.);
#301 = ORIENTED_EDGE('',*,*,#302,.T.);
#302 = EDGE_CURVE('',#285,#303,#305,.T.);
#303 = VERTEX_POINT('',#304);
#304 = CARTESIAN_POINT('',(3.84,4.485301019486E-016,0.76));
#305 = LINE('',#306,#307);
#306 = CARTESIAN_POINT('',(3.84,2.464695114668E-015,3.7));
#307 = VECTOR('',#308,1.);
#308 = DIRECTION('',(0.E+000,-6.661338147751E-016,-1.));
#309 = ORIENTED_EDGE('',*,*,#310,.F.);
#310 = EDGE_CURVE('',#303,#303,#311,.T.);
#311 = CIRCLE('',#312,1.3);
#312 = AXIS2_PLACEMENT_3D('',#313,#314,#315);
#313 = CARTESIAN_POINT('',(2.54,3.37507799486E-016,0.76));
#314 = DIRECTION('',(0.E+000,-4.440892098501E-016,-1.));
#315 = DIRECTION('',(1.,8.540177112501E-017,-3.79260050587E-032));
#316 = ORIENTED_EDGE('',*,*,#302,.F.);
#317 = CYLINDRICAL_SURFACE('',#318,1.3);
#318 = AXIS2_PLACEMENT_3D('',#319,#320,#321);
#319 = CARTESIAN_POINT('',(2.54,1.643130076445E-015,3.7));
#320 = DIRECTION('',(0.E+000,-4.440892098501E-016,-1.));
#321 = DIRECTION('',(1.,6.319731063251E-016,-2.806524374344E-031));
#322 = ADVANCED_FACE('',(#323),#343,.T.);
#323 = FACE_BOUND('',#324,.T.);
#324 = EDGE_LOOP('',(#325,#334,#335,#336));
#325 = ORIENTED_EDGE('',*,*,#326,.F.);
#326 = EDGE_CURVE('',#303,#327,#329,.T.);
#327 = VERTEX_POINT('',#328);
#328 = CARTESIAN_POINT('',(3.58,3.10862446895E-016,0.5));
#329 = CIRCLE('',#330,0.26);
#330 = AXIS2_PLACEMENT_3D('',#331,#332,#333);
#331 = CARTESIAN_POINT('',(3.58,9.947598300641E-016,0.76));
#332 = DIRECTION('',(-6.319731063251E-016,1.,-4.440892098501E-016));
#333 = DIRECTION('',(1.,6.319731063251E-016,-2.806524374344E-031));
#334 = ORIENTED_EDGE('',*,*,#310,.T.);
#335 = ORIENTED_EDGE('',*,*,#326,.T.);
#336 = ORIENTED_EDGE('',*,*,#337,.F.);
#337 = EDGE_CURVE('',#327,#327,#338,.T.);
#338 = CIRCLE('',#339,1.04);
#339 = AXIS2_PLACEMENT_3D('',#340,#341,#342);
#340 = CARTESIAN_POINT('',(2.54,2.22044604925E-016,0.5));
#341 = DIRECTION('',(0.E+000,-4.440892098501E-016,-1.));
#342 = DIRECTION('',(1.,8.540177112501E-017,-3.79260050587E-032));
#343 = TOROIDAL_SURFACE('',#344,1.04,0.26);
#344 = AXIS2_PLACEMENT_3D('',#345,#346,#347);
#345 = CARTESIAN_POINT('',(2.54,3.37507799486E-016,0.76));
#346 = DIRECTION('',(0.E+000,-4.440892098501E-016,-1.));
#347 = DIRECTION('',(1.,8.540177112501E-017,-3.79260050587E-032));
#348 = ADVANCED_FACE('',(#349,#352),#363,.T.);
#349 = FACE_BOUND('',#350,.T.);
#350 = EDGE_LOOP('',(#351));
#351 = ORIENTED_EDGE('',*,*,#337,.T.);
#352 = FACE_BOUND('',#353,.T.);
#353 = EDGE_LOOP('',(#354));
#354 = ORIENTED_EDGE('',*,*,#355,.F.);
#355 = EDGE_CURVE('',#356,#356,#358,.T.);
#356 = VERTEX_POINT('',#357);
#357 = CARTESIAN_POINT('',(2.19,1.110223024625E-016,0.5));
#358 = CIRCLE('',#359,0.35);
#359 = AXIS2_PLACEMENT_3D('',#360,#361,#362);
#360 = CARTESIAN_POINT('',(2.54,1.110223024625E-016,0.5));
#361 = DIRECTION('',(0.E+000,-2.22044604925E-016,-1.));
#362 = DIRECTION('',(-1.,5.473822126269E-048,-1.215432671457E-063));
#363 = PLANE('',#364);
#364 = AXIS2_PLACEMENT_3D('',#365,#366,#367);
#365 = CARTESIAN_POINT('',(2.54,2.22044604925E-016,0.5));
#366 = DIRECTION('',(0.E+000,-4.440892098501E-016,-1.));
#367 = DIRECTION('',(1.,8.540177112501E-017,-3.79260050587E-032));
#368 = ADVANCED_FACE('',(#369),#388,.T.);
#369 = FACE_BOUND('',#370,.T.);
#370 = EDGE_LOOP('',(#371,#372,#380,#387));
#371 = ORIENTED_EDGE('',*,*,#355,.T.);
#372 = ORIENTED_EDGE('',*,*,#373,.T.);
#373 = EDGE_CURVE('',#356,#374,#376,.T.);
#374 = VERTEX_POINT('',#375);
#375 = CARTESIAN_POINT('',(2.19,-7.518590907154E-016,-3.));
#376 = LINE('',#377,#378);
#377 = CARTESIAN_POINT('',(2.19,-6.661338147751E-016,-3.));
#378 = VECTOR('',#379,1.);
#379 = DIRECTION('',(0.E+000,-2.22044604925E-016,-1.));
#380 = ORIENTED_EDGE('',*,*,#381,.F.);
#381 = EDGE_CURVE('',#374,#374,#382,.T.);
#382 = CIRCLE('',#383,0.35);
#383 = AXIS2_PLACEMENT_3D('',#384,#385,#386);
#384 = CARTESIAN_POINT('',(2.54,-6.661338147751E-016,-3.));
#385 = DIRECTION('',(0.E+000,-2.22044604925E-016,-1.));
#386 = DIRECTION('',(-1.,5.473822126269E-048,-1.215432671457E-063));
#387 = ORIENTED_EDGE('',*,*,#373,.F.);
#388 = CYLINDRICAL_SURFACE('',#389,0.35);
#389 = AXIS2_PLACEMENT_3D('',#390,#391,#392);
#390 = CARTESIAN_POINT('',(2.54,-6.661338147751E-016,-3.));
#391 = DIRECTION('',(0.E+000,-2.22044604925E-016,-1.));
#392 = DIRECTION('',(-1.,5.473822126269E-048,-1.215432671457E-063));
#393 = ADVANCED_FACE('',(#394),#397,.F.);
#394 = FACE_BOUND('',#395,.T.);
#395 = EDGE_LOOP('',(#396));
#396 = ORIENTED_EDGE('',*,*,#381,.T.);
#397 = PLANE('',#398);
#398 = AXIS2_PLACEMENT_3D('',#399,#400,#401);
#399 = CARTESIAN_POINT('',(2.19,-6.661338147751E-016,-3.));
#400 = DIRECTION('',(0.E+000,0.E+000,1.));
#401 = DIRECTION('',(1.,0.E+000,0.E+000));
#402 = ( GEOMETRIC_REPRESENTATION_CONTEXT(3) 
GLOBAL_UNCERTAINTY_ASSIGNED_CONTEXT((#406)) GLOBAL_UNIT_ASSIGNED_CONTEXT
((#403,#404,#405)) REPRESENTATION_CONTEXT('Context #1',
  '3D Context with UNIT and UNCERTAINTY') );
#403 = ( LENGTH_UNIT() NAMED_UNIT(*) SI_UNIT(.MILLI.,.METRE.) );
#404 = ( NAMED_UNIT(*) PLANE_ANGLE_UNIT() SI_UNIT($,.RADIAN.) );
#405 = ( NAMED_UNIT(*) SI_UNIT($,.STERADIAN.) SOLID_ANGLE_UNIT() );
#406 = UNCERTAINTY_MEASURE_WITH_UNIT(LENGTH_MEASURE(1.E-007),#403,
  'distance_accuracy_value','confusion accuracy');
#407 = PRODUCT_RELATED_PRODUCT_CATEGORY('part',$,(#7));
#408 = MECHANICAL_DESIGN_GEOMETRIC_PRESENTATION_REPRESENTATION('',(#409,
    #417,#424,#431,#438,#445,#452,#460,#467,#474,#482,#489,#496,#503,
    #510,#517,#524),#402);
#409 = STYLED_ITEM('color',(#410),#17);
#410 = PRESENTATION_STYLE_ASSIGNMENT((#411));
#411 = SURFACE_STYLE_USAGE(.BOTH.,#412);
#412 = SURFACE_SIDE_STYLE('',(#413));
#413 = SURFACE_STYLE_FILL_AREA(#414);
#414 = FILL_AREA_STYLE('',(#415));
#415 = FILL_AREA_STYLE_COLOUR('',#416);
#416 = COLOUR_RGB('',0.824000000954,0.819999992847,0.78100001812);
#417 = STYLED_ITEM('color',(#418),#50);
#418 = PRESENTATION_STYLE_ASSIGNMENT((#419));
#419 = SURFACE_STYLE_USAGE(.BOTH.,#420);
#420 = SURFACE_SIDE_STYLE('',(#421));
#421 = SURFACE_STYLE_FILL_AREA(#422);
#422 = FILL_AREA_STYLE('',(#423));
#423 = FILL_AREA_STYLE_COLOUR('',#416);
#424 = STYLED_ITEM('color',(#425),#59);
#425 = PRESENTATION_STYLE_ASSIGNMENT((#426));
#426 = SURFACE_STYLE_USAGE(.BOTH.,#427);
#427 = SURFACE_SIDE_STYLE('',(#428));
#428 = SURFACE_STYLE_FILL_AREA(#429);
#429 = FILL_AREA_STYLE('',(#430));
#430 = FILL_AREA_STYLE_COLOUR('',#416);
#431 = STYLED_ITEM('color',(#432),#85);
#432 = PRESENTATION_STYLE_ASSIGNMENT((#433));
#433 = SURFACE_STYLE_USAGE(.BOTH.,#434);
#434 = SURFACE_SIDE_STYLE('',(#435));
#435 = SURFACE_STYLE_FILL_AREA(#436);
#436 = FILL_AREA_STYLE('',(#437));
#437 = FILL_AREA_STYLE_COLOUR('',#416);
#438 = STYLED_ITEM('color',(#439),#110);
#439 = PRESENTATION_STYLE_ASSIGNMENT((#440));
#440 = SURFACE_STYLE_USAGE(.BOTH.,#441);
#441 = SURFACE_SIDE_STYLE('',(#442));
#442 = SURFACE_STYLE_FILL_AREA(#443);
#443 = FILL_AREA_STYLE('',(#444));
#444 = FILL_AREA_STYLE_COLOUR('',#416);
#445 = STYLED_ITEM('color',(#446),#136);
#446 = PRESENTATION_STYLE_ASSIGNMENT((#447));
#447 = SURFACE_STYLE_USAGE(.BOTH.,#448);
#448 = SURFACE_SIDE_STYLE('',(#449));
#449 = SURFACE_STYLE_FILL_AREA(#450);
#450 = FILL_AREA_STYLE('',(#451));
#451 = FILL_AREA_STYLE_COLOUR('',#416);
#452 = STYLED_ITEM('color',(#453),#161);
#453 = PRESENTATION_STYLE_ASSIGNMENT((#454));
#454 = SURFACE_STYLE_USAGE(.BOTH.,#455);
#455 = SURFACE_SIDE_STYLE('',(#456));
#456 = SURFACE_STYLE_FILL_AREA(#457);
#457 = FILL_AREA_STYLE('',(#458));
#458 = FILL_AREA_STYLE_COLOUR('',#459);
#459 = COLOUR_RGB('',0.E+000,0.631244003773,0.748015999794);
#460 = STYLED_ITEM('color',(#461),#181);
#461 = PRESENTATION_STYLE_ASSIGNMENT((#462));
#462 = SURFACE_STYLE_USAGE(.BOTH.,#463);
#463 = SURFACE_SIDE_STYLE('',(#464));
#464 = SURFACE_STYLE_FILL_AREA(#465);
#465 = FILL_AREA_STYLE('',(#466));
#466 = FILL_AREA_STYLE_COLOUR('',#459);
#467 = STYLED_ITEM('color',(#468),#207);
#468 = PRESENTATION_STYLE_ASSIGNMENT((#469));
#469 = SURFACE_STYLE_USAGE(.BOTH.,#470);
#470 = SURFACE_SIDE_STYLE('',(#471));
#471 = SURFACE_STYLE_FILL_AREA(#472);
#472 = FILL_AREA_STYLE('',(#473));
#473 = FILL_AREA_STYLE_COLOUR('',#459);
#474 = STYLED_ITEM('color',(#475),#232);
#475 = PRESENTATION_STYLE_ASSIGNMENT((#476));
#476 = SURFACE_STYLE_USAGE(.BOTH.,#477);
#477 = SURFACE_SIDE_STYLE('',(#478));
#478 = SURFACE_STYLE_FILL_AREA(#479);
#479 = FILL_AREA_STYLE('',(#480));
#480 = FILL_AREA_STYLE_COLOUR('',#481);
#481 = COLOUR_RGB('',0.699999988079,0.10000000149,5.000000074506E-002);
#482 = STYLED_ITEM('color',(#483),#252);
#483 = PRESENTATION_STYLE_ASSIGNMENT((#484));
#484 = SURFACE_STYLE_USAGE(.BOTH.,#485);
#485 = SURFACE_SIDE_STYLE('',(#486));
#486 = SURFACE_STYLE_FILL_AREA(#487);
#487 = FILL_AREA_STYLE('',(#488));
#488 = FILL_AREA_STYLE_COLOUR('',#481);
#489 = STYLED_ITEM('color',(#490),#277);
#490 = PRESENTATION_STYLE_ASSIGNMENT((#491));
#491 = SURFACE_STYLE_USAGE(.BOTH.,#492);
#492 = SURFACE_SIDE_STYLE('',(#493));
#493 = SURFACE_STYLE_FILL_AREA(#494);
#494 = FILL_AREA_STYLE('',(#495));
#495 = FILL_AREA_STYLE_COLOUR('',#481);
#496 = STYLED_ITEM('color',(#497),#297);
#497 = PRESENTATION_STYLE_ASSIGNMENT((#498));
#498 = SURFACE_STYLE_USAGE(.BOTH.,#499);
#499 = SURFACE_SIDE_STYLE('',(#500));
#500 = SURFACE_STYLE_FILL_AREA(#501);
#501 = FILL_AREA_STYLE('',(#502));
#502 = FILL_AREA_STYLE_COLOUR('',#459);
#503 = STYLED_ITEM('color',(#504),#322);
#504 = PRESENTATION_STYLE_ASSIGNMENT((#505));
#505 = SURFACE_STYLE_USAGE(.BOTH.,#506);
#506 = SURFACE_SIDE_STYLE('',(#507));
#507 = SURFACE_STYLE_FILL_AREA(#508);
#508 = FILL_AREA_STYLE('',(#509));
#509 = FILL_AREA_STYLE_COLOUR('',#459);
#510 = STYLED_ITEM('color',(#511),#348);
#511 = PRESENTATION_STYLE_ASSIGNMENT((#512));
#512 = SURFACE_STYLE_USAGE(.BOTH.,#513);
#513 = SURFACE_SIDE_STYLE('',(#514));
#514 = SURFACE_STYLE_FILL_AREA(#515);
#515 = FILL_AREA_STYLE('',(#516));
#516 = FILL_AREA_STYLE_COLOUR('',#459);
#517 = STYLED_ITEM('color',(#518),#368);
#518 = PRESENTATION_STYLE_ASSIGNMENT((#519));
#519 = SURFACE_STYLE_USAGE(.BOTH.,#520);
#520 = SURFACE_SIDE_STYLE('',(#521));
#521 = SURFACE_STYLE_FILL_AREA(#522);
#522 = FILL_AREA_STYLE('',(#523));
#523 = FILL_AREA_STYLE_COLOUR('',#416);
#524 = STYLED_ITEM('color',(#525),#393);
#525 = PRESENTATION_STYLE_ASSIGNMENT((#526));
#526 = SURFACE_STYLE_USAGE(.BOTH.,#527);
#527 = SURFACE_SIDE_STYLE('',(#528));
#528 = SURFACE_STYLE_FILL_AREA(#529);
#529 = FILL_AREA_STYLE('',(#530));
#530 = FILL_AREA_STYLE_COLOUR('',#416);
ENDSEC;
END-ISO-10303-21;
