ISO-10303-21;
HEADER;
/* Crystal_C38-LF_D3.0mm_L8.0mm_Horizontal.step 3D STEP model for use in ECAD systems
 * Copyright (C) 2019, kicad StepUp
 * 
 * This work is licensed under the [Creative Commons CC-BY-SA 4.0 License](https://creativecommons.org/licenses/by-sa/4.0/legalcode), 
 * with the following exception:
 * To the extent that the creation of electronic designs that use 'Licensed Material' can be considered to be 'Adapted Material', 
 * then the copyright holder waives article 3 of the license with respect to these designs and any generated files which use data provided 
 * as part of the 'Licensed Material'.
 * You are free to use the library data in your own projects without the obligation to share your project files under this or any other license agreement.
 * However, if you wish to redistribute these libraries, or parts thereof (including in modified form) as a collection then the exception above does not apply. 
 * Please refer to https://github.com/KiCad/kicad-packages3D/blob/master/LICENSE.md for further clarification of the exception.
 * Disclaimer of Warranties and Limitation of Liability.
 * These libraries are provided in the hope that they will be useful, but are provided without warranty of any kind, express or implied.
 * *USE 3D CAD DATA AT YOUR OWN RISK*
 * *DO NOT RELY UPON ANY INFORMATION FOUND HERE WITHOUT INDEPENDENT VERIFICATION.*
 * 
 * 
 * 
 * 
 * 
 * 
 * 
 * 
 * 
 * 
 * 
 * 
 * 
 * 
 * 
 */

FILE_DESCRIPTION(
/* description */ ('model of Crystal_C38-LF_D3.0mm_L8.0mm_Horizontal'),
/* implementation_level */ '2;1');

FILE_NAME(
/* name */ 'Crystal_C38-LF_D3.0mm_L8.0mm_Horizontal.step',
/* time_stamp */ '2019-07-07T07:40:38',
/* author */ ('kicad StepUp','ksu'),
/* organization */ ('FreeCAD'),
/* preprocessor_version */ 'OCC',
/* originating_system */ 'kicad StepUp',
/* authorisation */ '');

FILE_SCHEMA(('AUTOMOTIVE_DESIGN { 1 0 10303 214 1 1 1 1 }'));
ENDSEC;

DATA;
#1 = APPLICATION_PROTOCOL_DEFINITION('international standard',
'automotive_design',2000,#2);
#2 = APPLICATION_CONTEXT(
'core data for automotive mechanical design processes');
#3 = SHAPE_DEFINITION_REPRESENTATION(#4,#10);
#4 = PRODUCT_DEFINITION_SHAPE('','',#5);
#5 = PRODUCT_DEFINITION('design','',#6,#9);
#6 = PRODUCT_DEFINITION_FORMATION('','',#7);
#7 = PRODUCT('C38_LF_Horizontal','C38_LF_Horizontal','',(#8));
#8 = PRODUCT_CONTEXT('',#2,'mechanical');
#9 = PRODUCT_DEFINITION_CONTEXT('part definition',#2,'design');
#10 = ADVANCED_BREP_SHAPE_REPRESENTATION('',(#11,#15),#388);
#11 = AXIS2_PLACEMENT_3D('',#12,#13,#14);
#12 = CARTESIAN_POINT('',(0.E+000,0.E+000,0.E+000));
#13 = DIRECTION('',(0.E+000,0.E+000,1.));
#14 = DIRECTION('',(1.,0.E+000,-0.E+000));
#15 = MANIFOLD_SOLID_BREP('',#16);
#16 = CLOSED_SHELL('',(#17,#50,#76,#102,#111,#136,#167,#192,#217,#242,
#268,#293,#318,#344,#370,#379));
#17 = ADVANCED_FACE('',(#18),#45,.T.);
#18 = FACE_BOUND('',#19,.T.);
#19 = EDGE_LOOP('',(#20,#30,#37,#38));
#20 = ORIENTED_EDGE('',*,*,#21,.T.);
#21 = EDGE_CURVE('',#22,#24,#26,.T.);
#22 = VERTEX_POINT('',#23);
#23 = CARTESIAN_POINT('',(2.12132034356E-002,-0.148492424049,-2.925));
#24 = VERTEX_POINT('',#25);
#25 = CARTESIAN_POINT('',(2.12132034356E-002,-0.148492424049,
1.166666666667));
#26 = LINE('',#27,#28);
#27 = CARTESIAN_POINT('',(2.12132034356E-002,-0.148492424049,-3.));
#28 = VECTOR('',#29,1.);
#29 = DIRECTION('',(0.E+000,0.E+000,1.));
#30 = ORIENTED_EDGE('',*,*,#31,.F.);
#31 = EDGE_CURVE('',#24,#24,#32,.T.);
#32 = CIRCLE('',#33,0.15);
#33 = AXIS2_PLACEMENT_3D('',#34,#35,#36);
#34 = CARTESIAN_POINT('',(0.E+000,0.E+000,1.166666666667));
#35 = DIRECTION('',(-0.E+000,0.E+000,1.));
#36 = DIRECTION('',(0.141421356237,-0.989949493661,0.E+000));
#37 = ORIENTED_EDGE('',*,*,#21,.F.);
#38 = ORIENTED_EDGE('',*,*,#39,.T.);
#39 = EDGE_CURVE('',#22,#22,#40,.T.);
#40 = CIRCLE('',#41,0.15);
#41 = AXIS2_PLACEMENT_3D('',#42,#43,#44);
#42 = CARTESIAN_POINT('',(0.E+000,3.08148791102E-033,-2.925));
#43 = DIRECTION('',(-0.E+000,0.E+000,1.));
#44 = DIRECTION('',(0.141421356237,-0.989949493661,0.E+000));
#45 = CYLINDRICAL_SURFACE('',#46,0.15);
#46 = AXIS2_PLACEMENT_3D('',#47,#48,#49);
#47 = CARTESIAN_POINT('',(0.E+000,0.E+000,-3.));
#48 = DIRECTION('',(0.E+000,0.E+000,1.));
#49 = DIRECTION('',(0.141421356237,-0.989949493661,0.E+000));
#50 = ADVANCED_FACE('',(#51),#71,.T.);
#51 = FACE_BOUND('',#52,.F.);
#52 = EDGE_LOOP('',(#53,#62,#63,#64));
#53 = ORIENTED_EDGE('',*,*,#54,.F.);
#54 = EDGE_CURVE('',#22,#55,#57,.T.);
#55 = VERTEX_POINT('',#56);
#56 = CARTESIAN_POINT('',(1.06066017178E-002,-7.424621202459E-002,-3.));
#57 = CIRCLE('',#58,7.5E-002);
#58 = AXIS2_PLACEMENT_3D('',#59,#60,#61);
#59 = CARTESIAN_POINT('',(1.06066017178E-002,-7.424621202459E-002,-2.925
));
#60 = DIRECTION('',(0.989949493661,0.141421356237,0.E+000));
#61 = DIRECTION('',(0.141421356237,-0.989949493661,0.E+000));
#62 = ORIENTED_EDGE('',*,*,#39,.T.);
#63 = ORIENTED_EDGE('',*,*,#54,.T.);
#64 = ORIENTED_EDGE('',*,*,#65,.F.);
#65 = EDGE_CURVE('',#55,#55,#66,.T.);
#66 = CIRCLE('',#67,7.5E-002);
#67 = AXIS2_PLACEMENT_3D('',#68,#69,#70);
#68 = CARTESIAN_POINT('',(0.E+000,3.08148791102E-033,-3.));
#69 = DIRECTION('',(-0.E+000,0.E+000,1.));
#70 = DIRECTION('',(0.141421356237,-0.989949493661,0.E+000));
#71 = TOROIDAL_SURFACE('',#72,7.5E-002,7.5E-002);
#72 = AXIS2_PLACEMENT_3D('',#73,#74,#75);
#73 = CARTESIAN_POINT('',(0.E+000,3.08148791102E-033,-2.925));
#74 = DIRECTION('',(0.E+000,0.E+000,-1.));
#75 = DIRECTION('',(0.141421356237,-0.989949493661,0.E+000));
#76 = ADVANCED_FACE('',(#77),#97,.T.);
#77 = FACE_BOUND('',#78,.T.);
#78 = EDGE_LOOP('',(#79,#88,#95,#96));
#79 = ORIENTED_EDGE('',*,*,#80,.T.);
#80 = EDGE_CURVE('',#24,#81,#83,.T.);
#81 = VERTEX_POINT('',#82);
#82 = CARTESIAN_POINT('',(7.071067811865E-002,-0.494974746831,
1.516666666667));
#83 = CIRCLE('',#84,0.35);
#84 = AXIS2_PLACEMENT_3D('',#85,#86,#87);
#85 = CARTESIAN_POINT('',(7.071067811865E-002,-0.494974746831,
1.166666666667));
#86 = DIRECTION('',(0.989949493661,0.141421356237,-0.E+000));
#87 = DIRECTION('',(-0.141421356237,0.989949493661,0.E+000));
#88 = ORIENTED_EDGE('',*,*,#89,.T.);
#89 = EDGE_CURVE('',#81,#81,#90,.T.);
#90 = CIRCLE('',#91,0.15);
#91 = AXIS2_PLACEMENT_3D('',#92,#93,#94);
#92 = CARTESIAN_POINT('',(7.071067811865E-002,-0.494974746831,
1.666666666667));
#93 = DIRECTION('',(-0.141421356237,0.989949493661,6.049014748177E-016)
);
#94 = DIRECTION('',(8.554598695867E-017,-5.988219087107E-016,1.));
#95 = ORIENTED_EDGE('',*,*,#80,.F.);
#96 = ORIENTED_EDGE('',*,*,#31,.T.);
#97 = TOROIDAL_SURFACE('',#98,0.5,0.15);
#98 = AXIS2_PLACEMENT_3D('',#99,#100,#101);
#99 = CARTESIAN_POINT('',(7.071067811865E-002,-0.494974746831,
1.166666666667));
#100 = DIRECTION('',(0.989949493661,0.141421356237,0.E+000));
#101 = DIRECTION('',(-0.141421356237,0.989949493661,0.E+000));
#102 = ADVANCED_FACE('',(#103),#106,.F.);
#103 = FACE_BOUND('',#104,.F.);
#104 = EDGE_LOOP('',(#105));
#105 = ORIENTED_EDGE('',*,*,#65,.T.);
#106 = PLANE('',#107);
#107 = AXIS2_PLACEMENT_3D('',#108,#109,#110);
#108 = CARTESIAN_POINT('',(2.333999929743E-019,1.801932110363E-017,-3.)
);
#109 = DIRECTION('',(0.E+000,0.E+000,1.));
#110 = DIRECTION('',(0.141421356237,-0.989949493661,0.E+000));
#111 = ADVANCED_FACE('',(#112),#131,.T.);
#112 = FACE_BOUND('',#113,.T.);
#113 = EDGE_LOOP('',(#114,#115,#123,#130));
#114 = ORIENTED_EDGE('',*,*,#89,.F.);
#115 = ORIENTED_EDGE('',*,*,#116,.T.);
#116 = EDGE_CURVE('',#81,#117,#119,.T.);
#117 = VERTEX_POINT('',#118);
#118 = CARTESIAN_POINT('',(0.35,-2.45,1.516666666667));
#119 = LINE('',#120,#121);
#120 = CARTESIAN_POINT('',(7.071067811865E-002,-0.494974746831,
1.516666666667));
#121 = VECTOR('',#122,1.);
#122 = DIRECTION('',(0.141421356237,-0.989949493661,0.E+000));
#123 = ORIENTED_EDGE('',*,*,#124,.F.);
#124 = EDGE_CURVE('',#117,#117,#125,.T.);
#125 = ELLIPSE('',#126,0.151522881683,0.15);
#126 = AXIS2_PLACEMENT_3D('',#127,#128,#129);
#127 = CARTESIAN_POINT('',(0.35,-2.45,1.666666666667));
#128 = DIRECTION('',(-2.22044604925E-016,-1.,1.110223024625E-016));
#129 = DIRECTION('',(1.,-2.22044604925E-016,-7.771561172376E-016));
#130 = ORIENTED_EDGE('',*,*,#116,.F.);
#131 = CYLINDRICAL_SURFACE('',#132,0.15);
#132 = AXIS2_PLACEMENT_3D('',#133,#134,#135);
#133 = CARTESIAN_POINT('',(7.071067811865E-002,-0.494974746831,
1.666666666667));
#134 = DIRECTION('',(0.141421356237,-0.989949493661,0.E+000));
#135 = DIRECTION('',(0.E+000,0.E+000,-1.));
#136 = ADVANCED_FACE('',(#137,#148,#151),#162,.F.);
#137 = FACE_BOUND('',#138,.F.);
#138 = EDGE_LOOP('',(#139));
#139 = ORIENTED_EDGE('',*,*,#140,.T.);
#140 = EDGE_CURVE('',#141,#141,#143,.T.);
#141 = VERTEX_POINT('',#142);
#142 = CARTESIAN_POINT('',(0.95,-2.45,2.22044604925E-016));
#143 = CIRCLE('',#144,1.5);
#144 = AXIS2_PLACEMENT_3D('',#145,#146,#147);
#145 = CARTESIAN_POINT('',(0.95,-2.45,1.5));
#146 = DIRECTION('',(-2.22044604925E-016,-1.,1.110223024625E-016));
#147 = DIRECTION('',(0.E+000,-1.110223024625E-016,-1.));
#148 = FACE_BOUND('',#149,.F.);
#149 = EDGE_LOOP('',(#150));
#150 = ORIENTED_EDGE('',*,*,#124,.F.);
#151 = FACE_BOUND('',#152,.F.);
#152 = EDGE_LOOP('',(#153));
#153 = ORIENTED_EDGE('',*,*,#154,.F.);
#154 = EDGE_CURVE('',#155,#155,#157,.T.);
#155 = VERTEX_POINT('',#156);
#156 = CARTESIAN_POINT('',(1.55,-2.45,1.516666666667));
#157 = ELLIPSE('',#158,0.151522881683,0.15);
#158 = AXIS2_PLACEMENT_3D('',#159,#160,#161);
#159 = CARTESIAN_POINT('',(1.55,-2.45,1.666666666667));
#160 = DIRECTION('',(-2.22044604925E-016,-1.,1.110223024625E-016));
#161 = DIRECTION('',(-1.,2.22044604925E-016,-7.771561172376E-016));
#162 = PLANE('',#163);
#163 = AXIS2_PLACEMENT_3D('',#164,#165,#166);
#164 = CARTESIAN_POINT('',(0.95,-2.45,1.5));
#165 = DIRECTION('',(-2.22044604925E-016,-1.,1.110223024625E-016));
#166 = DIRECTION('',(0.E+000,-1.110223024625E-016,-1.));
#167 = ADVANCED_FACE('',(#168),#187,.T.);
#168 = FACE_BOUND('',#169,.F.);
#169 = EDGE_LOOP('',(#170,#171,#179,#186));
#170 = ORIENTED_EDGE('',*,*,#140,.F.);
#171 = ORIENTED_EDGE('',*,*,#172,.T.);
#172 = EDGE_CURVE('',#141,#173,#175,.T.);
#173 = VERTEX_POINT('',#174);
#174 = CARTESIAN_POINT('',(0.95,-2.65,2.22044604925E-016));
#175 = LINE('',#176,#177);
#176 = CARTESIAN_POINT('',(0.95,-2.45,2.22044604925E-016));
#177 = VECTOR('',#178,1.);
#178 = DIRECTION('',(-2.22044604925E-016,-1.,1.110223024625E-016));
#179 = ORIENTED_EDGE('',*,*,#180,.T.);
#180 = EDGE_CURVE('',#173,#173,#181,.T.);
#181 = CIRCLE('',#182,1.5);
#182 = AXIS2_PLACEMENT_3D('',#183,#184,#185);
#183 = CARTESIAN_POINT('',(0.95,-2.65,1.5));
#184 = DIRECTION('',(-2.22044604925E-016,-1.,1.110223024625E-016));
#185 = DIRECTION('',(0.E+000,-1.110223024625E-016,-1.));
#186 = ORIENTED_EDGE('',*,*,#172,.F.);
#187 = CYLINDRICAL_SURFACE('',#188,1.5);
#188 = AXIS2_PLACEMENT_3D('',#189,#190,#191);
#189 = CARTESIAN_POINT('',(0.95,-2.45,1.5));
#190 = DIRECTION('',(2.22044604925E-016,1.,-1.110223024625E-016));
#191 = DIRECTION('',(0.E+000,-1.110223024625E-016,-1.));
#192 = ADVANCED_FACE('',(#193),#212,.T.);
#193 = FACE_BOUND('',#194,.T.);
#194 = EDGE_LOOP('',(#195,#204,#210,#211));
#195 = ORIENTED_EDGE('',*,*,#196,.F.);
#196 = EDGE_CURVE('',#197,#197,#199,.T.);
#197 = VERTEX_POINT('',#198);
#198 = CARTESIAN_POINT('',(1.829289321881,-0.494974746831,1.516666666667
));
#199 = CIRCLE('',#200,0.15);
#200 = AXIS2_PLACEMENT_3D('',#201,#202,#203);
#201 = CARTESIAN_POINT('',(1.829289321881,-0.494974746831,1.666666666667
));
#202 = DIRECTION('',(0.141421356237,0.989949493661,6.049014748177E-016)
);
#203 = DIRECTION('',(-8.554598695867E-017,-5.988219087107E-016,1.));
#204 = ORIENTED_EDGE('',*,*,#205,.T.);
#205 = EDGE_CURVE('',#197,#155,#206,.T.);
#206 = LINE('',#207,#208);
#207 = CARTESIAN_POINT('',(1.829289321881,-0.494974746831,1.516666666667
));
#208 = VECTOR('',#209,1.);
#209 = DIRECTION('',(-0.141421356237,-0.989949493661,0.E+000));
#210 = ORIENTED_EDGE('',*,*,#154,.F.);
#211 = ORIENTED_EDGE('',*,*,#205,.F.);
#212 = CYLINDRICAL_SURFACE('',#213,0.15);
#213 = AXIS2_PLACEMENT_3D('',#214,#215,#216);
#214 = CARTESIAN_POINT('',(1.829289321881,-0.494974746831,1.666666666667
));
#215 = DIRECTION('',(-0.141421356237,-0.989949493661,0.E+000));
#216 = DIRECTION('',(0.E+000,-0.E+000,-1.));
#217 = ADVANCED_FACE('',(#218),#237,.T.);
#218 = FACE_BOUND('',#219,.F.);
#219 = EDGE_LOOP('',(#220,#221,#229,#236));
#220 = ORIENTED_EDGE('',*,*,#180,.F.);
#221 = ORIENTED_EDGE('',*,*,#222,.T.);
#222 = EDGE_CURVE('',#173,#223,#225,.T.);
#223 = VERTEX_POINT('',#224);
#224 = CARTESIAN_POINT('',(0.95,-2.75,2.22044604925E-016));
#225 = LINE('',#226,#227);
#226 = CARTESIAN_POINT('',(0.95,-2.45,2.22044604925E-016));
#227 = VECTOR('',#228,1.);
#228 = DIRECTION('',(-2.22044604925E-016,-1.,1.110223024625E-016));
#229 = ORIENTED_EDGE('',*,*,#230,.T.);
#230 = EDGE_CURVE('',#223,#223,#231,.T.);
#231 = CIRCLE('',#232,1.5);
#232 = AXIS2_PLACEMENT_3D('',#233,#234,#235);
#233 = CARTESIAN_POINT('',(0.95,-2.75,1.5));
#234 = DIRECTION('',(-2.22044604925E-016,-1.,1.110223024625E-016));
#235 = DIRECTION('',(0.E+000,-1.110223024625E-016,-1.));
#236 = ORIENTED_EDGE('',*,*,#222,.F.);
#237 = CYLINDRICAL_SURFACE('',#238,1.5);
#238 = AXIS2_PLACEMENT_3D('',#239,#240,#241);
#239 = CARTESIAN_POINT('',(0.95,-2.45,1.5));
#240 = DIRECTION('',(2.22044604925E-016,1.,-1.110223024625E-016));
#241 = DIRECTION('',(0.E+000,-1.110223024625E-016,-1.));
#242 = ADVANCED_FACE('',(#243),#263,.T.);
#243 = FACE_BOUND('',#244,.T.);
#244 = EDGE_LOOP('',(#245,#254,#255,#256));
#245 = ORIENTED_EDGE('',*,*,#246,.T.);
#246 = EDGE_CURVE('',#247,#197,#249,.T.);
#247 = VERTEX_POINT('',#248);
#248 = CARTESIAN_POINT('',(1.878786796564,-0.148492424049,1.166666666667
));
#249 = CIRCLE('',#250,0.35);
#250 = AXIS2_PLACEMENT_3D('',#251,#252,#253);
#251 = CARTESIAN_POINT('',(1.829289321881,-0.494974746831,1.166666666667
));
#252 = DIRECTION('',(0.989949493661,-0.141421356237,0.E+000));
#253 = DIRECTION('',(0.141421356237,0.989949493661,0.E+000));
#254 = ORIENTED_EDGE('',*,*,#196,.T.);
#255 = ORIENTED_EDGE('',*,*,#246,.F.);
#256 = ORIENTED_EDGE('',*,*,#257,.T.);
#257 = EDGE_CURVE('',#247,#247,#258,.T.);
#258 = CIRCLE('',#259,0.15);
#259 = AXIS2_PLACEMENT_3D('',#260,#261,#262);
#260 = CARTESIAN_POINT('',(1.9,0.E+000,1.166666666667));
#261 = DIRECTION('',(0.E+000,0.E+000,1.));
#262 = DIRECTION('',(-0.141421356237,-0.989949493661,0.E+000));
#263 = TOROIDAL_SURFACE('',#264,0.5,0.15);
#264 = AXIS2_PLACEMENT_3D('',#265,#266,#267);
#265 = CARTESIAN_POINT('',(1.829289321881,-0.494974746831,1.166666666667
));
#266 = DIRECTION('',(0.989949493661,-0.141421356237,0.E+000));
#267 = DIRECTION('',(0.141421356237,0.989949493661,0.E+000));
#268 = ADVANCED_FACE('',(#269),#288,.T.);
#269 = FACE_BOUND('',#270,.F.);
#270 = EDGE_LOOP('',(#271,#272,#280,#287));
#271 = ORIENTED_EDGE('',*,*,#230,.F.);
#272 = ORIENTED_EDGE('',*,*,#273,.T.);
#273 = EDGE_CURVE('',#223,#274,#276,.T.);
#274 = VERTEX_POINT('',#275);
#275 = CARTESIAN_POINT('',(0.95,-9.6,1.110223024625E-015));
#276 = LINE('',#277,#278);
#277 = CARTESIAN_POINT('',(0.95,-2.65,2.22044604925E-016));
#278 = VECTOR('',#279,1.);
#279 = DIRECTION('',(-2.22044604925E-016,-1.,1.110223024625E-016));
#280 = ORIENTED_EDGE('',*,*,#281,.T.);
#281 = EDGE_CURVE('',#274,#274,#282,.T.);
#282 = CIRCLE('',#283,1.5);
#283 = AXIS2_PLACEMENT_3D('',#284,#285,#286);
#284 = CARTESIAN_POINT('',(0.95,-9.6,1.5));
#285 = DIRECTION('',(-2.22044604925E-016,-1.,1.110223024625E-016));
#286 = DIRECTION('',(-1.027162637007E-033,-1.110223024625E-016,-1.));
#287 = ORIENTED_EDGE('',*,*,#273,.F.);
#288 = CYLINDRICAL_SURFACE('',#289,1.5);
#289 = AXIS2_PLACEMENT_3D('',#290,#291,#292);
#290 = CARTESIAN_POINT('',(0.95,-2.65,1.5));
#291 = DIRECTION('',(2.22044604925E-016,1.,-1.110223024625E-016));
#292 = DIRECTION('',(0.E+000,-1.110223024625E-016,-1.));
#293 = ADVANCED_FACE('',(#294),#313,.T.);
#294 = FACE_BOUND('',#295,.T.);
#295 = EDGE_LOOP('',(#296,#304,#305,#306));
#296 = ORIENTED_EDGE('',*,*,#297,.T.);
#297 = EDGE_CURVE('',#298,#247,#300,.T.);
#298 = VERTEX_POINT('',#299);
#299 = CARTESIAN_POINT('',(1.878786796564,-0.148492424049,-2.925));
#300 = LINE('',#301,#302);
#301 = CARTESIAN_POINT('',(1.878786796564,-0.148492424049,-3.));
#302 = VECTOR('',#303,1.);
#303 = DIRECTION('',(0.E+000,0.E+000,1.));
#304 = ORIENTED_EDGE('',*,*,#257,.F.);
#305 = ORIENTED_EDGE('',*,*,#297,.F.);
#306 = ORIENTED_EDGE('',*,*,#307,.T.);
#307 = EDGE_CURVE('',#298,#298,#308,.T.);
#308 = CIRCLE('',#309,0.15);
#309 = AXIS2_PLACEMENT_3D('',#310,#311,#312);
#310 = CARTESIAN_POINT('',(1.9,1.723319626145E-017,-2.925));
#311 = DIRECTION('',(0.E+000,0.E+000,1.));
#312 = DIRECTION('',(-0.141421356237,-0.989949493661,0.E+000));
#313 = CYLINDRICAL_SURFACE('',#314,0.15);
#314 = AXIS2_PLACEMENT_3D('',#315,#316,#317);
#315 = CARTESIAN_POINT('',(1.9,0.E+000,-3.));
#316 = DIRECTION('',(0.E+000,0.E+000,1.));
#317 = DIRECTION('',(-0.141421356237,-0.989949493661,0.E+000));
#318 = ADVANCED_FACE('',(#319),#339,.T.);
#319 = FACE_BOUND('',#320,.T.);
#320 = EDGE_LOOP('',(#321,#330,#331,#332));
#321 = ORIENTED_EDGE('',*,*,#322,.F.);
#322 = EDGE_CURVE('',#274,#323,#325,.T.);
#323 = VERTEX_POINT('',#324);
#324 = CARTESIAN_POINT('',(0.95,-9.85,0.25));
#325 = CIRCLE('',#326,0.25);
#326 = AXIS2_PLACEMENT_3D('',#327,#328,#329);
#327 = CARTESIAN_POINT('',(0.95,-9.6,0.25));
#328 = DIRECTION('',(-1.,2.22044604925E-016,-2.362474065115E-032));
#329 = DIRECTION('',(-1.027162637007E-033,-1.110223024625E-016,-1.));
#330 = ORIENTED_EDGE('',*,*,#281,.T.);
#331 = ORIENTED_EDGE('',*,*,#322,.T.);
#332 = ORIENTED_EDGE('',*,*,#333,.F.);
#333 = EDGE_CURVE('',#323,#323,#334,.T.);
#334 = CIRCLE('',#335,1.25);
#335 = AXIS2_PLACEMENT_3D('',#336,#337,#338);
#336 = CARTESIAN_POINT('',(0.95,-9.85,1.5));
#337 = DIRECTION('',(-2.22044604925E-016,-1.,1.110223024625E-016));
#338 = DIRECTION('',(-1.027162637007E-033,-1.110223024625E-016,-1.));
#339 = TOROIDAL_SURFACE('',#340,1.25,0.25);
#340 = AXIS2_PLACEMENT_3D('',#341,#342,#343);
#341 = CARTESIAN_POINT('',(0.95,-9.6,1.5));
#342 = DIRECTION('',(-2.22044604925E-016,-1.,1.110223024625E-016));
#343 = DIRECTION('',(-1.027162637007E-033,-1.110223024625E-016,-1.));
#344 = ADVANCED_FACE('',(#345),#365,.T.);
#345 = FACE_BOUND('',#346,.F.);
#346 = EDGE_LOOP('',(#347,#356,#357,#358));
#347 = ORIENTED_EDGE('',*,*,#348,.F.);
#348 = EDGE_CURVE('',#298,#349,#351,.T.);
#349 = VERTEX_POINT('',#350);
#350 = CARTESIAN_POINT('',(1.889393398282,-7.424621202459E-002,-3.));
#351 = CIRCLE('',#352,7.5E-002);
#352 = AXIS2_PLACEMENT_3D('',#353,#354,#355);
#353 = CARTESIAN_POINT('',(1.889393398282,-7.424621202459E-002,-2.925));
#354 = DIRECTION('',(0.989949493661,-0.141421356237,0.E+000));
#355 = DIRECTION('',(-0.141421356237,-0.989949493661,0.E+000));
#356 = ORIENTED_EDGE('',*,*,#307,.T.);
#357 = ORIENTED_EDGE('',*,*,#348,.T.);
#358 = ORIENTED_EDGE('',*,*,#359,.F.);
#359 = EDGE_CURVE('',#349,#349,#360,.T.);
#360 = CIRCLE('',#361,7.5E-002);
#361 = AXIS2_PLACEMENT_3D('',#362,#363,#364);
#362 = CARTESIAN_POINT('',(1.9,1.723319626145E-017,-3.));
#363 = DIRECTION('',(0.E+000,0.E+000,1.));
#364 = DIRECTION('',(-0.141421356237,-0.989949493661,0.E+000));
#365 = TOROIDAL_SURFACE('',#366,7.5E-002,7.5E-002);
#366 = AXIS2_PLACEMENT_3D('',#367,#368,#369);
#367 = CARTESIAN_POINT('',(1.9,1.723319626145E-017,-2.925));
#368 = DIRECTION('',(-0.E+000,-0.E+000,-1.));
#369 = DIRECTION('',(-0.141421356237,-0.989949493661,0.E+000));
#370 = ADVANCED_FACE('',(#371),#374,.T.);
#371 = FACE_BOUND('',#372,.T.);
#372 = EDGE_LOOP('',(#373));
#373 = ORIENTED_EDGE('',*,*,#333,.T.);
#374 = PLANE('',#375);
#375 = AXIS2_PLACEMENT_3D('',#376,#377,#378);
#376 = CARTESIAN_POINT('',(0.95,-9.85,1.5));
#377 = DIRECTION('',(-2.22044604925E-016,-1.,1.110223024625E-016));
#378 = DIRECTION('',(1.,-2.22044604925E-016,2.465190328816E-032));
#379 = ADVANCED_FACE('',(#380),#383,.F.);
#380 = FACE_BOUND('',#381,.F.);
#381 = EDGE_LOOP('',(#382));
#382 = ORIENTED_EDGE('',*,*,#359,.T.);
#383 = PLANE('',#384);
#384 = AXIS2_PLACEMENT_3D('',#385,#386,#387);
#385 = CARTESIAN_POINT('',(1.9,1.723319626145E-017,-3.));
#386 = DIRECTION('',(0.E+000,0.E+000,1.));
#387 = DIRECTION('',(-0.141421356237,-0.989949493661,0.E+000));
#388 = ( GEOMETRIC_REPRESENTATION_CONTEXT(3)
GLOBAL_UNCERTAINTY_ASSIGNED_CONTEXT((#392)) GLOBAL_UNIT_ASSIGNED_CONTEXT
((#389,#390,#391)) REPRESENTATION_CONTEXT('Context #1',
'3D Context with UNIT and UNCERTAINTY') );
#389 = ( LENGTH_UNIT() NAMED_UNIT(*) SI_UNIT(.MILLI.,.METRE.) );
#390 = ( NAMED_UNIT(*) PLANE_ANGLE_UNIT() SI_UNIT($,.RADIAN.) );
#391 = ( NAMED_UNIT(*) SI_UNIT($,.STERADIAN.) SOLID_ANGLE_UNIT() );
#392 = UNCERTAINTY_MEASURE_WITH_UNIT(LENGTH_MEASURE(1.E-007),#389,
'distance_accuracy_value','confusion accuracy');
#393 = PRODUCT_RELATED_PRODUCT_CATEGORY('part',$,(#7));
#394 = MECHANICAL_DESIGN_GEOMETRIC_PRESENTATION_REPRESENTATION('',(#395,
#403,#410,#417,#424,#431,#439,#446,#453,#460,#467,#475,#482,#489,
#496,#503),#388);
#395 = STYLED_ITEM('color',(#396),#17);
#396 = PRESENTATION_STYLE_ASSIGNMENT((#397));
#397 = SURFACE_STYLE_USAGE(.BOTH.,#398);
#398 = SURFACE_SIDE_STYLE('',(#399));
#399 = SURFACE_STYLE_FILL_AREA(#400);
#400 = FILL_AREA_STYLE('',(#401));
#401 = FILL_AREA_STYLE_COLOUR('',#402);
#402 = COLOUR_RGB('',0.507539987564,0.507539987564,0.507539987564);
#403 = STYLED_ITEM('color',(#404),#50);
#404 = PRESENTATION_STYLE_ASSIGNMENT((#405));
#405 = SURFACE_STYLE_USAGE(.BOTH.,#406);
#406 = SURFACE_SIDE_STYLE('',(#407));
#407 = SURFACE_STYLE_FILL_AREA(#408);
#408 = FILL_AREA_STYLE('',(#409));
#409 = FILL_AREA_STYLE_COLOUR('',#402);
#410 = STYLED_ITEM('color',(#411),#76);
#411 = PRESENTATION_STYLE_ASSIGNMENT((#412));
#412 = SURFACE_STYLE_USAGE(.BOTH.,#413);
#413 = SURFACE_SIDE_STYLE('',(#414));
#414 = SURFACE_STYLE_FILL_AREA(#415);
#415 = FILL_AREA_STYLE('',(#416));
#416 = FILL_AREA_STYLE_COLOUR('',#402);
#417 = STYLED_ITEM('color',(#418),#102);
#418 = PRESENTATION_STYLE_ASSIGNMENT((#419));
#419 = SURFACE_STYLE_USAGE(.BOTH.,#420);
#420 = SURFACE_SIDE_STYLE('',(#421));
#421 = SURFACE_STYLE_FILL_AREA(#422);
#422 = FILL_AREA_STYLE('',(#423));
#423 = FILL_AREA_STYLE_COLOUR('',#402);
#424 = STYLED_ITEM('color',(#425),#111);
#425 = PRESENTATION_STYLE_ASSIGNMENT((#426));
#426 = SURFACE_STYLE_USAGE(.BOTH.,#427);
#427 = SURFACE_SIDE_STYLE('',(#428));
#428 = SURFACE_STYLE_FILL_AREA(#429);
#429 = FILL_AREA_STYLE('',(#430));
#430 = FILL_AREA_STYLE_COLOUR('',#402);
#431 = STYLED_ITEM('color',(#432),#136);
#432 = PRESENTATION_STYLE_ASSIGNMENT((#433));
#433 = SURFACE_STYLE_USAGE(.BOTH.,#434);
#434 = SURFACE_SIDE_STYLE('',(#435));
#435 = SURFACE_STYLE_FILL_AREA(#436);
#436 = FILL_AREA_STYLE('',(#437));
#437 = FILL_AREA_STYLE_COLOUR('',#438);
#438 = COLOUR_RGB('',0.379000008106,0.270000010729,0.215000003576);
#439 = STYLED_ITEM('color',(#440),#167);
#440 = PRESENTATION_STYLE_ASSIGNMENT((#441));
#441 = SURFACE_STYLE_USAGE(.BOTH.,#442);
#442 = SURFACE_SIDE_STYLE('',(#443));
#443 = SURFACE_STYLE_FILL_AREA(#444);
#444 = FILL_AREA_STYLE('',(#445));
#445 = FILL_AREA_STYLE_COLOUR('',#438);
#446 = STYLED_ITEM('color',(#447),#192);
#447 = PRESENTATION_STYLE_ASSIGNMENT((#448));
#448 = SURFACE_STYLE_USAGE(.BOTH.,#449);
#449 = SURFACE_SIDE_STYLE('',(#450));
#450 = SURFACE_STYLE_FILL_AREA(#451);
#451 = FILL_AREA_STYLE('',(#452));
#452 = FILL_AREA_STYLE_COLOUR('',#402);
#453 = STYLED_ITEM('color',(#454),#217);
#454 = PRESENTATION_STYLE_ASSIGNMENT((#455));
#455 = SURFACE_STYLE_USAGE(.BOTH.,#456);
#456 = SURFACE_SIDE_STYLE('',(#457));
#457 = SURFACE_STYLE_FILL_AREA(#458);
#458 = FILL_AREA_STYLE('',(#459));
#459 = FILL_AREA_STYLE_COLOUR('',#438);
#460 = STYLED_ITEM('color',(#461),#242);
#461 = PRESENTATION_STYLE_ASSIGNMENT((#462));
#462 = SURFACE_STYLE_USAGE(.BOTH.,#463);
#463 = SURFACE_SIDE_STYLE('',(#464));
#464 = SURFACE_STYLE_FILL_AREA(#465);
#465 = FILL_AREA_STYLE('',(#466));
#466 = FILL_AREA_STYLE_COLOUR('',#402);
#467 = STYLED_ITEM('color',(#468),#268);
#468 = PRESENTATION_STYLE_ASSIGNMENT((#469));
#469 = SURFACE_STYLE_USAGE(.BOTH.,#470);
#470 = SURFACE_SIDE_STYLE('',(#471));
#471 = SURFACE_STYLE_FILL_AREA(#472);
#472 = FILL_AREA_STYLE('',(#473));
#473 = FILL_AREA_STYLE_COLOUR('',#474);
#474 = COLOUR_RGB('',0.372321993113,0.371574014425,0.373172998428);
#475 = STYLED_ITEM('color',(#476),#293);
#476 = PRESENTATION_STYLE_ASSIGNMENT((#477));
#477 = SURFACE_STYLE_USAGE(.BOTH.,#478);
#478 = SURFACE_SIDE_STYLE('',(#479));
#479 = SURFACE_STYLE_FILL_AREA(#480);
#480 = FILL_AREA_STYLE('',(#481));
#481 = FILL_AREA_STYLE_COLOUR('',#402);
#482 = STYLED_ITEM('color',(#483),#318);
#483 = PRESENTATION_STYLE_ASSIGNMENT((#484));
#484 = SURFACE_STYLE_USAGE(.BOTH.,#485);
#485 = SURFACE_SIDE_STYLE('',(#486));
#486 = SURFACE_STYLE_FILL_AREA(#487);
#487 = FILL_AREA_STYLE('',(#488));
#488 = FILL_AREA_STYLE_COLOUR('',#474);
#489 = STYLED_ITEM('color',(#490),#344);
#490 = PRESENTATION_STYLE_ASSIGNMENT((#491));
#491 = SURFACE_STYLE_USAGE(.BOTH.,#492);
#492 = SURFACE_SIDE_STYLE('',(#493));
#493 = SURFACE_STYLE_FILL_AREA(#494);
#494 = FILL_AREA_STYLE('',(#495));
#495 = FILL_AREA_STYLE_COLOUR('',#402);
#496 = STYLED_ITEM('color',(#497),#370);
#497 = PRESENTATION_STYLE_ASSIGNMENT((#498));
#498 = SURFACE_STYLE_USAGE(.BOTH.,#499);
#499 = SURFACE_SIDE_STYLE('',(#500));
#500 = SURFACE_STYLE_FILL_AREA(#501);
#501 = FILL_AREA_STYLE('',(#502));
#502 = FILL_AREA_STYLE_COLOUR('',#474);
#503 = STYLED_ITEM('color',(#504),#379);
#504 = PRESENTATION_STYLE_ASSIGNMENT((#505));
#505 = SURFACE_STYLE_USAGE(.BOTH.,#506);
#506 = SURFACE_SIDE_STYLE('',(#507));
#507 = SURFACE_STYLE_FILL_AREA(#508);
#508 = FILL_AREA_STYLE('',(#509));
#509 = FILL_AREA_STYLE_COLOUR('',#402);
ENDSEC;
END-ISO-10303-21;
