ISO-10303-21;
HEADER;
/* WLP-4_0.86x0.86mm_P0.4mm.step 3D STEP model for use in ECAD systems
 * Copyright (C) 2018, kicad StepUp
 * 
 * This work is licensed under the [Creative Commons CC-BY-SA 4.0 License](https://creativecommons.org/licenses/by-sa/4.0/legalcode), 
 * with the following exception:
 * To the extent that the creation of electronic designs that use 'Licensed Material' can be considered to be 'Adapted Material', 
 * then the copyright holder waives article 3 of the license with respect to these designs and any generated files which use data provided 
 * as part of the 'Licensed Material'.
 * You are free to use the library data in your own projects without the obligation to share your project files under this or any other license agreement.
 * However, if you wish to redistribute these libraries, or parts thereof (including in modified form) as a collection then the exception above does not apply. 
 * Please refer to https://github.com/KiCad/kicad-packages3D/blob/master/LICENSE.md for further clarification of the exception.
 * Disclaimer of Warranties and Limitation of Liability.
 * These libraries are provided in the hope that they will be useful, but are provided without warranty of any kind, express or implied.
 * *USE 3D CAD DATA AT YOUR OWN RISK*
 * *DO NOT RELY UPON ANY INFORMATION FOUND HERE WITHOUT INDEPENDENT VERIFICATION.*
 * 
 */

FILE_DESCRIPTION(
/* description */ ('model of WLP-4_0.86x0.86mm_P0.4mm'),
/* implementation_level */ '2;1');

FILE_NAME(
/* name */ 'WLP-4_0.86x0.86mm_P0.4mm.step',
/* time_stamp */ '2018-11-07T22:35:29',
/* author */ ('kicad StepUp','ksu'),
/* organization */ ('FreeCAD'),
/* preprocessor_version */ 'OCC',
/* originating_system */ 'kicad StepUp',
/* authorisation */ '');

FILE_SCHEMA(('AUTOMOTIVE_DESIGN { 1 0 10303 214 1 1 1 1 }'));
ENDSEC;

DATA;
#1 = APPLICATION_PROTOCOL_DEFINITION('international standard',
'automotive_design',2000,#2);
#2 = APPLICATION_CONTEXT(
'core data for automotive mechanical design processes');
#3 = SHAPE_DEFINITION_REPRESENTATION(#4,#10);
#4 = PRODUCT_DEFINITION_SHAPE('','',#5);
#5 = PRODUCT_DEFINITION('design','',#6,#9);
#6 = PRODUCT_DEFINITION_FORMATION('','',#7);
#7 = PRODUCT('WLP_4_086x086mm_P04mm','WLP_4_086x086mm_P04mm','',(#8));
#8 = PRODUCT_CONTEXT('',#2,'mechanical');
#9 = PRODUCT_DEFINITION_CONTEXT('part definition',#2,'design');
#10 = ADVANCED_BREP_SHAPE_REPRESENTATION('',(#11,#15),#330);
#11 = AXIS2_PLACEMENT_3D('',#12,#13,#14);
#12 = CARTESIAN_POINT('',(0.E+000,0.E+000,0.E+000));
#13 = DIRECTION('',(0.E+000,0.E+000,1.));
#14 = DIRECTION('',(1.,0.E+000,-0.E+000));
#15 = MANIFOLD_SOLID_BREP('',#16);
#16 = CLOSED_SHELL('',(#17,#57,#88,#123,#147,#208,#220,#245,#264,#283,
#302,#321));
#17 = ADVANCED_FACE('',(#18),#52,.F.);
#18 = FACE_BOUND('',#19,.F.);
#19 = EDGE_LOOP('',(#20,#30,#38,#46));
#20 = ORIENTED_EDGE('',*,*,#21,.F.);
#21 = EDGE_CURVE('',#22,#24,#26,.T.);
#22 = VERTEX_POINT('',#23);
#23 = CARTESIAN_POINT('',(-0.4175,0.4175,0.19));
#24 = VERTEX_POINT('',#25);
#25 = CARTESIAN_POINT('',(-0.4175,0.4175,0.5));
#26 = LINE('',#27,#28);
#27 = CARTESIAN_POINT('',(-0.4175,0.4175,0.19));
#28 = VECTOR('',#29,1.);
#29 = DIRECTION('',(0.E+000,0.E+000,1.));
#30 = ORIENTED_EDGE('',*,*,#31,.T.);
#31 = EDGE_CURVE('',#22,#32,#34,.T.);
#32 = VERTEX_POINT('',#33);
#33 = CARTESIAN_POINT('',(0.4175,0.4175,0.19));
#34 = LINE('',#35,#36);
#35 = CARTESIAN_POINT('',(-0.4175,0.4175,0.19));
#36 = VECTOR('',#37,1.);
#37 = DIRECTION('',(1.,-2.22044604925E-016,0.E+000));
#38 = ORIENTED_EDGE('',*,*,#39,.T.);
#39 = EDGE_CURVE('',#32,#40,#42,.T.);
#40 = VERTEX_POINT('',#41);
#41 = CARTESIAN_POINT('',(0.4175,0.4175,0.5));
#42 = LINE('',#43,#44);
#43 = CARTESIAN_POINT('',(0.4175,0.4175,0.19));
#44 = VECTOR('',#45,1.);
#45 = DIRECTION('',(0.E+000,0.E+000,1.));
#46 = ORIENTED_EDGE('',*,*,#47,.F.);
#47 = EDGE_CURVE('',#24,#40,#48,.T.);
#48 = LINE('',#49,#50);
#49 = CARTESIAN_POINT('',(-0.4175,0.4175,0.5));
#50 = VECTOR('',#51,1.);
#51 = DIRECTION('',(1.,-2.22044604925E-016,0.E+000));
#52 = PLANE('',#53);
#53 = AXIS2_PLACEMENT_3D('',#54,#55,#56);
#54 = CARTESIAN_POINT('',(-0.4175,0.4175,0.19));
#55 = DIRECTION('',(-2.22044604925E-016,-1.,0.E+000));
#56 = DIRECTION('',(0.E+000,0.E+000,1.));
#57 = ADVANCED_FACE('',(#58),#83,.F.);
#58 = FACE_BOUND('',#59,.F.);
#59 = EDGE_LOOP('',(#60,#68,#69,#77));
#60 = ORIENTED_EDGE('',*,*,#61,.F.);
#61 = EDGE_CURVE('',#22,#62,#64,.T.);
#62 = VERTEX_POINT('',#63);
#63 = CARTESIAN_POINT('',(-0.4175,-0.4175,0.19));
#64 = LINE('',#65,#66);
#65 = CARTESIAN_POINT('',(-0.4175,0.4175,0.19));
#66 = VECTOR('',#67,1.);
#67 = DIRECTION('',(-2.22044604925E-016,-1.,0.E+000));
#68 = ORIENTED_EDGE('',*,*,#21,.T.);
#69 = ORIENTED_EDGE('',*,*,#70,.T.);
#70 = EDGE_CURVE('',#24,#71,#73,.T.);
#71 = VERTEX_POINT('',#72);
#72 = CARTESIAN_POINT('',(-0.4175,-0.4175,0.5));
#73 = LINE('',#74,#75);
#74 = CARTESIAN_POINT('',(-0.4175,0.4175,0.5));
#75 = VECTOR('',#76,1.);
#76 = DIRECTION('',(-2.22044604925E-016,-1.,0.E+000));
#77 = ORIENTED_EDGE('',*,*,#78,.F.);
#78 = EDGE_CURVE('',#62,#71,#79,.T.);
#79 = LINE('',#80,#81);
#80 = CARTESIAN_POINT('',(-0.4175,-0.4175,0.19));
#81 = VECTOR('',#82,1.);
#82 = DIRECTION('',(0.E+000,0.E+000,1.));
#83 = PLANE('',#84);
#84 = AXIS2_PLACEMENT_3D('',#85,#86,#87);
#85 = CARTESIAN_POINT('',(-0.4175,0.4175,0.19));
#86 = DIRECTION('',(1.,-2.22044604925E-016,0.E+000));
#87 = DIRECTION('',(0.E+000,0.E+000,1.));
#88 = ADVANCED_FACE('',(#89,#107),#118,.T.);
#89 = FACE_BOUND('',#90,.T.);
#90 = EDGE_LOOP('',(#91,#92,#93,#101));
#91 = ORIENTED_EDGE('',*,*,#47,.F.);
#92 = ORIENTED_EDGE('',*,*,#70,.T.);
#93 = ORIENTED_EDGE('',*,*,#94,.T.);
#94 = EDGE_CURVE('',#71,#95,#97,.T.);
#95 = VERTEX_POINT('',#96);
#96 = CARTESIAN_POINT('',(0.4175,-0.4175,0.5));
#97 = LINE('',#98,#99);
#98 = CARTESIAN_POINT('',(-0.4175,-0.4175,0.5));
#99 = VECTOR('',#100,1.);
#100 = DIRECTION('',(1.,-2.22044604925E-016,0.E+000));
#101 = ORIENTED_EDGE('',*,*,#102,.F.);
#102 = EDGE_CURVE('',#40,#95,#103,.T.);
#103 = LINE('',#104,#105);
#104 = CARTESIAN_POINT('',(0.4175,0.4175,0.5));
#105 = VECTOR('',#106,1.);
#106 = DIRECTION('',(-2.22044604925E-016,-1.,0.E+000));
#107 = FACE_BOUND('',#108,.T.);
#108 = EDGE_LOOP('',(#109));
#109 = ORIENTED_EDGE('',*,*,#110,.T.);
#110 = EDGE_CURVE('',#111,#111,#113,.T.);
#111 = VERTEX_POINT('',#112);
#112 = CARTESIAN_POINT('',(-0.1975,9.75E-002,0.5));
#113 = CIRCLE('',#114,0.1);
#114 = AXIS2_PLACEMENT_3D('',#115,#116,#117);
#115 = CARTESIAN_POINT('',(-0.1975,0.1975,0.5));
#116 = DIRECTION('',(-0.E+000,0.E+000,-1.));
#117 = DIRECTION('',(-2.22044604925E-016,-1.,0.E+000));
#118 = PLANE('',#119);
#119 = AXIS2_PLACEMENT_3D('',#120,#121,#122);
#120 = CARTESIAN_POINT('',(-0.4175,0.4175,0.5));
#121 = DIRECTION('',(0.E+000,0.E+000,1.));
#122 = DIRECTION('',(-2.22044604925E-016,-1.,0.E+000));
#123 = ADVANCED_FACE('',(#124),#142,.T.);
#124 = FACE_BOUND('',#125,.T.);
#125 = EDGE_LOOP('',(#126,#134,#135,#136));
#126 = ORIENTED_EDGE('',*,*,#127,.F.);
#127 = EDGE_CURVE('',#32,#128,#130,.T.);
#128 = VERTEX_POINT('',#129);
#129 = CARTESIAN_POINT('',(0.4175,-0.4175,0.19));
#130 = LINE('',#131,#132);
#131 = CARTESIAN_POINT('',(0.4175,0.4175,0.19));
#132 = VECTOR('',#133,1.);
#133 = DIRECTION('',(-2.22044604925E-016,-1.,0.E+000));
#134 = ORIENTED_EDGE('',*,*,#39,.T.);
#135 = ORIENTED_EDGE('',*,*,#102,.T.);
#136 = ORIENTED_EDGE('',*,*,#137,.F.);
#137 = EDGE_CURVE('',#128,#95,#138,.T.);
#138 = LINE('',#139,#140);
#139 = CARTESIAN_POINT('',(0.4175,-0.4175,0.19));
#140 = VECTOR('',#141,1.);
#141 = DIRECTION('',(0.E+000,0.E+000,1.));
#142 = PLANE('',#143);
#143 = AXIS2_PLACEMENT_3D('',#144,#145,#146);
#144 = CARTESIAN_POINT('',(0.4175,0.4175,0.19));
#145 = DIRECTION('',(1.,-2.22044604925E-016,0.E+000));
#146 = DIRECTION('',(0.E+000,0.E+000,1.));
#147 = ADVANCED_FACE('',(#148,#159,#170,#181,#192),#203,.F.);
#148 = FACE_BOUND('',#149,.F.);
#149 = EDGE_LOOP('',(#150,#151,#152,#158));
#150 = ORIENTED_EDGE('',*,*,#31,.F.);
#151 = ORIENTED_EDGE('',*,*,#61,.T.);
#152 = ORIENTED_EDGE('',*,*,#153,.T.);
#153 = EDGE_CURVE('',#62,#128,#154,.T.);
#154 = LINE('',#155,#156);
#155 = CARTESIAN_POINT('',(-0.4175,-0.4175,0.19));
#156 = VECTOR('',#157,1.);
#157 = DIRECTION('',(1.,-2.22044604925E-016,0.E+000));
#158 = ORIENTED_EDGE('',*,*,#127,.F.);
#159 = FACE_BOUND('',#160,.F.);
#160 = EDGE_LOOP('',(#161));
#161 = ORIENTED_EDGE('',*,*,#162,.F.);
#162 = EDGE_CURVE('',#163,#163,#165,.T.);
#163 = VERTEX_POINT('',#164);
#164 = CARTESIAN_POINT('',(-0.2,0.330644795151,0.19));
#165 = CIRCLE('',#166,0.130644795151);
#166 = AXIS2_PLACEMENT_3D('',#167,#168,#169);
#167 = CARTESIAN_POINT('',(-0.2,0.2,0.19));
#168 = DIRECTION('',(0.E+000,-0.E+000,1.));
#169 = DIRECTION('',(3.445092848398E-016,1.,0.E+000));
#170 = FACE_BOUND('',#171,.F.);
#171 = EDGE_LOOP('',(#172));
#172 = ORIENTED_EDGE('',*,*,#173,.F.);
#173 = EDGE_CURVE('',#174,#174,#176,.T.);
#174 = VERTEX_POINT('',#175);
#175 = CARTESIAN_POINT('',(-0.2,-6.935520484918E-002,0.19));
#176 = CIRCLE('',#177,0.130644795151);
#177 = AXIS2_PLACEMENT_3D('',#178,#179,#180);
#178 = CARTESIAN_POINT('',(-0.2,-0.2,0.19));
#179 = DIRECTION('',(0.E+000,-0.E+000,1.));
#180 = DIRECTION('',(3.445092848398E-016,1.,0.E+000));
#181 = FACE_BOUND('',#182,.F.);
#182 = EDGE_LOOP('',(#183));
#183 = ORIENTED_EDGE('',*,*,#184,.F.);
#184 = EDGE_CURVE('',#185,#185,#187,.T.);
#185 = VERTEX_POINT('',#186);
#186 = CARTESIAN_POINT('',(0.2,-6.935520484918E-002,0.19));
#187 = CIRCLE('',#188,0.130644795151);
#188 = AXIS2_PLACEMENT_3D('',#189,#190,#191);
#189 = CARTESIAN_POINT('',(0.2,-0.2,0.19));
#190 = DIRECTION('',(0.E+000,-0.E+000,1.));
#191 = DIRECTION('',(3.445092848398E-016,1.,0.E+000));
#192 = FACE_BOUND('',#193,.F.);
#193 = EDGE_LOOP('',(#194));
#194 = ORIENTED_EDGE('',*,*,#195,.F.);
#195 = EDGE_CURVE('',#196,#196,#198,.T.);
#196 = VERTEX_POINT('',#197);
#197 = CARTESIAN_POINT('',(0.2,0.330644795151,0.19));
#198 = CIRCLE('',#199,0.130644795151);
#199 = AXIS2_PLACEMENT_3D('',#200,#201,#202);
#200 = CARTESIAN_POINT('',(0.2,0.2,0.19));
#201 = DIRECTION('',(0.E+000,-0.E+000,1.));
#202 = DIRECTION('',(3.445092848398E-016,1.,0.E+000));
#203 = PLANE('',#204);
#204 = AXIS2_PLACEMENT_3D('',#205,#206,#207);
#205 = CARTESIAN_POINT('',(-0.4175,0.4175,0.19));
#206 = DIRECTION('',(0.E+000,0.E+000,1.));
#207 = DIRECTION('',(-2.22044604925E-016,-1.,0.E+000));
#208 = ADVANCED_FACE('',(#209),#215,.T.);
#209 = FACE_BOUND('',#210,.T.);
#210 = EDGE_LOOP('',(#211,#212,#213,#214));
#211 = ORIENTED_EDGE('',*,*,#78,.F.);
#212 = ORIENTED_EDGE('',*,*,#153,.T.);
#213 = ORIENTED_EDGE('',*,*,#137,.T.);
#214 = ORIENTED_EDGE('',*,*,#94,.F.);
#215 = PLANE('',#216);
#216 = AXIS2_PLACEMENT_3D('',#217,#218,#219);
#217 = CARTESIAN_POINT('',(-0.4175,-0.4175,0.19));
#218 = DIRECTION('',(-2.22044604925E-016,-1.,0.E+000));
#219 = DIRECTION('',(0.E+000,0.E+000,1.));
#220 = ADVANCED_FACE('',(#221),#240,.F.);
#221 = FACE_BOUND('',#222,.T.);
#222 = EDGE_LOOP('',(#223,#224,#232,#239));
#223 = ORIENTED_EDGE('',*,*,#110,.F.);
#224 = ORIENTED_EDGE('',*,*,#225,.T.);
#225 = EDGE_CURVE('',#111,#226,#228,.T.);
#226 = VERTEX_POINT('',#227);
#227 = CARTESIAN_POINT('',(-0.1975,9.75E-002,0.49));
#228 = LINE('',#229,#230);
#229 = CARTESIAN_POINT('',(-0.1975,9.75E-002,0.51));
#230 = VECTOR('',#231,1.);
#231 = DIRECTION('',(-0.E+000,0.E+000,-1.));
#232 = ORIENTED_EDGE('',*,*,#233,.F.);
#233 = EDGE_CURVE('',#226,#226,#234,.T.);
#234 = CIRCLE('',#235,0.1);
#235 = AXIS2_PLACEMENT_3D('',#236,#237,#238);
#236 = CARTESIAN_POINT('',(-0.1975,0.1975,0.49));
#237 = DIRECTION('',(0.E+000,0.E+000,1.));
#238 = DIRECTION('',(-2.22044604925E-016,-1.,0.E+000));
#239 = ORIENTED_EDGE('',*,*,#225,.F.);
#240 = CYLINDRICAL_SURFACE('',#241,0.1);
#241 = AXIS2_PLACEMENT_3D('',#242,#243,#244);
#242 = CARTESIAN_POINT('',(-0.1975,0.1975,0.51));
#243 = DIRECTION('',(0.E+000,0.E+000,-1.));
#244 = DIRECTION('',(-2.22044604925E-016,-1.,0.E+000));
#245 = ADVANCED_FACE('',(#246),#259,.T.);
#246 = FACE_BOUND('',#247,.T.);
#247 = EDGE_LOOP('',(#248,#249,#258));
#248 = ORIENTED_EDGE('',*,*,#162,.F.);
#249 = ORIENTED_EDGE('',*,*,#250,.F.);
#250 = EDGE_CURVE('',#251,#163,#253,.T.);
#251 = VERTEX_POINT('',#252);
#252 = CARTESIAN_POINT('',(-0.2,0.2,-6.75E-003));
#253 = CIRCLE('',#254,0.14175);
#254 = AXIS2_PLACEMENT_3D('',#255,#256,#257);
#255 = CARTESIAN_POINT('',(-0.2,0.2,0.135));
#256 = DIRECTION('',(1.,-5.894386446692E-016,0.E+000));
#257 = DIRECTION('',(5.894386446692E-016,1.,0.E+000));
#258 = ORIENTED_EDGE('',*,*,#250,.T.);
#259 = SPHERICAL_SURFACE('',#260,0.14175);
#260 = AXIS2_PLACEMENT_3D('',#261,#262,#263);
#261 = CARTESIAN_POINT('',(-0.2,0.2,0.135));
#262 = DIRECTION('',(0.E+000,0.E+000,1.));
#263 = DIRECTION('',(3.445092848398E-016,1.,0.E+000));
#264 = ADVANCED_FACE('',(#265),#278,.T.);
#265 = FACE_BOUND('',#266,.T.);
#266 = EDGE_LOOP('',(#267,#268,#277));
#267 = ORIENTED_EDGE('',*,*,#173,.F.);
#268 = ORIENTED_EDGE('',*,*,#269,.F.);
#269 = EDGE_CURVE('',#270,#174,#272,.T.);
#270 = VERTEX_POINT('',#271);
#271 = CARTESIAN_POINT('',(-0.2,-0.2,-6.75E-003));
#272 = CIRCLE('',#273,0.14175);
#273 = AXIS2_PLACEMENT_3D('',#274,#275,#276);
#274 = CARTESIAN_POINT('',(-0.2,-0.2,0.135));
#275 = DIRECTION('',(1.,-5.894386446692E-016,0.E+000));
#276 = DIRECTION('',(5.894386446692E-016,1.,0.E+000));
#277 = ORIENTED_EDGE('',*,*,#269,.T.);
#278 = SPHERICAL_SURFACE('',#279,0.14175);
#279 = AXIS2_PLACEMENT_3D('',#280,#281,#282);
#280 = CARTESIAN_POINT('',(-0.2,-0.2,0.135));
#281 = DIRECTION('',(0.E+000,0.E+000,1.));
#282 = DIRECTION('',(3.445092848398E-016,1.,0.E+000));
#283 = ADVANCED_FACE('',(#284),#297,.T.);
#284 = FACE_BOUND('',#285,.T.);
#285 = EDGE_LOOP('',(#286,#287,#296));
#286 = ORIENTED_EDGE('',*,*,#184,.F.);
#287 = ORIENTED_EDGE('',*,*,#288,.F.);
#288 = EDGE_CURVE('',#289,#185,#291,.T.);
#289 = VERTEX_POINT('',#290);
#290 = CARTESIAN_POINT('',(0.2,-0.2,-6.75E-003));
#291 = CIRCLE('',#292,0.14175);
#292 = AXIS2_PLACEMENT_3D('',#293,#294,#295);
#293 = CARTESIAN_POINT('',(0.2,-0.2,0.135));
#294 = DIRECTION('',(1.,-5.894386446692E-016,0.E+000));
#295 = DIRECTION('',(5.894386446692E-016,1.,0.E+000));
#296 = ORIENTED_EDGE('',*,*,#288,.T.);
#297 = SPHERICAL_SURFACE('',#298,0.14175);
#298 = AXIS2_PLACEMENT_3D('',#299,#300,#301);
#299 = CARTESIAN_POINT('',(0.2,-0.2,0.135));
#300 = DIRECTION('',(0.E+000,0.E+000,1.));
#301 = DIRECTION('',(3.445092848398E-016,1.,0.E+000));
#302 = ADVANCED_FACE('',(#303),#316,.T.);
#303 = FACE_BOUND('',#304,.T.);
#304 = EDGE_LOOP('',(#305,#306,#315));
#305 = ORIENTED_EDGE('',*,*,#195,.F.);
#306 = ORIENTED_EDGE('',*,*,#307,.F.);
#307 = EDGE_CURVE('',#308,#196,#310,.T.);
#308 = VERTEX_POINT('',#309);
#309 = CARTESIAN_POINT('',(0.2,0.2,-6.75E-003));
#310 = CIRCLE('',#311,0.14175);
#311 = AXIS2_PLACEMENT_3D('',#312,#313,#314);
#312 = CARTESIAN_POINT('',(0.2,0.2,0.135));
#313 = DIRECTION('',(1.,-5.894386446692E-016,0.E+000));
#314 = DIRECTION('',(5.894386446692E-016,1.,0.E+000));
#315 = ORIENTED_EDGE('',*,*,#307,.T.);
#316 = SPHERICAL_SURFACE('',#317,0.14175);
#317 = AXIS2_PLACEMENT_3D('',#318,#319,#320);
#318 = CARTESIAN_POINT('',(0.2,0.2,0.135));
#319 = DIRECTION('',(0.E+000,0.E+000,1.));
#320 = DIRECTION('',(3.445092848398E-016,1.,0.E+000));
#321 = ADVANCED_FACE('',(#322),#325,.T.);
#322 = FACE_BOUND('',#323,.T.);
#323 = EDGE_LOOP('',(#324));
#324 = ORIENTED_EDGE('',*,*,#233,.T.);
#325 = PLANE('',#326);
#326 = AXIS2_PLACEMENT_3D('',#327,#328,#329);
#327 = CARTESIAN_POINT('',(-0.1975,0.1975,0.49));
#328 = DIRECTION('',(0.E+000,0.E+000,1.));
#329 = DIRECTION('',(-2.22044604925E-016,-1.,0.E+000));
#330 = ( GEOMETRIC_REPRESENTATION_CONTEXT(3)
GLOBAL_UNCERTAINTY_ASSIGNED_CONTEXT((#334)) GLOBAL_UNIT_ASSIGNED_CONTEXT
((#331,#332,#333)) REPRESENTATION_CONTEXT('Context #1',
'3D Context with UNIT and UNCERTAINTY') );
#331 = ( LENGTH_UNIT() NAMED_UNIT(*) SI_UNIT(.MILLI.,.METRE.) );
#332 = ( NAMED_UNIT(*) PLANE_ANGLE_UNIT() SI_UNIT($,.RADIAN.) );
#333 = ( NAMED_UNIT(*) SI_UNIT($,.STERADIAN.) SOLID_ANGLE_UNIT() );
#334 = UNCERTAINTY_MEASURE_WITH_UNIT(LENGTH_MEASURE(1.E-007),#331,
'distance_accuracy_value','confusion accuracy');
#335 = PRODUCT_RELATED_PRODUCT_CATEGORY('part',$,(#7));
#336 = MECHANICAL_DESIGN_GEOMETRIC_PRESENTATION_REPRESENTATION('',(#337,
#345,#352,#359,#366,#373,#380,#388,#396,#403,#410,#417),#330);
#337 = STYLED_ITEM('color',(#338),#17);
#338 = PRESENTATION_STYLE_ASSIGNMENT((#339));
#339 = SURFACE_STYLE_USAGE(.BOTH.,#340);
#340 = SURFACE_SIDE_STYLE('',(#341));
#341 = SURFACE_STYLE_FILL_AREA(#342);
#342 = FILL_AREA_STYLE('',(#343));
#343 = FILL_AREA_STYLE_COLOUR('',#344);
#344 = COLOUR_RGB('',0.148000001907,0.144999995828,0.144999995828);
#345 = STYLED_ITEM('color',(#346),#57);
#346 = PRESENTATION_STYLE_ASSIGNMENT((#347));
#347 = SURFACE_STYLE_USAGE(.BOTH.,#348);
#348 = SURFACE_SIDE_STYLE('',(#349));
#349 = SURFACE_STYLE_FILL_AREA(#350);
#350 = FILL_AREA_STYLE('',(#351));
#351 = FILL_AREA_STYLE_COLOUR('',#344);
#352 = STYLED_ITEM('color',(#353),#88);
#353 = PRESENTATION_STYLE_ASSIGNMENT((#354));
#354 = SURFACE_STYLE_USAGE(.BOTH.,#355);
#355 = SURFACE_SIDE_STYLE('',(#356));
#356 = SURFACE_STYLE_FILL_AREA(#357);
#357 = FILL_AREA_STYLE('',(#358));
#358 = FILL_AREA_STYLE_COLOUR('',#344);
#359 = STYLED_ITEM('color',(#360),#123);
#360 = PRESENTATION_STYLE_ASSIGNMENT((#361));
#361 = SURFACE_STYLE_USAGE(.BOTH.,#362);
#362 = SURFACE_SIDE_STYLE('',(#363));
#363 = SURFACE_STYLE_FILL_AREA(#364);
#364 = FILL_AREA_STYLE('',(#365));
#365 = FILL_AREA_STYLE_COLOUR('',#344);
#366 = STYLED_ITEM('color',(#367),#147);
#367 = PRESENTATION_STYLE_ASSIGNMENT((#368));
#368 = SURFACE_STYLE_USAGE(.BOTH.,#369);
#369 = SURFACE_SIDE_STYLE('',(#370));
#370 = SURFACE_STYLE_FILL_AREA(#371);
#371 = FILL_AREA_STYLE('',(#372));
#372 = FILL_AREA_STYLE_COLOUR('',#344);
#373 = STYLED_ITEM('color',(#374),#208);
#374 = PRESENTATION_STYLE_ASSIGNMENT((#375));
#375 = SURFACE_STYLE_USAGE(.BOTH.,#376);
#376 = SURFACE_SIDE_STYLE('',(#377));
#377 = SURFACE_STYLE_FILL_AREA(#378);
#378 = FILL_AREA_STYLE('',(#379));
#379 = FILL_AREA_STYLE_COLOUR('',#344);
#380 = STYLED_ITEM('color',(#381),#220);
#381 = PRESENTATION_STYLE_ASSIGNMENT((#382));
#382 = SURFACE_STYLE_USAGE(.BOTH.,#383);
#383 = SURFACE_SIDE_STYLE('',(#384));
#384 = SURFACE_STYLE_FILL_AREA(#385);
#385 = FILL_AREA_STYLE('',(#386));
#386 = FILL_AREA_STYLE_COLOUR('',#387);
#387 = COLOUR_RGB('',0.690999984741,0.663999974728,0.597999989986);
#388 = STYLED_ITEM('color',(#389),#245);
#389 = PRESENTATION_STYLE_ASSIGNMENT((#390));
#390 = SURFACE_STYLE_USAGE(.BOTH.,#391);
#391 = SURFACE_SIDE_STYLE('',(#392));
#392 = SURFACE_STYLE_FILL_AREA(#393);
#393 = FILL_AREA_STYLE('',(#394));
#394 = FILL_AREA_STYLE_COLOUR('',#395);
#395 = COLOUR_RGB('',0.824000000954,0.819999992847,0.78100001812);
#396 = STYLED_ITEM('color',(#397),#264);
#397 = PRESENTATION_STYLE_ASSIGNMENT((#398));
#398 = SURFACE_STYLE_USAGE(.BOTH.,#399);
#399 = SURFACE_SIDE_STYLE('',(#400));
#400 = SURFACE_STYLE_FILL_AREA(#401);
#401 = FILL_AREA_STYLE('',(#402));
#402 = FILL_AREA_STYLE_COLOUR('',#395);
#403 = STYLED_ITEM('color',(#404),#283);
#404 = PRESENTATION_STYLE_ASSIGNMENT((#405));
#405 = SURFACE_STYLE_USAGE(.BOTH.,#406);
#406 = SURFACE_SIDE_STYLE('',(#407));
#407 = SURFACE_STYLE_FILL_AREA(#408);
#408 = FILL_AREA_STYLE('',(#409));
#409 = FILL_AREA_STYLE_COLOUR('',#395);
#410 = STYLED_ITEM('color',(#411),#302);
#411 = PRESENTATION_STYLE_ASSIGNMENT((#412));
#412 = SURFACE_STYLE_USAGE(.BOTH.,#413);
#413 = SURFACE_SIDE_STYLE('',(#414));
#414 = SURFACE_STYLE_FILL_AREA(#415);
#415 = FILL_AREA_STYLE('',(#416));
#416 = FILL_AREA_STYLE_COLOUR('',#395);
#417 = STYLED_ITEM('color',(#418),#321);
#418 = PRESENTATION_STYLE_ASSIGNMENT((#419));
#419 = SURFACE_STYLE_USAGE(.BOTH.,#420);
#420 = SURFACE_SIDE_STYLE('',(#421));
#421 = SURFACE_STYLE_FILL_AREA(#422);
#422 = FILL_AREA_STYLE('',(#423));
#423 = FILL_AREA_STYLE_COLOUR('',#387);
ENDSEC;
END-ISO-10303-21;
