ISO-10303-21;
HEADER;
FILE_DESCRIPTION(('FreeCAD Model'),'2;1');
FILE_NAME(
'D:/KiCAD/packages3D-source/Diode_THT.3dshapes\\
D_DO-35_SOD27_P10.16mm_Horizontal.step','2017-11-23T22:04:41',(
    'kicad StepUp'),('ksu MCAD'),'Open CASCADE STEP processor 7.1',
  'FreeCAD','Unknown');
FILE_SCHEMA(('AUTOMOTIVE_DESIGN { 1 0 10303 214 1 1 1 1 }'));
ENDSEC;
DATA;
#1 = APPLICATION_PROTOCOL_DEFINITION('international standard',
  'automotive_design',2000,#2);
#2 = APPLICATION_CONTEXT(
  'core data for automotive mechanical design processes');
#3 = SHAPE_DEFINITION_REPRESENTATION(#4,#10);
#4 = PRODUCT_DEFINITION_SHAPE('','',#5);
#5 = PRODUCT_DEFINITION('design','',#6,#9);
#6 = PRODUCT_DEFINITION_FORMATION('','',#7);
#7 = PRODUCT('D_DO-35_SOD27_P10.16mm_Horizontal',
  'D_DO-35_SOD27_P10.16mm_Horizontal','',(#8));
#8 = PRODUCT_CONTEXT('',#2,'mechanical');
#9 = PRODUCT_DEFINITION_CONTEXT('part definition',#2,'design');
#10 = ADVANCED_BREP_SHAPE_REPRESENTATION('',(#11,#15),#402);
#11 = AXIS2_PLACEMENT_3D('',#12,#13,#14);
#12 = CARTESIAN_POINT('',(0.E+000,0.E+000,0.E+000));
#13 = DIRECTION('',(0.E+000,0.E+000,1.));
#14 = DIRECTION('',(1.,0.E+000,-0.E+000));
#15 = MANIFOLD_SOLID_BREP('',#16);
#16 = CLOSED_SHELL('',(#17,#50,#70,#90,#115,#140,#166,#192,#212,#232,
    #257,#282,#308,#334,#359,#384,#393));
#17 = ADVANCED_FACE('',(#18),#45,.T.);
#18 = FACE_BOUND('',#19,.T.);
#19 = EDGE_LOOP('',(#20,#29,#37,#44));
#20 = ORIENTED_EDGE('',*,*,#21,.T.);
#21 = EDGE_CURVE('',#22,#22,#24,.T.);
#22 = VERTEX_POINT('',#23);
#23 = CARTESIAN_POINT('',(3.68,1.671995875085E-015,2.51));
#24 = CIRCLE('',#25,1.01);
#25 = AXIS2_PLACEMENT_3D('',#26,#27,#28);
#26 = CARTESIAN_POINT('',(3.68,6.661338147751E-016,1.5));
#27 = DIRECTION('',(1.,0.E+000,-0.E+000));
#28 = DIRECTION('',(0.E+000,9.959030300103E-016,1.));
#29 = ORIENTED_EDGE('',*,*,#30,.T.);
#30 = EDGE_CURVE('',#22,#31,#33,.T.);
#31 = VERTEX_POINT('',#32);
#32 = CARTESIAN_POINT('',(4.68,1.671995875085E-015,2.51));
#33 = LINE('',#34,#35);
#34 = CARTESIAN_POINT('',(3.68,1.671995875085E-015,2.51));
#35 = VECTOR('',#36,1.);
#36 = DIRECTION('',(1.,0.E+000,0.E+000));
#37 = ORIENTED_EDGE('',*,*,#38,.F.);
#38 = EDGE_CURVE('',#31,#31,#39,.T.);
#39 = CIRCLE('',#40,1.01);
#40 = AXIS2_PLACEMENT_3D('',#41,#42,#43);
#41 = CARTESIAN_POINT('',(4.68,6.661338147751E-016,1.5));
#42 = DIRECTION('',(1.,0.E+000,-0.E+000));
#43 = DIRECTION('',(0.E+000,9.959030300103E-016,1.));
#44 = ORIENTED_EDGE('',*,*,#30,.F.);
#45 = CYLINDRICAL_SURFACE('',#46,1.01);
#46 = AXIS2_PLACEMENT_3D('',#47,#48,#49);
#47 = CARTESIAN_POINT('',(3.68,6.661338147751E-016,1.5));
#48 = DIRECTION('',(1.,0.E+000,0.E+000));
#49 = DIRECTION('',(0.E+000,9.959030300103E-016,1.));
#50 = ADVANCED_FACE('',(#51,#54),#65,.F.);
#51 = FACE_BOUND('',#52,.T.);
#52 = EDGE_LOOP('',(#53));
#53 = ORIENTED_EDGE('',*,*,#21,.F.);
#54 = FACE_BOUND('',#55,.T.);
#55 = EDGE_LOOP('',(#56));
#56 = ORIENTED_EDGE('',*,*,#57,.T.);
#57 = EDGE_CURVE('',#58,#58,#60,.T.);
#58 = VERTEX_POINT('',#59);
#59 = CARTESIAN_POINT('',(3.68,1.665334536938E-015,2.5));
#60 = CIRCLE('',#61,1.);
#61 = AXIS2_PLACEMENT_3D('',#62,#63,#64);
#62 = CARTESIAN_POINT('',(3.68,6.661338147751E-016,1.5));
#63 = DIRECTION('',(1.,0.E+000,-0.E+000));
#64 = DIRECTION('',(0.E+000,9.992007221626E-016,1.));
#65 = PLANE('',#66);
#66 = AXIS2_PLACEMENT_3D('',#67,#68,#69);
#67 = CARTESIAN_POINT('',(3.68,6.661338147751E-016,1.5));
#68 = DIRECTION('',(1.,0.E+000,0.E+000));
#69 = DIRECTION('',(0.E+000,1.002565034358E-015,1.));
#70 = ADVANCED_FACE('',(#71,#74),#85,.T.);
#71 = FACE_BOUND('',#72,.T.);
#72 = EDGE_LOOP('',(#73));
#73 = ORIENTED_EDGE('',*,*,#38,.T.);
#74 = FACE_BOUND('',#75,.T.);
#75 = EDGE_LOOP('',(#76));
#76 = ORIENTED_EDGE('',*,*,#77,.F.);
#77 = EDGE_CURVE('',#78,#78,#80,.T.);
#78 = VERTEX_POINT('',#79);
#79 = CARTESIAN_POINT('',(4.68,1.665334536938E-015,2.5));
#80 = CIRCLE('',#81,1.);
#81 = AXIS2_PLACEMENT_3D('',#82,#83,#84);
#82 = CARTESIAN_POINT('',(4.68,6.661338147751E-016,1.5));
#83 = DIRECTION('',(1.,0.E+000,-0.E+000));
#84 = DIRECTION('',(0.E+000,9.992007221626E-016,1.));
#85 = PLANE('',#86);
#86 = AXIS2_PLACEMENT_3D('',#87,#88,#89);
#87 = CARTESIAN_POINT('',(4.68,6.661338147751E-016,1.5));
#88 = DIRECTION('',(1.,0.E+000,0.E+000));
#89 = DIRECTION('',(0.E+000,9.959030300103E-016,1.));
#90 = ADVANCED_FACE('',(#91),#110,.T.);
#91 = FACE_BOUND('',#92,.T.);
#92 = EDGE_LOOP('',(#93,#102,#108,#109));
#93 = ORIENTED_EDGE('',*,*,#94,.T.);
#94 = EDGE_CURVE('',#95,#95,#97,.T.);
#95 = VERTEX_POINT('',#96);
#96 = CARTESIAN_POINT('',(3.48,1.665334536938E-015,2.5));
#97 = CIRCLE('',#98,1.);
#98 = AXIS2_PLACEMENT_3D('',#99,#100,#101);
#99 = CARTESIAN_POINT('',(3.48,6.661338147751E-016,1.5));
#100 = DIRECTION('',(1.,0.E+000,-0.E+000));
#101 = DIRECTION('',(0.E+000,9.992007221626E-016,1.));
#102 = ORIENTED_EDGE('',*,*,#103,.T.);
#103 = EDGE_CURVE('',#95,#58,#104,.T.);
#104 = LINE('',#105,#106);
#105 = CARTESIAN_POINT('',(3.08,1.665334536938E-015,2.5));
#106 = VECTOR('',#107,1.);
#107 = DIRECTION('',(1.,0.E+000,0.E+000));
#108 = ORIENTED_EDGE('',*,*,#57,.F.);
#109 = ORIENTED_EDGE('',*,*,#103,.F.);
#110 = CYLINDRICAL_SURFACE('',#111,1.);
#111 = AXIS2_PLACEMENT_3D('',#112,#113,#114);
#112 = CARTESIAN_POINT('',(3.08,6.661338147751E-016,1.5));
#113 = DIRECTION('',(1.,0.E+000,0.E+000));
#114 = DIRECTION('',(0.E+000,9.992007221626E-016,1.));
#115 = ADVANCED_FACE('',(#116),#135,.T.);
#116 = FACE_BOUND('',#117,.T.);
#117 = EDGE_LOOP('',(#118,#119,#127,#134));
#118 = ORIENTED_EDGE('',*,*,#77,.T.);
#119 = ORIENTED_EDGE('',*,*,#120,.T.);
#120 = EDGE_CURVE('',#78,#121,#123,.T.);
#121 = VERTEX_POINT('',#122);
#122 = CARTESIAN_POINT('',(6.68,1.665334536938E-015,2.5));
#123 = LINE('',#124,#125);
#124 = CARTESIAN_POINT('',(3.08,1.665334536938E-015,2.5));
#125 = VECTOR('',#126,1.);
#126 = DIRECTION('',(1.,0.E+000,0.E+000));
#127 = ORIENTED_EDGE('',*,*,#128,.F.);
#128 = EDGE_CURVE('',#121,#121,#129,.T.);
#129 = CIRCLE('',#130,1.);
#130 = AXIS2_PLACEMENT_3D('',#131,#132,#133);
#131 = CARTESIAN_POINT('',(6.68,6.661338147751E-016,1.5));
#132 = DIRECTION('',(1.,0.E+000,-0.E+000));
#133 = DIRECTION('',(0.E+000,9.992007221626E-016,1.));
#134 = ORIENTED_EDGE('',*,*,#120,.F.);
#135 = CYLINDRICAL_SURFACE('',#136,1.);
#136 = AXIS2_PLACEMENT_3D('',#137,#138,#139);
#137 = CARTESIAN_POINT('',(3.08,6.661338147751E-016,1.5));
#138 = DIRECTION('',(1.,0.E+000,0.E+000));
#139 = DIRECTION('',(0.E+000,9.992007221626E-016,1.));
#140 = ADVANCED_FACE('',(#141),#161,.T.);
#141 = FACE_BOUND('',#142,.F.);
#142 = EDGE_LOOP('',(#143,#152,#153,#154));
#143 = ORIENTED_EDGE('',*,*,#144,.F.);
#144 = EDGE_CURVE('',#95,#145,#147,.T.);
#145 = VERTEX_POINT('',#146);
#146 = CARTESIAN_POINT('',(3.08,1.265654248073E-015,2.1));
#147 = CIRCLE('',#148,0.4);
#148 = AXIS2_PLACEMENT_3D('',#149,#150,#151);
#149 = CARTESIAN_POINT('',(3.48,1.265654248073E-015,2.1));
#150 = DIRECTION('',(0.E+000,-1.,9.992007221626E-016));
#151 = DIRECTION('',(0.E+000,9.992007221626E-016,1.));
#152 = ORIENTED_EDGE('',*,*,#94,.T.);
#153 = ORIENTED_EDGE('',*,*,#144,.T.);
#154 = ORIENTED_EDGE('',*,*,#155,.F.);
#155 = EDGE_CURVE('',#145,#145,#156,.T.);
#156 = CIRCLE('',#157,0.6);
#157 = AXIS2_PLACEMENT_3D('',#158,#159,#160);
#158 = CARTESIAN_POINT('',(3.08,6.661338147751E-016,1.5));
#159 = DIRECTION('',(1.,0.E+000,-0.E+000));
#160 = DIRECTION('',(0.E+000,9.992007221626E-016,1.));
#161 = TOROIDAL_SURFACE('',#162,0.6,0.4);
#162 = AXIS2_PLACEMENT_3D('',#163,#164,#165);
#163 = CARTESIAN_POINT('',(3.48,6.661338147751E-016,1.5));
#164 = DIRECTION('',(-1.,0.E+000,0.E+000));
#165 = DIRECTION('',(0.E+000,9.992007221626E-016,1.));
#166 = ADVANCED_FACE('',(#167),#187,.T.);
#167 = FACE_BOUND('',#168,.F.);
#168 = EDGE_LOOP('',(#169,#178,#185,#186));
#169 = ORIENTED_EDGE('',*,*,#170,.F.);
#170 = EDGE_CURVE('',#171,#121,#173,.T.);
#171 = VERTEX_POINT('',#172);
#172 = CARTESIAN_POINT('',(7.08,1.265654248073E-015,2.1));
#173 = CIRCLE('',#174,0.4);
#174 = AXIS2_PLACEMENT_3D('',#175,#176,#177);
#175 = CARTESIAN_POINT('',(6.68,1.265654248073E-015,2.1));
#176 = DIRECTION('',(0.E+000,-1.,9.992007221626E-016));
#177 = DIRECTION('',(0.E+000,9.992007221626E-016,1.));
#178 = ORIENTED_EDGE('',*,*,#179,.T.);
#179 = EDGE_CURVE('',#171,#171,#180,.T.);
#180 = CIRCLE('',#181,0.6);
#181 = AXIS2_PLACEMENT_3D('',#182,#183,#184);
#182 = CARTESIAN_POINT('',(7.08,6.661338147751E-016,1.5));
#183 = DIRECTION('',(1.,0.E+000,-0.E+000));
#184 = DIRECTION('',(0.E+000,9.992007221626E-016,1.));
#185 = ORIENTED_EDGE('',*,*,#170,.T.);
#186 = ORIENTED_EDGE('',*,*,#128,.F.);
#187 = TOROIDAL_SURFACE('',#188,0.6,0.4);
#188 = AXIS2_PLACEMENT_3D('',#189,#190,#191);
#189 = CARTESIAN_POINT('',(6.68,6.661338147751E-016,1.5));
#190 = DIRECTION('',(-1.,0.E+000,0.E+000));
#191 = DIRECTION('',(0.E+000,9.992007221626E-016,1.));
#192 = ADVANCED_FACE('',(#193,#196),#207,.F.);
#193 = FACE_BOUND('',#194,.T.);
#194 = EDGE_LOOP('',(#195));
#195 = ORIENTED_EDGE('',*,*,#155,.F.);
#196 = FACE_BOUND('',#197,.T.);
#197 = EDGE_LOOP('',(#198));
#198 = ORIENTED_EDGE('',*,*,#199,.T.);
#199 = EDGE_CURVE('',#200,#200,#202,.T.);
#200 = VERTEX_POINT('',#201);
#201 = CARTESIAN_POINT('',(3.08,7.216449660064E-016,1.25));
#202 = CIRCLE('',#203,0.25);
#203 = AXIS2_PLACEMENT_3D('',#204,#205,#206);
#204 = CARTESIAN_POINT('',(3.08,7.771561172376E-016,1.5));
#205 = DIRECTION('',(1.,0.E+000,0.E+000));
#206 = DIRECTION('',(0.E+000,-2.22044604925E-016,-1.));
#207 = PLANE('',#208);
#208 = AXIS2_PLACEMENT_3D('',#209,#210,#211);
#209 = CARTESIAN_POINT('',(3.08,6.661338147751E-016,1.5));
#210 = DIRECTION('',(1.,0.E+000,0.E+000));
#211 = DIRECTION('',(0.E+000,9.992007221626E-016,1.));
#212 = ADVANCED_FACE('',(#213,#216),#227,.T.);
#213 = FACE_BOUND('',#214,.F.);
#214 = EDGE_LOOP('',(#215));
#215 = ORIENTED_EDGE('',*,*,#179,.F.);
#216 = FACE_BOUND('',#217,.F.);
#217 = EDGE_LOOP('',(#218));
#218 = ORIENTED_EDGE('',*,*,#219,.T.);
#219 = EDGE_CURVE('',#220,#220,#222,.T.);
#220 = VERTEX_POINT('',#221);
#221 = CARTESIAN_POINT('',(7.08,7.216449660064E-016,1.25));
#222 = CIRCLE('',#223,0.25);
#223 = AXIS2_PLACEMENT_3D('',#224,#225,#226);
#224 = CARTESIAN_POINT('',(7.08,7.771561172376E-016,1.5));
#225 = DIRECTION('',(1.,0.E+000,0.E+000));
#226 = DIRECTION('',(0.E+000,-2.22044604925E-016,-1.));
#227 = PLANE('',#228);
#228 = AXIS2_PLACEMENT_3D('',#229,#230,#231);
#229 = CARTESIAN_POINT('',(7.08,6.661338147751E-016,1.5));
#230 = DIRECTION('',(1.,0.E+000,0.E+000));
#231 = DIRECTION('',(0.E+000,9.992007221626E-016,1.));
#232 = ADVANCED_FACE('',(#233),#252,.T.);
#233 = FACE_BOUND('',#234,.T.);
#234 = EDGE_LOOP('',(#235,#244,#250,#251));
#235 = ORIENTED_EDGE('',*,*,#236,.F.);
#236 = EDGE_CURVE('',#237,#237,#239,.T.);
#237 = VERTEX_POINT('',#238);
#238 = CARTESIAN_POINT('',(0.5,7.216449660064E-016,1.25));
#239 = CIRCLE('',#240,0.25);
#240 = AXIS2_PLACEMENT_3D('',#241,#242,#243);
#241 = CARTESIAN_POINT('',(0.5,7.771561172376E-016,1.5));
#242 = DIRECTION('',(-1.,-4.078893220341E-032,-1.836970198721E-016));
#243 = DIRECTION('',(-1.836970198721E-016,2.22044604925E-016,1.));
#244 = ORIENTED_EDGE('',*,*,#245,.T.);
#245 = EDGE_CURVE('',#237,#200,#246,.T.);
#246 = LINE('',#247,#248);
#247 = CARTESIAN_POINT('',(0.5,7.216449660064E-016,1.25));
#248 = VECTOR('',#249,1.);
#249 = DIRECTION('',(1.,0.E+000,0.E+000));
#250 = ORIENTED_EDGE('',*,*,#199,.F.);
#251 = ORIENTED_EDGE('',*,*,#245,.F.);
#252 = CYLINDRICAL_SURFACE('',#253,0.25);
#253 = AXIS2_PLACEMENT_3D('',#254,#255,#256);
#254 = CARTESIAN_POINT('',(0.5,7.771561172376E-016,1.5));
#255 = DIRECTION('',(1.,0.E+000,0.E+000));
#256 = DIRECTION('',(0.E+000,-2.22044604925E-016,-1.));
#257 = ADVANCED_FACE('',(#258),#277,.T.);
#258 = FACE_BOUND('',#259,.T.);
#259 = EDGE_LOOP('',(#260,#261,#269,#276));
#260 = ORIENTED_EDGE('',*,*,#219,.T.);
#261 = ORIENTED_EDGE('',*,*,#262,.T.);
#262 = EDGE_CURVE('',#220,#263,#265,.T.);
#263 = VERTEX_POINT('',#264);
#264 = CARTESIAN_POINT('',(9.66,7.216449660064E-016,1.25));
#265 = LINE('',#266,#267);
#266 = CARTESIAN_POINT('',(0.5,7.216449660064E-016,1.25));
#267 = VECTOR('',#268,1.);
#268 = DIRECTION('',(1.,0.E+000,0.E+000));
#269 = ORIENTED_EDGE('',*,*,#270,.F.);
#270 = EDGE_CURVE('',#263,#263,#271,.T.);
#271 = CIRCLE('',#272,0.25);
#272 = AXIS2_PLACEMENT_3D('',#273,#274,#275);
#273 = CARTESIAN_POINT('',(9.66,7.771561172376E-016,1.5));
#274 = DIRECTION('',(1.,0.E+000,0.E+000));
#275 = DIRECTION('',(0.E+000,-2.22044604925E-016,-1.));
#276 = ORIENTED_EDGE('',*,*,#262,.F.);
#277 = CYLINDRICAL_SURFACE('',#278,0.25);
#278 = AXIS2_PLACEMENT_3D('',#279,#280,#281);
#279 = CARTESIAN_POINT('',(0.5,7.771561172376E-016,1.5));
#280 = DIRECTION('',(1.,0.E+000,0.E+000));
#281 = DIRECTION('',(0.E+000,-2.22044604925E-016,-1.));
#282 = ADVANCED_FACE('',(#283),#303,.T.);
#283 = FACE_BOUND('',#284,.T.);
#284 = EDGE_LOOP('',(#285,#294,#295,#296));
#285 = ORIENTED_EDGE('',*,*,#286,.T.);
#286 = EDGE_CURVE('',#287,#237,#289,.T.);
#287 = VERTEX_POINT('',#288);
#288 = CARTESIAN_POINT('',(0.25,6.661338147751E-016,1.));
#289 = CIRCLE('',#290,0.25);
#290 = AXIS2_PLACEMENT_3D('',#291,#292,#293);
#291 = CARTESIAN_POINT('',(0.5,7.579823247111E-016,1.));
#292 = DIRECTION('',(0.E+000,1.,-2.22044604925E-016));
#293 = DIRECTION('',(1.,0.E+000,0.E+000));
#294 = ORIENTED_EDGE('',*,*,#236,.T.);
#295 = ORIENTED_EDGE('',*,*,#286,.F.);
#296 = ORIENTED_EDGE('',*,*,#297,.T.);
#297 = EDGE_CURVE('',#287,#287,#298,.T.);
#298 = CIRCLE('',#299,0.25);
#299 = AXIS2_PLACEMENT_3D('',#300,#301,#302);
#300 = CARTESIAN_POINT('',(0.E+000,6.661338147751E-016,1.));
#301 = DIRECTION('',(-0.E+000,2.22044604925E-016,1.));
#302 = DIRECTION('',(1.,0.E+000,0.E+000));
#303 = TOROIDAL_SURFACE('',#304,0.5,0.25);
#304 = AXIS2_PLACEMENT_3D('',#305,#306,#307);
#305 = CARTESIAN_POINT('',(0.5,6.661338147751E-016,1.));
#306 = DIRECTION('',(0.E+000,1.,-2.22044604925E-016));
#307 = DIRECTION('',(1.,0.E+000,0.E+000));
#308 = ADVANCED_FACE('',(#309),#329,.T.);
#309 = FACE_BOUND('',#310,.T.);
#310 = EDGE_LOOP('',(#311,#320,#327,#328));
#311 = ORIENTED_EDGE('',*,*,#312,.T.);
#312 = EDGE_CURVE('',#263,#313,#315,.T.);
#313 = VERTEX_POINT('',#314);
#314 = CARTESIAN_POINT('',(9.91,6.661338147751E-016,1.));
#315 = CIRCLE('',#316,0.25);
#316 = AXIS2_PLACEMENT_3D('',#317,#318,#319);
#317 = CARTESIAN_POINT('',(9.66,7.579823247111E-016,1.));
#318 = DIRECTION('',(0.E+000,1.,-2.22044604925E-016));
#319 = DIRECTION('',(1.,0.E+000,0.E+000));
#320 = ORIENTED_EDGE('',*,*,#321,.T.);
#321 = EDGE_CURVE('',#313,#313,#322,.T.);
#322 = CIRCLE('',#323,0.25);
#323 = AXIS2_PLACEMENT_3D('',#324,#325,#326);
#324 = CARTESIAN_POINT('',(10.16,6.661338147751E-016,1.));
#325 = DIRECTION('',(-2.449293598295E-016,2.22044604925E-016,1.));
#326 = DIRECTION('',(1.,5.438524293788E-032,2.449293598295E-016));
#327 = ORIENTED_EDGE('',*,*,#312,.F.);
#328 = ORIENTED_EDGE('',*,*,#270,.T.);
#329 = TOROIDAL_SURFACE('',#330,0.5,0.25);
#330 = AXIS2_PLACEMENT_3D('',#331,#332,#333);
#331 = CARTESIAN_POINT('',(9.66,6.661338147751E-016,1.));
#332 = DIRECTION('',(0.E+000,1.,-2.22044604925E-016));
#333 = DIRECTION('',(1.,0.E+000,0.E+000));
#334 = ADVANCED_FACE('',(#335),#354,.T.);
#335 = FACE_BOUND('',#336,.T.);
#336 = EDGE_LOOP('',(#337,#345,#346,#347));
#337 = ORIENTED_EDGE('',*,*,#338,.T.);
#338 = EDGE_CURVE('',#339,#287,#341,.T.);
#339 = VERTEX_POINT('',#340);
#340 = CARTESIAN_POINT('',(0.25,-1.722546424199E-016,-2.5));
#341 = LINE('',#342,#343);
#342 = CARTESIAN_POINT('',(0.25,6.661338147751E-016,1.));
#343 = VECTOR('',#344,1.);
#344 = DIRECTION('',(0.E+000,2.22044604925E-016,1.));
#345 = ORIENTED_EDGE('',*,*,#297,.F.);
#346 = ORIENTED_EDGE('',*,*,#338,.F.);
#347 = ORIENTED_EDGE('',*,*,#348,.T.);
#348 = EDGE_CURVE('',#339,#339,#349,.T.);
#349 = CIRCLE('',#350,0.25);
#350 = AXIS2_PLACEMENT_3D('',#351,#352,#353);
#351 = CARTESIAN_POINT('',(0.E+000,-1.110223024625E-016,-2.5));
#352 = DIRECTION('',(-0.E+000,2.22044604925E-016,1.));
#353 = DIRECTION('',(1.,0.E+000,0.E+000));
#354 = CYLINDRICAL_SURFACE('',#355,0.25);
#355 = AXIS2_PLACEMENT_3D('',#356,#357,#358);
#356 = CARTESIAN_POINT('',(0.E+000,6.661338147751E-016,1.));
#357 = DIRECTION('',(0.E+000,2.22044604925E-016,1.));
#358 = DIRECTION('',(1.,0.E+000,0.E+000));
#359 = ADVANCED_FACE('',(#360),#379,.T.);
#360 = FACE_BOUND('',#361,.T.);
#361 = EDGE_LOOP('',(#362,#370,#377,#378));
#362 = ORIENTED_EDGE('',*,*,#363,.T.);
#363 = EDGE_CURVE('',#313,#364,#366,.T.);
#364 = VERTEX_POINT('',#365);
#365 = CARTESIAN_POINT('',(9.91,-1.722546424199E-016,-2.5));
#366 = LINE('',#367,#368);
#367 = CARTESIAN_POINT('',(9.91,6.661338147751E-016,1.));
#368 = VECTOR('',#369,1.);
#369 = DIRECTION('',(0.E+000,-2.22044604925E-016,-1.));
#370 = ORIENTED_EDGE('',*,*,#371,.F.);
#371 = EDGE_CURVE('',#364,#364,#372,.T.);
#372 = CIRCLE('',#373,0.25);
#373 = AXIS2_PLACEMENT_3D('',#374,#375,#376);
#374 = CARTESIAN_POINT('',(10.16,-1.110223024625E-016,-2.5));
#375 = DIRECTION('',(-0.E+000,-2.22044604925E-016,-1.));
#376 = DIRECTION('',(-1.,0.E+000,0.E+000));
#377 = ORIENTED_EDGE('',*,*,#363,.F.);
#378 = ORIENTED_EDGE('',*,*,#321,.F.);
#379 = CYLINDRICAL_SURFACE('',#380,0.25);
#380 = AXIS2_PLACEMENT_3D('',#381,#382,#383);
#381 = CARTESIAN_POINT('',(10.16,6.661338147751E-016,1.));
#382 = DIRECTION('',(0.E+000,-2.22044604925E-016,-1.));
#383 = DIRECTION('',(-1.,0.E+000,0.E+000));
#384 = ADVANCED_FACE('',(#385),#388,.T.);
#385 = FACE_BOUND('',#386,.F.);
#386 = EDGE_LOOP('',(#387));
#387 = ORIENTED_EDGE('',*,*,#348,.T.);
#388 = PLANE('',#389);
#389 = AXIS2_PLACEMENT_3D('',#390,#391,#392);
#390 = CARTESIAN_POINT('',(0.25,-1.110223024625E-016,-2.5));
#391 = DIRECTION('',(0.E+000,0.E+000,-1.));
#392 = DIRECTION('',(-1.,0.E+000,0.E+000));
#393 = ADVANCED_FACE('',(#394),#397,.F.);
#394 = FACE_BOUND('',#395,.T.);
#395 = EDGE_LOOP('',(#396));
#396 = ORIENTED_EDGE('',*,*,#371,.T.);
#397 = PLANE('',#398);
#398 = AXIS2_PLACEMENT_3D('',#399,#400,#401);
#399 = CARTESIAN_POINT('',(9.91,-1.110223024625E-016,-2.5));
#400 = DIRECTION('',(0.E+000,0.E+000,1.));
#401 = DIRECTION('',(1.,0.E+000,0.E+000));
#402 = ( GEOMETRIC_REPRESENTATION_CONTEXT(3) 
GLOBAL_UNCERTAINTY_ASSIGNED_CONTEXT((#406)) GLOBAL_UNIT_ASSIGNED_CONTEXT
((#403,#404,#405)) REPRESENTATION_CONTEXT('Context #1',
  '3D Context with UNIT and UNCERTAINTY') );
#403 = ( LENGTH_UNIT() NAMED_UNIT(*) SI_UNIT(.MILLI.,.METRE.) );
#404 = ( NAMED_UNIT(*) PLANE_ANGLE_UNIT() SI_UNIT($,.RADIAN.) );
#405 = ( NAMED_UNIT(*) SI_UNIT($,.STERADIAN.) SOLID_ANGLE_UNIT() );
#406 = UNCERTAINTY_MEASURE_WITH_UNIT(LENGTH_MEASURE(1.E-007),#403,
  'distance_accuracy_value','confusion accuracy');
#407 = PRODUCT_RELATED_PRODUCT_CATEGORY('part',$,(#7));
#408 = MECHANICAL_DESIGN_GEOMETRIC_PRESENTATION_REPRESENTATION('',(#409,
    #417,#424,#431,#439,#446,#453,#460,#467,#474,#482,#489,#496,#503,
    #510,#517,#524),#402);
#409 = STYLED_ITEM('color',(#410),#17);
#410 = PRESENTATION_STYLE_ASSIGNMENT((#411));
#411 = SURFACE_STYLE_USAGE(.BOTH.,#412);
#412 = SURFACE_SIDE_STYLE('',(#413));
#413 = SURFACE_STYLE_FILL_AREA(#414);
#414 = FILL_AREA_STYLE('',(#415));
#415 = FILL_AREA_STYLE_COLOUR('',#416);
#416 = COLOUR_RGB('',0.699999988079,0.10000000149,5.000000074506E-002);
#417 = STYLED_ITEM('color',(#418),#50);
#418 = PRESENTATION_STYLE_ASSIGNMENT((#419));
#419 = SURFACE_STYLE_USAGE(.BOTH.,#420);
#420 = SURFACE_SIDE_STYLE('',(#421));
#421 = SURFACE_STYLE_FILL_AREA(#422);
#422 = FILL_AREA_STYLE('',(#423));
#423 = FILL_AREA_STYLE_COLOUR('',#416);
#424 = STYLED_ITEM('color',(#425),#70);
#425 = PRESENTATION_STYLE_ASSIGNMENT((#426));
#426 = SURFACE_STYLE_USAGE(.BOTH.,#427);
#427 = SURFACE_SIDE_STYLE('',(#428));
#428 = SURFACE_STYLE_FILL_AREA(#429);
#429 = FILL_AREA_STYLE('',(#430));
#430 = FILL_AREA_STYLE_COLOUR('',#416);
#431 = STYLED_ITEM('color',(#432),#90);
#432 = PRESENTATION_STYLE_ASSIGNMENT((#433));
#433 = SURFACE_STYLE_USAGE(.BOTH.,#434);
#434 = SURFACE_SIDE_STYLE('',(#435));
#435 = SURFACE_STYLE_FILL_AREA(#436);
#436 = FILL_AREA_STYLE('',(#437));
#437 = FILL_AREA_STYLE_COLOUR('',#438);
#438 = COLOUR_RGB('',0.E+000,0.631244003773,0.748015999794);
#439 = STYLED_ITEM('color',(#440),#115);
#440 = PRESENTATION_STYLE_ASSIGNMENT((#441));
#441 = SURFACE_STYLE_USAGE(.BOTH.,#442);
#442 = SURFACE_SIDE_STYLE('',(#443));
#443 = SURFACE_STYLE_FILL_AREA(#444);
#444 = FILL_AREA_STYLE('',(#445));
#445 = FILL_AREA_STYLE_COLOUR('',#438);
#446 = STYLED_ITEM('color',(#447),#140);
#447 = PRESENTATION_STYLE_ASSIGNMENT((#448));
#448 = SURFACE_STYLE_USAGE(.BOTH.,#449);
#449 = SURFACE_SIDE_STYLE('',(#450));
#450 = SURFACE_STYLE_FILL_AREA(#451);
#451 = FILL_AREA_STYLE('',(#452));
#452 = FILL_AREA_STYLE_COLOUR('',#438);
#453 = STYLED_ITEM('color',(#454),#166);
#454 = PRESENTATION_STYLE_ASSIGNMENT((#455));
#455 = SURFACE_STYLE_USAGE(.BOTH.,#456);
#456 = SURFACE_SIDE_STYLE('',(#457));
#457 = SURFACE_STYLE_FILL_AREA(#458);
#458 = FILL_AREA_STYLE('',(#459));
#459 = FILL_AREA_STYLE_COLOUR('',#438);
#460 = STYLED_ITEM('color',(#461),#192);
#461 = PRESENTATION_STYLE_ASSIGNMENT((#462));
#462 = SURFACE_STYLE_USAGE(.BOTH.,#463);
#463 = SURFACE_SIDE_STYLE('',(#464));
#464 = SURFACE_STYLE_FILL_AREA(#465);
#465 = FILL_AREA_STYLE('',(#466));
#466 = FILL_AREA_STYLE_COLOUR('',#438);
#467 = STYLED_ITEM('color',(#468),#212);
#468 = PRESENTATION_STYLE_ASSIGNMENT((#469));
#469 = SURFACE_STYLE_USAGE(.BOTH.,#470);
#470 = SURFACE_SIDE_STYLE('',(#471));
#471 = SURFACE_STYLE_FILL_AREA(#472);
#472 = FILL_AREA_STYLE('',(#473));
#473 = FILL_AREA_STYLE_COLOUR('',#438);
#474 = STYLED_ITEM('color',(#475),#232);
#475 = PRESENTATION_STYLE_ASSIGNMENT((#476));
#476 = SURFACE_STYLE_USAGE(.BOTH.,#477);
#477 = SURFACE_SIDE_STYLE('',(#478));
#478 = SURFACE_STYLE_FILL_AREA(#479);
#479 = FILL_AREA_STYLE('',(#480));
#480 = FILL_AREA_STYLE_COLOUR('',#481);
#481 = COLOUR_RGB('',0.824000000954,0.819999992847,0.78100001812);
#482 = STYLED_ITEM('color',(#483),#257);
#483 = PRESENTATION_STYLE_ASSIGNMENT((#484));
#484 = SURFACE_STYLE_USAGE(.BOTH.,#485);
#485 = SURFACE_SIDE_STYLE('',(#486));
#486 = SURFACE_STYLE_FILL_AREA(#487);
#487 = FILL_AREA_STYLE('',(#488));
#488 = FILL_AREA_STYLE_COLOUR('',#481);
#489 = STYLED_ITEM('color',(#490),#282);
#490 = PRESENTATION_STYLE_ASSIGNMENT((#491));
#491 = SURFACE_STYLE_USAGE(.BOTH.,#492);
#492 = SURFACE_SIDE_STYLE('',(#493));
#493 = SURFACE_STYLE_FILL_AREA(#494);
#494 = FILL_AREA_STYLE('',(#495));
#495 = FILL_AREA_STYLE_COLOUR('',#481);
#496 = STYLED_ITEM('color',(#497),#308);
#497 = PRESENTATION_STYLE_ASSIGNMENT((#498));
#498 = SURFACE_STYLE_USAGE(.BOTH.,#499);
#499 = SURFACE_SIDE_STYLE('',(#500));
#500 = SURFACE_STYLE_FILL_AREA(#501);
#501 = FILL_AREA_STYLE('',(#502));
#502 = FILL_AREA_STYLE_COLOUR('',#481);
#503 = STYLED_ITEM('color',(#504),#334);
#504 = PRESENTATION_STYLE_ASSIGNMENT((#505));
#505 = SURFACE_STYLE_USAGE(.BOTH.,#506);
#506 = SURFACE_SIDE_STYLE('',(#507));
#507 = SURFACE_STYLE_FILL_AREA(#508);
#508 = FILL_AREA_STYLE('',(#509));
#509 = FILL_AREA_STYLE_COLOUR('',#481);
#510 = STYLED_ITEM('color',(#511),#359);
#511 = PRESENTATION_STYLE_ASSIGNMENT((#512));
#512 = SURFACE_STYLE_USAGE(.BOTH.,#513);
#513 = SURFACE_SIDE_STYLE('',(#514));
#514 = SURFACE_STYLE_FILL_AREA(#515);
#515 = FILL_AREA_STYLE('',(#516));
#516 = FILL_AREA_STYLE_COLOUR('',#481);
#517 = STYLED_ITEM('color',(#518),#384);
#518 = PRESENTATION_STYLE_ASSIGNMENT((#519));
#519 = SURFACE_STYLE_USAGE(.BOTH.,#520);
#520 = SURFACE_SIDE_STYLE('',(#521));
#521 = SURFACE_STYLE_FILL_AREA(#522);
#522 = FILL_AREA_STYLE('',(#523));
#523 = FILL_AREA_STYLE_COLOUR('',#481);
#524 = STYLED_ITEM('color',(#525),#393);
#525 = PRESENTATION_STYLE_ASSIGNMENT((#526));
#526 = SURFACE_STYLE_USAGE(.BOTH.,#527);
#527 = SURFACE_SIDE_STYLE('',(#528));
#528 = SURFACE_STYLE_FILL_AREA(#529);
#529 = FILL_AREA_STYLE('',(#530));
#530 = FILL_AREA_STYLE_COLOUR('',#481);
ENDSEC;
END-ISO-10303-21;
