ISO-10303-21;
HEADER;
FILE_DESCRIPTION(('FreeCAD Model'),'2;1');
FILE_NAME(
'D:/KiCAD/packages3D-source/LED_THT.3dshapes\\
LED_Rectangular_W3.0mm_H2.0mm.step','2017-11-25T21:54:21',(
    'kicad StepUp'),('ksu MCAD'),'Open CASCADE STEP processor 6.8',
  'FreeCAD','Unknown');
FILE_SCHEMA(('AUTOMOTIVE_DESIGN_CC2 { 1 2 10303 214 -1 1 5 4 }'));
ENDSEC;
DATA;
#1 = APPLICATION_PROTOCOL_DEFINITION('committee draft',
  'automotive_design',1997,#2);
#2 = APPLICATION_CONTEXT(
  'core data for automotive mechanical design processes');
#3 = SHAPE_DEFINITION_REPRESENTATION(#4,#10);
#4 = PRODUCT_DEFINITION_SHAPE('','',#5);
#5 = PRODUCT_DEFINITION('design','',#6,#9);
#6 = PRODUCT_DEFINITION_FORMATION('','',#7);
#7 = PRODUCT('LED_Rectangular_W3.0mm_H2.0mm',
  'LED_Rectangular_W3.0mm_H2.0mm','',(#8));
#8 = MECHANICAL_CONTEXT('',#2,'mechanical');
#9 = PRODUCT_DEFINITION_CONTEXT('part definition',#2,'design');
#10 = ADVANCED_BREP_SHAPE_REPRESENTATION('',(#11,#15),#581);
#11 = AXIS2_PLACEMENT_3D('',#12,#13,#14);
#12 = CARTESIAN_POINT('',(0.E+000,0.E+000,0.E+000));
#13 = DIRECTION('',(0.E+000,0.E+000,1.));
#14 = DIRECTION('',(1.,0.E+000,-0.E+000));
#15 = MANIFOLD_SOLID_BREP('',#16);
#16 = CLOSED_SHELL('',(#17,#89,#188,#212,#236,#260,#284,#308,#332,#349,
    #365,#396,#420,#444,#461,#492,#516,#540,#557,#569));
#17 = ADVANCED_FACE('',(#18),#84,.F.);
#18 = FACE_BOUND('',#19,.F.);
#19 = EDGE_LOOP('',(#20,#30,#38,#46,#54,#62,#70,#78));
#20 = ORIENTED_EDGE('',*,*,#21,.F.);
#21 = EDGE_CURVE('',#22,#24,#26,.T.);
#22 = VERTEX_POINT('',#23);
#23 = CARTESIAN_POINT('',(-0.73,-1.,3.));
#24 = VERTEX_POINT('',#25);
#25 = CARTESIAN_POINT('',(3.27,-1.,3.));
#26 = LINE('',#27,#28);
#27 = CARTESIAN_POINT('',(-0.73,-1.,3.));
#28 = VECTOR('',#29,1.);
#29 = DIRECTION('',(1.,0.E+000,0.E+000));
#30 = ORIENTED_EDGE('',*,*,#31,.T.);
#31 = EDGE_CURVE('',#22,#32,#34,.T.);
#32 = VERTEX_POINT('',#33);
#33 = CARTESIAN_POINT('',(-0.73,-1.,4.));
#34 = LINE('',#35,#36);
#35 = CARTESIAN_POINT('',(-0.73,-1.,3.));
#36 = VECTOR('',#37,1.);
#37 = DIRECTION('',(0.E+000,-2.449293598295E-016,1.));
#38 = ORIENTED_EDGE('',*,*,#39,.F.);
#39 = EDGE_CURVE('',#40,#32,#42,.T.);
#40 = VERTEX_POINT('',#41);
#41 = CARTESIAN_POINT('',(-0.23,-1.,4.));
#42 = LINE('',#43,#44);
#43 = CARTESIAN_POINT('',(-0.23,-1.,4.));
#44 = VECTOR('',#45,1.);
#45 = DIRECTION('',(-1.,0.E+000,0.E+000));
#46 = ORIENTED_EDGE('',*,*,#47,.F.);
#47 = EDGE_CURVE('',#48,#40,#50,.T.);
#48 = VERTEX_POINT('',#49);
#49 = CARTESIAN_POINT('',(-0.23,-1.,8.));
#50 = LINE('',#51,#52);
#51 = CARTESIAN_POINT('',(-0.23,-1.,8.));
#52 = VECTOR('',#53,1.);
#53 = DIRECTION('',(0.E+000,2.449293598295E-016,-1.));
#54 = ORIENTED_EDGE('',*,*,#55,.T.);
#55 = EDGE_CURVE('',#48,#56,#58,.T.);
#56 = VERTEX_POINT('',#57);
#57 = CARTESIAN_POINT('',(2.77,-1.,8.));
#58 = LINE('',#59,#60);
#59 = CARTESIAN_POINT('',(-0.73,-1.,8.));
#60 = VECTOR('',#61,1.);
#61 = DIRECTION('',(1.,0.E+000,0.E+000));
#62 = ORIENTED_EDGE('',*,*,#63,.T.);
#63 = EDGE_CURVE('',#56,#64,#66,.T.);
#64 = VERTEX_POINT('',#65);
#65 = CARTESIAN_POINT('',(2.77,-1.,4.));
#66 = LINE('',#67,#68);
#67 = CARTESIAN_POINT('',(2.77,-1.,8.));
#68 = VECTOR('',#69,1.);
#69 = DIRECTION('',(0.E+000,2.449293598295E-016,-1.));
#70 = ORIENTED_EDGE('',*,*,#71,.T.);
#71 = EDGE_CURVE('',#64,#72,#74,.T.);
#72 = VERTEX_POINT('',#73);
#73 = CARTESIAN_POINT('',(3.27,-1.,4.));
#74 = LINE('',#75,#76);
#75 = CARTESIAN_POINT('',(2.77,-1.,4.));
#76 = VECTOR('',#77,1.);
#77 = DIRECTION('',(1.,0.E+000,0.E+000));
#78 = ORIENTED_EDGE('',*,*,#79,.F.);
#79 = EDGE_CURVE('',#24,#72,#80,.T.);
#80 = LINE('',#81,#82);
#81 = CARTESIAN_POINT('',(3.27,-1.,3.));
#82 = VECTOR('',#83,1.);
#83 = DIRECTION('',(0.E+000,-2.449293598295E-016,1.));
#84 = PLANE('',#85);
#85 = AXIS2_PLACEMENT_3D('',#86,#87,#88);
#86 = CARTESIAN_POINT('',(-0.73,-1.,3.));
#87 = DIRECTION('',(0.E+000,1.,2.449293598295E-016));
#88 = DIRECTION('',(1.,0.E+000,0.E+000));
#89 = ADVANCED_FACE('',(#90,#115,#149),#183,.T.);
#90 = FACE_BOUND('',#91,.T.);
#91 = EDGE_LOOP('',(#92,#93,#101,#109));
#92 = ORIENTED_EDGE('',*,*,#21,.F.);
#93 = ORIENTED_EDGE('',*,*,#94,.F.);
#94 = EDGE_CURVE('',#95,#22,#97,.T.);
#95 = VERTEX_POINT('',#96);
#96 = CARTESIAN_POINT('',(-0.73,1.,3.));
#97 = LINE('',#98,#99);
#98 = CARTESIAN_POINT('',(-0.73,1.,3.));
#99 = VECTOR('',#100,1.);
#100 = DIRECTION('',(0.E+000,-1.,-2.449293598295E-016));
#101 = ORIENTED_EDGE('',*,*,#102,.F.);
#102 = EDGE_CURVE('',#103,#95,#105,.T.);
#103 = VERTEX_POINT('',#104);
#104 = CARTESIAN_POINT('',(3.27,1.,3.));
#105 = LINE('',#106,#107);
#106 = CARTESIAN_POINT('',(3.27,1.,3.));
#107 = VECTOR('',#108,1.);
#108 = DIRECTION('',(-1.,0.E+000,-0.E+000));
#109 = ORIENTED_EDGE('',*,*,#110,.F.);
#110 = EDGE_CURVE('',#24,#103,#111,.T.);
#111 = LINE('',#112,#113);
#112 = CARTESIAN_POINT('',(3.27,-1.,3.));
#113 = VECTOR('',#114,1.);
#114 = DIRECTION('',(0.E+000,1.,2.449293598295E-016));
#115 = FACE_BOUND('',#116,.T.);
#116 = EDGE_LOOP('',(#117,#127,#135,#143));
#117 = ORIENTED_EDGE('',*,*,#118,.F.);
#118 = EDGE_CURVE('',#119,#121,#123,.T.);
#119 = VERTEX_POINT('',#120);
#120 = CARTESIAN_POINT('',(2.34,0.2,3.));
#121 = VERTEX_POINT('',#122);
#122 = CARTESIAN_POINT('',(2.74,0.2,3.));
#123 = LINE('',#124,#125);
#124 = CARTESIAN_POINT('',(0.805,0.2,3.));
#125 = VECTOR('',#126,1.);
#126 = DIRECTION('',(1.,0.E+000,0.E+000));
#127 = ORIENTED_EDGE('',*,*,#128,.F.);
#128 = EDGE_CURVE('',#129,#119,#131,.T.);
#129 = VERTEX_POINT('',#130);
#130 = CARTESIAN_POINT('',(2.34,-0.2,3.));
#131 = LINE('',#132,#133);
#132 = CARTESIAN_POINT('',(2.34,-0.6,3.));
#133 = VECTOR('',#134,1.);
#134 = DIRECTION('',(0.E+000,1.,2.449293598295E-016));
#135 = ORIENTED_EDGE('',*,*,#136,.F.);
#136 = EDGE_CURVE('',#137,#129,#139,.T.);
#137 = VERTEX_POINT('',#138);
#138 = CARTESIAN_POINT('',(2.74,-0.2,3.));
#139 = LINE('',#140,#141);
#140 = CARTESIAN_POINT('',(1.005,-0.2,3.));
#141 = VECTOR('',#142,1.);
#142 = DIRECTION('',(-1.,0.E+000,0.E+000));
#143 = ORIENTED_EDGE('',*,*,#144,.F.);
#144 = EDGE_CURVE('',#121,#137,#145,.T.);
#145 = LINE('',#146,#147);
#146 = CARTESIAN_POINT('',(2.74,-0.4,3.));
#147 = VECTOR('',#148,1.);
#148 = DIRECTION('',(-0.E+000,-1.,-2.449293598295E-016));
#149 = FACE_BOUND('',#150,.T.);
#150 = EDGE_LOOP('',(#151,#161,#169,#177));
#151 = ORIENTED_EDGE('',*,*,#152,.F.);
#152 = EDGE_CURVE('',#153,#155,#157,.T.);
#153 = VERTEX_POINT('',#154);
#154 = CARTESIAN_POINT('',(-0.2,0.2,3.));
#155 = VERTEX_POINT('',#156);
#156 = CARTESIAN_POINT('',(0.2,0.2,3.));
#157 = LINE('',#158,#159);
#158 = CARTESIAN_POINT('',(-0.465,0.2,3.));
#159 = VECTOR('',#160,1.);
#160 = DIRECTION('',(1.,0.E+000,0.E+000));
#161 = ORIENTED_EDGE('',*,*,#162,.F.);
#162 = EDGE_CURVE('',#163,#153,#165,.T.);
#163 = VERTEX_POINT('',#164);
#164 = CARTESIAN_POINT('',(-0.2,-0.2,3.));
#165 = LINE('',#166,#167);
#166 = CARTESIAN_POINT('',(-0.2,-0.6,3.));
#167 = VECTOR('',#168,1.);
#168 = DIRECTION('',(0.E+000,1.,2.449293598295E-016));
#169 = ORIENTED_EDGE('',*,*,#170,.F.);
#170 = EDGE_CURVE('',#171,#163,#173,.T.);
#171 = VERTEX_POINT('',#172);
#172 = CARTESIAN_POINT('',(0.2,-0.2,3.));
#173 = LINE('',#174,#175);
#174 = CARTESIAN_POINT('',(-0.265,-0.2,3.));
#175 = VECTOR('',#176,1.);
#176 = DIRECTION('',(-1.,0.E+000,0.E+000));
#177 = ORIENTED_EDGE('',*,*,#178,.F.);
#178 = EDGE_CURVE('',#155,#171,#179,.T.);
#179 = LINE('',#180,#181);
#180 = CARTESIAN_POINT('',(0.2,-0.4,3.));
#181 = VECTOR('',#182,1.);
#182 = DIRECTION('',(-0.E+000,-1.,-2.449293598295E-016));
#183 = PLANE('',#184);
#184 = AXIS2_PLACEMENT_3D('',#185,#186,#187);
#185 = CARTESIAN_POINT('',(-0.73,-1.,3.));
#186 = DIRECTION('',(0.E+000,2.449293598295E-016,-1.));
#187 = DIRECTION('',(-1.,0.E+000,0.E+000));
#188 = ADVANCED_FACE('',(#189),#207,.F.);
#189 = FACE_BOUND('',#190,.F.);
#190 = EDGE_LOOP('',(#191,#192,#193,#201));
#191 = ORIENTED_EDGE('',*,*,#110,.F.);
#192 = ORIENTED_EDGE('',*,*,#79,.T.);
#193 = ORIENTED_EDGE('',*,*,#194,.T.);
#194 = EDGE_CURVE('',#72,#195,#197,.T.);
#195 = VERTEX_POINT('',#196);
#196 = CARTESIAN_POINT('',(3.27,1.,4.));
#197 = LINE('',#198,#199);
#198 = CARTESIAN_POINT('',(3.27,-1.,4.));
#199 = VECTOR('',#200,1.);
#200 = DIRECTION('',(0.E+000,1.,2.449293598295E-016));
#201 = ORIENTED_EDGE('',*,*,#202,.F.);
#202 = EDGE_CURVE('',#103,#195,#203,.T.);
#203 = LINE('',#204,#205);
#204 = CARTESIAN_POINT('',(3.27,1.,3.));
#205 = VECTOR('',#206,1.);
#206 = DIRECTION('',(0.E+000,-2.449293598295E-016,1.));
#207 = PLANE('',#208);
#208 = AXIS2_PLACEMENT_3D('',#209,#210,#211);
#209 = CARTESIAN_POINT('',(3.27,-1.,3.));
#210 = DIRECTION('',(-1.,0.E+000,0.E+000));
#211 = DIRECTION('',(0.E+000,1.,2.449293598295E-016));
#212 = ADVANCED_FACE('',(#213),#231,.F.);
#213 = FACE_BOUND('',#214,.F.);
#214 = EDGE_LOOP('',(#215,#223,#224,#225));
#215 = ORIENTED_EDGE('',*,*,#216,.F.);
#216 = EDGE_CURVE('',#195,#217,#219,.T.);
#217 = VERTEX_POINT('',#218);
#218 = CARTESIAN_POINT('',(2.77,1.,4.));
#219 = LINE('',#220,#221);
#220 = CARTESIAN_POINT('',(3.27,1.,4.));
#221 = VECTOR('',#222,1.);
#222 = DIRECTION('',(-1.,0.E+000,0.E+000));
#223 = ORIENTED_EDGE('',*,*,#194,.F.);
#224 = ORIENTED_EDGE('',*,*,#71,.F.);
#225 = ORIENTED_EDGE('',*,*,#226,.F.);
#226 = EDGE_CURVE('',#217,#64,#227,.T.);
#227 = LINE('',#228,#229);
#228 = CARTESIAN_POINT('',(2.77,1.,4.));
#229 = VECTOR('',#230,1.);
#230 = DIRECTION('',(0.E+000,-1.,-2.449293598295E-016));
#231 = PLANE('',#232);
#232 = AXIS2_PLACEMENT_3D('',#233,#234,#235);
#233 = CARTESIAN_POINT('',(3.27,1.,4.));
#234 = DIRECTION('',(0.E+000,1.224646799147E-016,-1.));
#235 = DIRECTION('',(-1.,0.E+000,0.E+000));
#236 = ADVANCED_FACE('',(#237),#255,.F.);
#237 = FACE_BOUND('',#238,.F.);
#238 = EDGE_LOOP('',(#239,#247,#248,#249));
#239 = ORIENTED_EDGE('',*,*,#240,.T.);
#240 = EDGE_CURVE('',#241,#217,#243,.T.);
#241 = VERTEX_POINT('',#242);
#242 = CARTESIAN_POINT('',(2.77,1.,8.));
#243 = LINE('',#244,#245);
#244 = CARTESIAN_POINT('',(2.77,1.,8.));
#245 = VECTOR('',#246,1.);
#246 = DIRECTION('',(0.E+000,2.449293598295E-016,-1.));
#247 = ORIENTED_EDGE('',*,*,#226,.T.);
#248 = ORIENTED_EDGE('',*,*,#63,.F.);
#249 = ORIENTED_EDGE('',*,*,#250,.F.);
#250 = EDGE_CURVE('',#241,#56,#251,.T.);
#251 = LINE('',#252,#253);
#252 = CARTESIAN_POINT('',(2.77,1.,8.));
#253 = VECTOR('',#254,1.);
#254 = DIRECTION('',(0.E+000,-1.,-2.449293598295E-016));
#255 = PLANE('',#256);
#256 = AXIS2_PLACEMENT_3D('',#257,#258,#259);
#257 = CARTESIAN_POINT('',(2.77,1.,8.));
#258 = DIRECTION('',(-1.,0.E+000,0.E+000));
#259 = DIRECTION('',(0.E+000,-1.,-2.449293598295E-016));
#260 = ADVANCED_FACE('',(#261),#279,.F.);
#261 = FACE_BOUND('',#262,.F.);
#262 = EDGE_LOOP('',(#263,#264,#272,#278));
#263 = ORIENTED_EDGE('',*,*,#55,.F.);
#264 = ORIENTED_EDGE('',*,*,#265,.F.);
#265 = EDGE_CURVE('',#266,#48,#268,.T.);
#266 = VERTEX_POINT('',#267);
#267 = CARTESIAN_POINT('',(-0.23,1.,8.));
#268 = LINE('',#269,#270);
#269 = CARTESIAN_POINT('',(-0.23,1.,8.));
#270 = VECTOR('',#271,1.);
#271 = DIRECTION('',(0.E+000,-1.,-2.449293598295E-016));
#272 = ORIENTED_EDGE('',*,*,#273,.F.);
#273 = EDGE_CURVE('',#241,#266,#274,.T.);
#274 = LINE('',#275,#276);
#275 = CARTESIAN_POINT('',(3.27,1.,8.));
#276 = VECTOR('',#277,1.);
#277 = DIRECTION('',(-1.,0.E+000,-0.E+000));
#278 = ORIENTED_EDGE('',*,*,#250,.T.);
#279 = PLANE('',#280);
#280 = AXIS2_PLACEMENT_3D('',#281,#282,#283);
#281 = CARTESIAN_POINT('',(-0.73,-1.,8.));
#282 = DIRECTION('',(0.E+000,2.449293598295E-016,-1.));
#283 = DIRECTION('',(-1.,0.E+000,0.E+000));
#284 = ADVANCED_FACE('',(#285),#303,.T.);
#285 = FACE_BOUND('',#286,.T.);
#286 = EDGE_LOOP('',(#287,#295,#301,#302));
#287 = ORIENTED_EDGE('',*,*,#288,.T.);
#288 = EDGE_CURVE('',#266,#289,#291,.T.);
#289 = VERTEX_POINT('',#290);
#290 = CARTESIAN_POINT('',(-0.23,1.,4.));
#291 = LINE('',#292,#293);
#292 = CARTESIAN_POINT('',(-0.23,1.,8.));
#293 = VECTOR('',#294,1.);
#294 = DIRECTION('',(0.E+000,2.449293598295E-016,-1.));
#295 = ORIENTED_EDGE('',*,*,#296,.T.);
#296 = EDGE_CURVE('',#289,#40,#297,.T.);
#297 = LINE('',#298,#299);
#298 = CARTESIAN_POINT('',(-0.23,1.,4.));
#299 = VECTOR('',#300,1.);
#300 = DIRECTION('',(0.E+000,-1.,-2.449293598295E-016));
#301 = ORIENTED_EDGE('',*,*,#47,.F.);
#302 = ORIENTED_EDGE('',*,*,#265,.F.);
#303 = PLANE('',#304);
#304 = AXIS2_PLACEMENT_3D('',#305,#306,#307);
#305 = CARTESIAN_POINT('',(-0.23,1.,8.));
#306 = DIRECTION('',(-1.,0.E+000,0.E+000));
#307 = DIRECTION('',(0.E+000,-1.,-2.449293598295E-016));
#308 = ADVANCED_FACE('',(#309),#327,.T.);
#309 = FACE_BOUND('',#310,.T.);
#310 = EDGE_LOOP('',(#311,#319,#325,#326));
#311 = ORIENTED_EDGE('',*,*,#312,.F.);
#312 = EDGE_CURVE('',#313,#289,#315,.T.);
#313 = VERTEX_POINT('',#314);
#314 = CARTESIAN_POINT('',(-0.73,1.,4.));
#315 = LINE('',#316,#317);
#316 = CARTESIAN_POINT('',(-0.73,1.,4.));
#317 = VECTOR('',#318,1.);
#318 = DIRECTION('',(1.,0.E+000,0.E+000));
#319 = ORIENTED_EDGE('',*,*,#320,.F.);
#320 = EDGE_CURVE('',#32,#313,#321,.T.);
#321 = LINE('',#322,#323);
#322 = CARTESIAN_POINT('',(-0.73,-1.,4.));
#323 = VECTOR('',#324,1.);
#324 = DIRECTION('',(0.E+000,1.,2.449293598295E-016));
#325 = ORIENTED_EDGE('',*,*,#39,.F.);
#326 = ORIENTED_EDGE('',*,*,#296,.F.);
#327 = PLANE('',#328);
#328 = AXIS2_PLACEMENT_3D('',#329,#330,#331);
#329 = CARTESIAN_POINT('',(-0.73,1.,4.));
#330 = DIRECTION('',(0.E+000,-1.224646799147E-016,1.));
#331 = DIRECTION('',(1.,0.E+000,0.E+000));
#332 = ADVANCED_FACE('',(#333),#344,.F.);
#333 = FACE_BOUND('',#334,.F.);
#334 = EDGE_LOOP('',(#335,#336,#342,#343));
#335 = ORIENTED_EDGE('',*,*,#94,.F.);
#336 = ORIENTED_EDGE('',*,*,#337,.T.);
#337 = EDGE_CURVE('',#95,#313,#338,.T.);
#338 = LINE('',#339,#340);
#339 = CARTESIAN_POINT('',(-0.73,1.,3.));
#340 = VECTOR('',#341,1.);
#341 = DIRECTION('',(0.E+000,-2.449293598295E-016,1.));
#342 = ORIENTED_EDGE('',*,*,#320,.F.);
#343 = ORIENTED_EDGE('',*,*,#31,.F.);
#344 = PLANE('',#345);
#345 = AXIS2_PLACEMENT_3D('',#346,#347,#348);
#346 = CARTESIAN_POINT('',(-0.73,1.,3.));
#347 = DIRECTION('',(1.,0.E+000,0.E+000));
#348 = DIRECTION('',(0.E+000,-1.,-2.449293598295E-016));
#349 = ADVANCED_FACE('',(#350),#360,.F.);
#350 = FACE_BOUND('',#351,.F.);
#351 = EDGE_LOOP('',(#352,#353,#354,#355,#356,#357,#358,#359));
#352 = ORIENTED_EDGE('',*,*,#102,.F.);
#353 = ORIENTED_EDGE('',*,*,#202,.T.);
#354 = ORIENTED_EDGE('',*,*,#216,.T.);
#355 = ORIENTED_EDGE('',*,*,#240,.F.);
#356 = ORIENTED_EDGE('',*,*,#273,.T.);
#357 = ORIENTED_EDGE('',*,*,#288,.T.);
#358 = ORIENTED_EDGE('',*,*,#312,.F.);
#359 = ORIENTED_EDGE('',*,*,#337,.F.);
#360 = PLANE('',#361);
#361 = AXIS2_PLACEMENT_3D('',#362,#363,#364);
#362 = CARTESIAN_POINT('',(3.27,1.,3.));
#363 = DIRECTION('',(0.E+000,-1.,-2.449293598295E-016));
#364 = DIRECTION('',(-1.,0.E+000,-0.E+000));
#365 = ADVANCED_FACE('',(#366),#391,.F.);
#366 = FACE_BOUND('',#367,.F.);
#367 = EDGE_LOOP('',(#368,#369,#377,#385));
#368 = ORIENTED_EDGE('',*,*,#118,.F.);
#369 = ORIENTED_EDGE('',*,*,#370,.T.);
#370 = EDGE_CURVE('',#119,#371,#373,.T.);
#371 = VERTEX_POINT('',#372);
#372 = CARTESIAN_POINT('',(2.34,0.2,-2.5));
#373 = LINE('',#374,#375);
#374 = CARTESIAN_POINT('',(2.34,0.2,3.5));
#375 = VECTOR('',#376,1.);
#376 = DIRECTION('',(-0.E+000,-0.E+000,-1.));
#377 = ORIENTED_EDGE('',*,*,#378,.T.);
#378 = EDGE_CURVE('',#371,#379,#381,.T.);
#379 = VERTEX_POINT('',#380);
#380 = CARTESIAN_POINT('',(2.74,0.2,-2.5));
#381 = LINE('',#382,#383);
#382 = CARTESIAN_POINT('',(2.34,0.2,-2.5));
#383 = VECTOR('',#384,1.);
#384 = DIRECTION('',(1.,0.E+000,0.E+000));
#385 = ORIENTED_EDGE('',*,*,#386,.F.);
#386 = EDGE_CURVE('',#121,#379,#387,.T.);
#387 = LINE('',#388,#389);
#388 = CARTESIAN_POINT('',(2.74,0.2,3.5));
#389 = VECTOR('',#390,1.);
#390 = DIRECTION('',(-0.E+000,-0.E+000,-1.));
#391 = PLANE('',#392);
#392 = AXIS2_PLACEMENT_3D('',#393,#394,#395);
#393 = CARTESIAN_POINT('',(2.34,0.2,3.5));
#394 = DIRECTION('',(0.E+000,-1.,0.E+000));
#395 = DIRECTION('',(1.,0.E+000,0.E+000));
#396 = ADVANCED_FACE('',(#397),#415,.F.);
#397 = FACE_BOUND('',#398,.F.);
#398 = EDGE_LOOP('',(#399,#400,#401,#409));
#399 = ORIENTED_EDGE('',*,*,#144,.F.);
#400 = ORIENTED_EDGE('',*,*,#386,.T.);
#401 = ORIENTED_EDGE('',*,*,#402,.T.);
#402 = EDGE_CURVE('',#379,#403,#405,.T.);
#403 = VERTEX_POINT('',#404);
#404 = CARTESIAN_POINT('',(2.74,-0.2,-2.5));
#405 = LINE('',#406,#407);
#406 = CARTESIAN_POINT('',(2.74,0.2,-2.5));
#407 = VECTOR('',#408,1.);
#408 = DIRECTION('',(0.E+000,-1.,0.E+000));
#409 = ORIENTED_EDGE('',*,*,#410,.F.);
#410 = EDGE_CURVE('',#137,#403,#411,.T.);
#411 = LINE('',#412,#413);
#412 = CARTESIAN_POINT('',(2.74,-0.2,3.5));
#413 = VECTOR('',#414,1.);
#414 = DIRECTION('',(-0.E+000,-0.E+000,-1.));
#415 = PLANE('',#416);
#416 = AXIS2_PLACEMENT_3D('',#417,#418,#419);
#417 = CARTESIAN_POINT('',(2.74,0.2,3.5));
#418 = DIRECTION('',(-1.,0.E+000,0.E+000));
#419 = DIRECTION('',(0.E+000,-1.,0.E+000));
#420 = ADVANCED_FACE('',(#421),#439,.F.);
#421 = FACE_BOUND('',#422,.F.);
#422 = EDGE_LOOP('',(#423,#424,#425,#433));
#423 = ORIENTED_EDGE('',*,*,#136,.F.);
#424 = ORIENTED_EDGE('',*,*,#410,.T.);
#425 = ORIENTED_EDGE('',*,*,#426,.T.);
#426 = EDGE_CURVE('',#403,#427,#429,.T.);
#427 = VERTEX_POINT('',#428);
#428 = CARTESIAN_POINT('',(2.34,-0.2,-2.5));
#429 = LINE('',#430,#431);
#430 = CARTESIAN_POINT('',(2.74,-0.2,-2.5));
#431 = VECTOR('',#432,1.);
#432 = DIRECTION('',(-1.,0.E+000,0.E+000));
#433 = ORIENTED_EDGE('',*,*,#434,.F.);
#434 = EDGE_CURVE('',#129,#427,#435,.T.);
#435 = LINE('',#436,#437);
#436 = CARTESIAN_POINT('',(2.34,-0.2,3.5));
#437 = VECTOR('',#438,1.);
#438 = DIRECTION('',(-0.E+000,-0.E+000,-1.));
#439 = PLANE('',#440);
#440 = AXIS2_PLACEMENT_3D('',#441,#442,#443);
#441 = CARTESIAN_POINT('',(2.74,-0.2,3.5));
#442 = DIRECTION('',(0.E+000,1.,0.E+000));
#443 = DIRECTION('',(-1.,0.E+000,0.E+000));
#444 = ADVANCED_FACE('',(#445),#456,.F.);
#445 = FACE_BOUND('',#446,.F.);
#446 = EDGE_LOOP('',(#447,#448,#449,#455));
#447 = ORIENTED_EDGE('',*,*,#128,.F.);
#448 = ORIENTED_EDGE('',*,*,#434,.T.);
#449 = ORIENTED_EDGE('',*,*,#450,.T.);
#450 = EDGE_CURVE('',#427,#371,#451,.T.);
#451 = LINE('',#452,#453);
#452 = CARTESIAN_POINT('',(2.34,-0.2,-2.5));
#453 = VECTOR('',#454,1.);
#454 = DIRECTION('',(0.E+000,1.,0.E+000));
#455 = ORIENTED_EDGE('',*,*,#370,.F.);
#456 = PLANE('',#457);
#457 = AXIS2_PLACEMENT_3D('',#458,#459,#460);
#458 = CARTESIAN_POINT('',(2.34,-0.2,3.5));
#459 = DIRECTION('',(1.,0.E+000,0.E+000));
#460 = DIRECTION('',(0.E+000,1.,0.E+000));
#461 = ADVANCED_FACE('',(#462),#487,.F.);
#462 = FACE_BOUND('',#463,.F.);
#463 = EDGE_LOOP('',(#464,#465,#473,#481));
#464 = ORIENTED_EDGE('',*,*,#152,.F.);
#465 = ORIENTED_EDGE('',*,*,#466,.T.);
#466 = EDGE_CURVE('',#153,#467,#469,.T.);
#467 = VERTEX_POINT('',#468);
#468 = CARTESIAN_POINT('',(-0.2,0.2,-2.5));
#469 = LINE('',#470,#471);
#470 = CARTESIAN_POINT('',(-0.2,0.2,3.5));
#471 = VECTOR('',#472,1.);
#472 = DIRECTION('',(-0.E+000,-0.E+000,-1.));
#473 = ORIENTED_EDGE('',*,*,#474,.T.);
#474 = EDGE_CURVE('',#467,#475,#477,.T.);
#475 = VERTEX_POINT('',#476);
#476 = CARTESIAN_POINT('',(0.2,0.2,-2.5));
#477 = LINE('',#478,#479);
#478 = CARTESIAN_POINT('',(-0.2,0.2,-2.5));
#479 = VECTOR('',#480,1.);
#480 = DIRECTION('',(1.,0.E+000,0.E+000));
#481 = ORIENTED_EDGE('',*,*,#482,.F.);
#482 = EDGE_CURVE('',#155,#475,#483,.T.);
#483 = LINE('',#484,#485);
#484 = CARTESIAN_POINT('',(0.2,0.2,3.5));
#485 = VECTOR('',#486,1.);
#486 = DIRECTION('',(-0.E+000,-0.E+000,-1.));
#487 = PLANE('',#488);
#488 = AXIS2_PLACEMENT_3D('',#489,#490,#491);
#489 = CARTESIAN_POINT('',(-0.2,0.2,3.5));
#490 = DIRECTION('',(0.E+000,-1.,0.E+000));
#491 = DIRECTION('',(1.,0.E+000,0.E+000));
#492 = ADVANCED_FACE('',(#493),#511,.F.);
#493 = FACE_BOUND('',#494,.F.);
#494 = EDGE_LOOP('',(#495,#496,#497,#505));
#495 = ORIENTED_EDGE('',*,*,#178,.F.);
#496 = ORIENTED_EDGE('',*,*,#482,.T.);
#497 = ORIENTED_EDGE('',*,*,#498,.T.);
#498 = EDGE_CURVE('',#475,#499,#501,.T.);
#499 = VERTEX_POINT('',#500);
#500 = CARTESIAN_POINT('',(0.2,-0.2,-2.5));
#501 = LINE('',#502,#503);
#502 = CARTESIAN_POINT('',(0.2,0.2,-2.5));
#503 = VECTOR('',#504,1.);
#504 = DIRECTION('',(0.E+000,-1.,0.E+000));
#505 = ORIENTED_EDGE('',*,*,#506,.F.);
#506 = EDGE_CURVE('',#171,#499,#507,.T.);
#507 = LINE('',#508,#509);
#508 = CARTESIAN_POINT('',(0.2,-0.2,3.5));
#509 = VECTOR('',#510,1.);
#510 = DIRECTION('',(-0.E+000,-0.E+000,-1.));
#511 = PLANE('',#512);
#512 = AXIS2_PLACEMENT_3D('',#513,#514,#515);
#513 = CARTESIAN_POINT('',(0.2,0.2,3.5));
#514 = DIRECTION('',(-1.,0.E+000,0.E+000));
#515 = DIRECTION('',(0.E+000,-1.,0.E+000));
#516 = ADVANCED_FACE('',(#517),#535,.F.);
#517 = FACE_BOUND('',#518,.F.);
#518 = EDGE_LOOP('',(#519,#520,#521,#529));
#519 = ORIENTED_EDGE('',*,*,#170,.F.);
#520 = ORIENTED_EDGE('',*,*,#506,.T.);
#521 = ORIENTED_EDGE('',*,*,#522,.T.);
#522 = EDGE_CURVE('',#499,#523,#525,.T.);
#523 = VERTEX_POINT('',#524);
#524 = CARTESIAN_POINT('',(-0.2,-0.2,-2.5));
#525 = LINE('',#526,#527);
#526 = CARTESIAN_POINT('',(0.2,-0.2,-2.5));
#527 = VECTOR('',#528,1.);
#528 = DIRECTION('',(-1.,0.E+000,0.E+000));
#529 = ORIENTED_EDGE('',*,*,#530,.F.);
#530 = EDGE_CURVE('',#163,#523,#531,.T.);
#531 = LINE('',#532,#533);
#532 = CARTESIAN_POINT('',(-0.2,-0.2,3.5));
#533 = VECTOR('',#534,1.);
#534 = DIRECTION('',(-0.E+000,-0.E+000,-1.));
#535 = PLANE('',#536);
#536 = AXIS2_PLACEMENT_3D('',#537,#538,#539);
#537 = CARTESIAN_POINT('',(0.2,-0.2,3.5));
#538 = DIRECTION('',(0.E+000,1.,0.E+000));
#539 = DIRECTION('',(-1.,0.E+000,0.E+000));
#540 = ADVANCED_FACE('',(#541),#552,.F.);
#541 = FACE_BOUND('',#542,.F.);
#542 = EDGE_LOOP('',(#543,#544,#545,#551));
#543 = ORIENTED_EDGE('',*,*,#162,.F.);
#544 = ORIENTED_EDGE('',*,*,#530,.T.);
#545 = ORIENTED_EDGE('',*,*,#546,.T.);
#546 = EDGE_CURVE('',#523,#467,#547,.T.);
#547 = LINE('',#548,#549);
#548 = CARTESIAN_POINT('',(-0.2,-0.2,-2.5));
#549 = VECTOR('',#550,1.);
#550 = DIRECTION('',(0.E+000,1.,0.E+000));
#551 = ORIENTED_EDGE('',*,*,#466,.F.);
#552 = PLANE('',#553);
#553 = AXIS2_PLACEMENT_3D('',#554,#555,#556);
#554 = CARTESIAN_POINT('',(-0.2,-0.2,3.5));
#555 = DIRECTION('',(1.,0.E+000,0.E+000));
#556 = DIRECTION('',(0.E+000,1.,0.E+000));
#557 = ADVANCED_FACE('',(#558),#564,.F.);
#558 = FACE_BOUND('',#559,.T.);
#559 = EDGE_LOOP('',(#560,#561,#562,#563));
#560 = ORIENTED_EDGE('',*,*,#378,.T.);
#561 = ORIENTED_EDGE('',*,*,#402,.T.);
#562 = ORIENTED_EDGE('',*,*,#426,.T.);
#563 = ORIENTED_EDGE('',*,*,#450,.T.);
#564 = PLANE('',#565);
#565 = AXIS2_PLACEMENT_3D('',#566,#567,#568);
#566 = CARTESIAN_POINT('',(2.34,0.2,-2.5));
#567 = DIRECTION('',(0.E+000,0.E+000,1.));
#568 = DIRECTION('',(1.,0.E+000,0.E+000));
#569 = ADVANCED_FACE('',(#570),#576,.F.);
#570 = FACE_BOUND('',#571,.T.);
#571 = EDGE_LOOP('',(#572,#573,#574,#575));
#572 = ORIENTED_EDGE('',*,*,#474,.T.);
#573 = ORIENTED_EDGE('',*,*,#498,.T.);
#574 = ORIENTED_EDGE('',*,*,#522,.T.);
#575 = ORIENTED_EDGE('',*,*,#546,.T.);
#576 = PLANE('',#577);
#577 = AXIS2_PLACEMENT_3D('',#578,#579,#580);
#578 = CARTESIAN_POINT('',(-0.2,0.2,-2.5));
#579 = DIRECTION('',(0.E+000,0.E+000,1.));
#580 = DIRECTION('',(1.,0.E+000,0.E+000));
#581 = ( GEOMETRIC_REPRESENTATION_CONTEXT(3) 
GLOBAL_UNCERTAINTY_ASSIGNED_CONTEXT((#585)) GLOBAL_UNIT_ASSIGNED_CONTEXT
((#582,#583,#584)) REPRESENTATION_CONTEXT('Context #1',
  '3D Context with UNIT and UNCERTAINTY') );
#582 = ( LENGTH_UNIT() NAMED_UNIT(*) SI_UNIT(.MILLI.,.METRE.) );
#583 = ( NAMED_UNIT(*) PLANE_ANGLE_UNIT() SI_UNIT($,.RADIAN.) );
#584 = ( NAMED_UNIT(*) SI_UNIT($,.STERADIAN.) SOLID_ANGLE_UNIT() );
#585 = UNCERTAINTY_MEASURE_WITH_UNIT(LENGTH_MEASURE(1.E-007),#582,
  'distance_accuracy_value','confusion accuracy');
#586 = PRODUCT_TYPE('part',$,(#7));
#587 = MECHANICAL_DESIGN_GEOMETRIC_PRESENTATION_REPRESENTATION('',(#588,
    #596,#603,#610,#617,#624,#631,#638,#645,#652,#659,#667,#674,#681,
    #688,#695,#702,#709,#716,#723),#581);
#588 = STYLED_ITEM('color',(#589),#17);
#589 = PRESENTATION_STYLE_ASSIGNMENT((#590));
#590 = SURFACE_STYLE_USAGE(.BOTH.,#591);
#591 = SURFACE_SIDE_STYLE('',(#592));
#592 = SURFACE_STYLE_FILL_AREA(#593);
#593 = FILL_AREA_STYLE('',(#594));
#594 = FILL_AREA_STYLE_COLOUR('',#595);
#595 = COLOUR_RGB('',0.699999988079,0.10000000149,5.000000074506E-002);
#596 = STYLED_ITEM('color',(#597),#89);
#597 = PRESENTATION_STYLE_ASSIGNMENT((#598));
#598 = SURFACE_STYLE_USAGE(.BOTH.,#599);
#599 = SURFACE_SIDE_STYLE('',(#600));
#600 = SURFACE_STYLE_FILL_AREA(#601);
#601 = FILL_AREA_STYLE('',(#602));
#602 = FILL_AREA_STYLE_COLOUR('',#595);
#603 = STYLED_ITEM('color',(#604),#188);
#604 = PRESENTATION_STYLE_ASSIGNMENT((#605));
#605 = SURFACE_STYLE_USAGE(.BOTH.,#606);
#606 = SURFACE_SIDE_STYLE('',(#607));
#607 = SURFACE_STYLE_FILL_AREA(#608);
#608 = FILL_AREA_STYLE('',(#609));
#609 = FILL_AREA_STYLE_COLOUR('',#595);
#610 = STYLED_ITEM('color',(#611),#212);
#611 = PRESENTATION_STYLE_ASSIGNMENT((#612));
#612 = SURFACE_STYLE_USAGE(.BOTH.,#613);
#613 = SURFACE_SIDE_STYLE('',(#614));
#614 = SURFACE_STYLE_FILL_AREA(#615);
#615 = FILL_AREA_STYLE('',(#616));
#616 = FILL_AREA_STYLE_COLOUR('',#595);
#617 = STYLED_ITEM('color',(#618),#236);
#618 = PRESENTATION_STYLE_ASSIGNMENT((#619));
#619 = SURFACE_STYLE_USAGE(.BOTH.,#620);
#620 = SURFACE_SIDE_STYLE('',(#621));
#621 = SURFACE_STYLE_FILL_AREA(#622);
#622 = FILL_AREA_STYLE('',(#623));
#623 = FILL_AREA_STYLE_COLOUR('',#595);
#624 = STYLED_ITEM('color',(#625),#260);
#625 = PRESENTATION_STYLE_ASSIGNMENT((#626));
#626 = SURFACE_STYLE_USAGE(.BOTH.,#627);
#627 = SURFACE_SIDE_STYLE('',(#628));
#628 = SURFACE_STYLE_FILL_AREA(#629);
#629 = FILL_AREA_STYLE('',(#630));
#630 = FILL_AREA_STYLE_COLOUR('',#595);
#631 = STYLED_ITEM('color',(#632),#284);
#632 = PRESENTATION_STYLE_ASSIGNMENT((#633));
#633 = SURFACE_STYLE_USAGE(.BOTH.,#634);
#634 = SURFACE_SIDE_STYLE('',(#635));
#635 = SURFACE_STYLE_FILL_AREA(#636);
#636 = FILL_AREA_STYLE('',(#637));
#637 = FILL_AREA_STYLE_COLOUR('',#595);
#638 = STYLED_ITEM('color',(#639),#308);
#639 = PRESENTATION_STYLE_ASSIGNMENT((#640));
#640 = SURFACE_STYLE_USAGE(.BOTH.,#641);
#641 = SURFACE_SIDE_STYLE('',(#642));
#642 = SURFACE_STYLE_FILL_AREA(#643);
#643 = FILL_AREA_STYLE('',(#644));
#644 = FILL_AREA_STYLE_COLOUR('',#595);
#645 = STYLED_ITEM('color',(#646),#332);
#646 = PRESENTATION_STYLE_ASSIGNMENT((#647));
#647 = SURFACE_STYLE_USAGE(.BOTH.,#648);
#648 = SURFACE_SIDE_STYLE('',(#649));
#649 = SURFACE_STYLE_FILL_AREA(#650);
#650 = FILL_AREA_STYLE('',(#651));
#651 = FILL_AREA_STYLE_COLOUR('',#595);
#652 = STYLED_ITEM('color',(#653),#349);
#653 = PRESENTATION_STYLE_ASSIGNMENT((#654));
#654 = SURFACE_STYLE_USAGE(.BOTH.,#655);
#655 = SURFACE_SIDE_STYLE('',(#656));
#656 = SURFACE_STYLE_FILL_AREA(#657);
#657 = FILL_AREA_STYLE('',(#658));
#658 = FILL_AREA_STYLE_COLOUR('',#595);
#659 = STYLED_ITEM('color',(#660),#365);
#660 = PRESENTATION_STYLE_ASSIGNMENT((#661));
#661 = SURFACE_STYLE_USAGE(.BOTH.,#662);
#662 = SURFACE_SIDE_STYLE('',(#663));
#663 = SURFACE_STYLE_FILL_AREA(#664);
#664 = FILL_AREA_STYLE('',(#665));
#665 = FILL_AREA_STYLE_COLOUR('',#666);
#666 = COLOUR_RGB('',0.824000000954,0.819999992847,0.78100001812);
#667 = STYLED_ITEM('color',(#668),#396);
#668 = PRESENTATION_STYLE_ASSIGNMENT((#669));
#669 = SURFACE_STYLE_USAGE(.BOTH.,#670);
#670 = SURFACE_SIDE_STYLE('',(#671));
#671 = SURFACE_STYLE_FILL_AREA(#672);
#672 = FILL_AREA_STYLE('',(#673));
#673 = FILL_AREA_STYLE_COLOUR('',#666);
#674 = STYLED_ITEM('color',(#675),#420);
#675 = PRESENTATION_STYLE_ASSIGNMENT((#676));
#676 = SURFACE_STYLE_USAGE(.BOTH.,#677);
#677 = SURFACE_SIDE_STYLE('',(#678));
#678 = SURFACE_STYLE_FILL_AREA(#679);
#679 = FILL_AREA_STYLE('',(#680));
#680 = FILL_AREA_STYLE_COLOUR('',#666);
#681 = STYLED_ITEM('color',(#682),#444);
#682 = PRESENTATION_STYLE_ASSIGNMENT((#683));
#683 = SURFACE_STYLE_USAGE(.BOTH.,#684);
#684 = SURFACE_SIDE_STYLE('',(#685));
#685 = SURFACE_STYLE_FILL_AREA(#686);
#686 = FILL_AREA_STYLE('',(#687));
#687 = FILL_AREA_STYLE_COLOUR('',#666);
#688 = STYLED_ITEM('color',(#689),#461);
#689 = PRESENTATION_STYLE_ASSIGNMENT((#690));
#690 = SURFACE_STYLE_USAGE(.BOTH.,#691);
#691 = SURFACE_SIDE_STYLE('',(#692));
#692 = SURFACE_STYLE_FILL_AREA(#693);
#693 = FILL_AREA_STYLE('',(#694));
#694 = FILL_AREA_STYLE_COLOUR('',#666);
#695 = STYLED_ITEM('color',(#696),#492);
#696 = PRESENTATION_STYLE_ASSIGNMENT((#697));
#697 = SURFACE_STYLE_USAGE(.BOTH.,#698);
#698 = SURFACE_SIDE_STYLE('',(#699));
#699 = SURFACE_STYLE_FILL_AREA(#700);
#700 = FILL_AREA_STYLE('',(#701));
#701 = FILL_AREA_STYLE_COLOUR('',#666);
#702 = STYLED_ITEM('color',(#703),#516);
#703 = PRESENTATION_STYLE_ASSIGNMENT((#704));
#704 = SURFACE_STYLE_USAGE(.BOTH.,#705);
#705 = SURFACE_SIDE_STYLE('',(#706));
#706 = SURFACE_STYLE_FILL_AREA(#707);
#707 = FILL_AREA_STYLE('',(#708));
#708 = FILL_AREA_STYLE_COLOUR('',#666);
#709 = STYLED_ITEM('color',(#710),#540);
#710 = PRESENTATION_STYLE_ASSIGNMENT((#711));
#711 = SURFACE_STYLE_USAGE(.BOTH.,#712);
#712 = SURFACE_SIDE_STYLE('',(#713));
#713 = SURFACE_STYLE_FILL_AREA(#714);
#714 = FILL_AREA_STYLE('',(#715));
#715 = FILL_AREA_STYLE_COLOUR('',#666);
#716 = STYLED_ITEM('color',(#717),#557);
#717 = PRESENTATION_STYLE_ASSIGNMENT((#718));
#718 = SURFACE_STYLE_USAGE(.BOTH.,#719);
#719 = SURFACE_SIDE_STYLE('',(#720));
#720 = SURFACE_STYLE_FILL_AREA(#721);
#721 = FILL_AREA_STYLE('',(#722));
#722 = FILL_AREA_STYLE_COLOUR('',#666);
#723 = STYLED_ITEM('color',(#724),#569);
#724 = PRESENTATION_STYLE_ASSIGNMENT((#725));
#725 = SURFACE_STYLE_USAGE(.BOTH.,#726);
#726 = SURFACE_SIDE_STYLE('',(#727));
#727 = SURFACE_STYLE_FILL_AREA(#728);
#728 = FILL_AREA_STYLE('',(#729));
#729 = FILL_AREA_STYLE_COLOUR('',#666);
ENDSEC;
END-ISO-10303-21;
