ISO-10303-21;
HEADER;
/* RV_Disc_D9mm_W3.7mm_P5mm.step 3D STEP model for use in ECAD systems
 * Copyright (C) 2018, kicad StepUp
 * 
 * This work is licensed under the [Creative Commons CC-BY-SA 4.0 License](https://creativecommons.org/licenses/by-sa/4.0/legalcode), 
 * with the following exception:
 * To the extent that the creation of electronic designs that use 'Licensed Material' can be considered to be 'Adapted Material', 
 * then the copyright holder waives article 3 of the license with respect to these designs and any generated files which use data provided 
 * as part of the 'Licensed Material'.
 * You are free to use the library data in your own projects without the obligation to share your project files under this or any other license agreement.
 * However, if you wish to redistribute these libraries, or parts thereof (including in modified form) as a collection then the exception above does not apply. 
 * Please refer to https://github.com/KiCad/kicad-packages3D/blob/master/LICENSE.md for further clarification of the exception.
 * Disclaimer of Warranties and Limitation of Liability.
 * These libraries are provided in the hope that they will be useful, but are provided without warranty of any kind, express or implied.
 * *USE 3D CAD DATA AT YOUR OWN RISK*
 * *DO NOT RELY UPON ANY INFORMATION FOUND HERE WITHOUT INDEPENDENT VERIFICATION.*
 * 
 */

FILE_DESCRIPTION(
/* description */ ('model of RV_Disc_D9mm_W3.7mm_P5mm'),
/* implementation_level */ '2;1');

FILE_NAME(
/* name */ 'RV_Disc_D9mm_W3.7mm_P5mm.step',
/* time_stamp */ '2018-11-11T21:10:30',
/* author */ ('kicad StepUp','ksu'),
/* organization */ ('FreeCAD'),
/* preprocessor_version */ 'OCC',
/* originating_system */ 'kicad StepUp',
/* authorisation */ '');

FILE_SCHEMA(('AUTOMOTIVE_DESIGN { 1 0 10303 214 1 1 1 1 }'));
ENDSEC;

DATA;
#1 = APPLICATION_PROTOCOL_DEFINITION('international standard',
'automotive_design',2000,#2);
#2 = APPLICATION_CONTEXT(
'core data for automotive mechanical design processes');
#3 = SHAPE_DEFINITION_REPRESENTATION(#4,#10);
#4 = PRODUCT_DEFINITION_SHAPE('','',#5);
#5 = PRODUCT_DEFINITION('design','',#6,#9);
#6 = PRODUCT_DEFINITION_FORMATION('','',#7);
#7 = PRODUCT('RV_Disc_D9mm_W37mm_P5mm','RV_Disc_D9mm_W37mm_P5mm','',(#8)
);
#8 = PRODUCT_CONTEXT('',#2,'mechanical');
#9 = PRODUCT_DEFINITION_CONTEXT('part definition',#2,'design');
#10 = ADVANCED_BREP_SHAPE_REPRESENTATION('',(#11,#15),#374);
#11 = AXIS2_PLACEMENT_3D('',#12,#13,#14);
#12 = CARTESIAN_POINT('',(0.E+000,0.E+000,0.E+000));
#13 = DIRECTION('',(0.E+000,0.E+000,1.));
#14 = DIRECTION('',(1.,0.E+000,-0.E+000));
#15 = MANIFOLD_SOLID_BREP('',#16);
#16 = CLOSED_SHELL('',(#17,#50,#140,#234,#243,#269,#278,#304,#330,#356,
#365));
#17 = ADVANCED_FACE('',(#18),#45,.T.);
#18 = FACE_BOUND('',#19,.F.);
#19 = EDGE_LOOP('',(#20,#30,#37,#38));
#20 = ORIENTED_EDGE('',*,*,#21,.T.);
#21 = EDGE_CURVE('',#22,#24,#26,.T.);
#22 = VERTEX_POINT('',#23);
#23 = CARTESIAN_POINT('',(7.,-0.70487804878,4.53));
#24 = VERTEX_POINT('',#25);
#25 = CARTESIAN_POINT('',(7.,-0.79512195122,4.53));
#26 = LINE('',#27,#28);
#27 = CARTESIAN_POINT('',(7.,1.1,4.53));
#28 = VECTOR('',#29,1.);
#29 = DIRECTION('',(0.E+000,-1.,0.E+000));
#30 = ORIENTED_EDGE('',*,*,#31,.T.);
#31 = EDGE_CURVE('',#24,#24,#32,.T.);
#32 = CIRCLE('',#33,4.5);
#33 = AXIS2_PLACEMENT_3D('',#34,#35,#36);
#34 = CARTESIAN_POINT('',(2.5,-0.79512195122,4.53));
#35 = DIRECTION('',(0.E+000,-1.,0.E+000));
#36 = DIRECTION('',(1.,0.E+000,0.E+000));
#37 = ORIENTED_EDGE('',*,*,#21,.F.);
#38 = ORIENTED_EDGE('',*,*,#39,.F.);
#39 = EDGE_CURVE('',#22,#22,#40,.T.);
#40 = CIRCLE('',#41,4.5);
#41 = AXIS2_PLACEMENT_3D('',#42,#43,#44);
#42 = CARTESIAN_POINT('',(2.5,-0.70487804878,4.53));
#43 = DIRECTION('',(0.E+000,-1.,0.E+000));
#44 = DIRECTION('',(1.,0.E+000,0.E+000));
#45 = CYLINDRICAL_SURFACE('',#46,4.5);
#46 = AXIS2_PLACEMENT_3D('',#47,#48,#49);
#47 = CARTESIAN_POINT('',(2.5,1.1,4.53));
#48 = DIRECTION('',(0.E+000,1.,0.E+000));
#49 = DIRECTION('',(1.,0.E+000,0.E+000));
#50 = ADVANCED_FACE('',(#51,#71),#135,.T.);
#51 = FACE_BOUND('',#52,.F.);
#52 = EDGE_LOOP('',(#53,#54,#63,#70));
#53 = ORIENTED_EDGE('',*,*,#39,.T.);
#54 = ORIENTED_EDGE('',*,*,#55,.T.);
#55 = EDGE_CURVE('',#22,#56,#58,.T.);
#56 = VERTEX_POINT('',#57);
#57 = CARTESIAN_POINT('',(5.19512195122,1.1,4.53));
#58 = CIRCLE('',#59,1.80487804878);
#59 = AXIS2_PLACEMENT_3D('',#60,#61,#62);
#60 = CARTESIAN_POINT('',(5.19512195122,-0.70487804878,4.53));
#61 = DIRECTION('',(0.E+000,0.E+000,1.));
#62 = DIRECTION('',(1.,0.E+000,0.E+000));
#63 = ORIENTED_EDGE('',*,*,#64,.F.);
#64 = EDGE_CURVE('',#56,#56,#65,.T.);
#65 = CIRCLE('',#66,2.69512195122);
#66 = AXIS2_PLACEMENT_3D('',#67,#68,#69);
#67 = CARTESIAN_POINT('',(2.5,1.1,4.53));
#68 = DIRECTION('',(0.E+000,-1.,0.E+000));
#69 = DIRECTION('',(1.,0.E+000,0.E+000));
#70 = ORIENTED_EDGE('',*,*,#55,.F.);
#71 = FACE_BOUND('',#72,.F.);
#72 = EDGE_LOOP('',(#73,#100));
#73 = ORIENTED_EDGE('',*,*,#74,.T.);
#74 = EDGE_CURVE('',#75,#77,#79,.T.);
#75 = VERTEX_POINT('',#76);
#76 = CARTESIAN_POINT('',(0.27,0.E+000,0.787320917464));
#77 = VERTEX_POINT('',#78);
#78 = CARTESIAN_POINT('',(-0.176683838115,-0.204163712126,1.001150912579
));
#79 = B_SPLINE_CURVE_WITH_KNOTS('',7,(#80,#81,#82,#83,#84,#85,#86,#87,
#88,#89,#90,#91,#92,#93,#94,#95,#96,#97,#98,#99),.UNSPECIFIED.,.F.,
.F.,(8,6,6,8),(0.E+000,0.219893946207,0.587263165973,1.),
.UNSPECIFIED.);
#80 = CARTESIAN_POINT('',(0.27,-1.110223024625E-016,0.787320917464));
#81 = CARTESIAN_POINT('',(0.27,-1.874667321097E-002,0.778063329183));
#82 = CARTESIAN_POINT('',(0.268481529139,-3.764588446681E-002,
0.769980956911));
#83 = CARTESIAN_POINT('',(0.265399701822,-5.655319737002E-002,
0.763165382228));
#84 = CARTESIAN_POINT('',(0.260726673449,-7.530467636551E-002,
0.757696353999));
#85 = CARTESIAN_POINT('',(0.25445869847,-9.372313023365E-002,
0.753635637878));
#86 = CARTESIAN_POINT('',(0.246623188438,-0.111624355584,0.751020865823)
);
#87 = CARTESIAN_POINT('',(0.221686067753,-0.157557196882,0.747918940707)
);
#88 = CARTESIAN_POINT('',(0.201889796232,-0.18434000312,0.750034157035)
);
#89 = CARTESIAN_POINT('',(0.178197259323,-0.208310796619,0.756246307181)
);
#90 = CARTESIAN_POINT('',(0.151161300279,-0.228699755435,0.766352296069)
);
#91 = CARTESIAN_POINT('',(0.121531916966,-0.244919820306,0.779962834335)
);
#92 = CARTESIAN_POINT('',(9.017923427821E-002,-0.256619647429,
0.796564956882));
#93 = CARTESIAN_POINT('',(2.183587758969E-002,-0.271650336474,
0.836962143026));
#94 = CARTESIAN_POINT('',(-1.536796675782E-002,-0.273768286802,
0.861389149166));
#95 = CARTESIAN_POINT('',(-5.228324870004E-002,-0.269894901995,
0.888017914289));
#96 = CARTESIAN_POINT('',(-8.766557655951E-002,-0.260370416838,
0.915947401381));
#97 = CARTESIAN_POINT('',(-0.120595160234,-0.245815712565,0.944458792276
));
#98 = CARTESIAN_POINT('',(-0.150432125038,-0.226882016839,0.97300487703)
);
#99 = CARTESIAN_POINT('',(-0.176683838115,-0.204163712126,1.001150912579
));
#100 = ORIENTED_EDGE('',*,*,#101,.T.);
#101 = EDGE_CURVE('',#77,#75,#102,.T.);
#102 = B_SPLINE_CURVE_WITH_KNOTS('',7,(#103,#104,#105,#106,#107,#108,
#109,#110,#111,#112,#113,#114,#115,#116,#117,#118,#119,#120,#121,
#122,#123,#124,#125,#126,#127,#128,#129,#130,#131,#132,#133,#134),
.UNSPECIFIED.,.F.,.F.,(8,6,6,6,6,8),(0.E+000,0.275716165224,
0.452761434224,0.61027127767,0.770506700201,1.),.UNSPECIFIED.);
#103 = CARTESIAN_POINT('',(-0.176683838115,-0.204163712126,
1.001150912579));
#104 = CARTESIAN_POINT('',(-0.208392880221,-0.176722619858,
1.035148077782));
#105 = CARTESIAN_POINT('',(-0.2348150468,-0.143808125554,1.068501315815)
);
#106 = CARTESIAN_POINT('',(-0.255085343826,-0.106528318104,
1.100416206503));
#107 = CARTESIAN_POINT('',(-0.268509171747,-6.603732456999E-002,
1.130145925269));
#108 = CARTESIAN_POINT('',(-0.274517048225,-2.360054738163E-002,
1.156863138914));
#109 = CARTESIAN_POINT('',(-0.272706888936,1.934377529038E-002,
1.179527185008));
#110 = CARTESIAN_POINT('',(-0.256736883949,8.801244061192E-002,
1.208097814519));
#111 = CARTESIAN_POINT('',(-0.247231087798,0.114386963774,1.217093496456
));
#112 = CARTESIAN_POINT('',(-0.234451602214,0.139827824811,1.223586934402
));
#113 = CARTESIAN_POINT('',(-0.218457956155,0.163818467017,1.227221631399
));
#114 = CARTESIAN_POINT('',(-0.199448027794,0.185803619011,1.227661145206
));
#115 = CARTESIAN_POINT('',(-0.177789692972,0.205252268867,1.224678757902
));
#116 = CARTESIAN_POINT('',(-0.13286933864,0.236450306275,1.212598802039)
);
#117 = CARTESIAN_POINT('',(-0.110036853567,0.248820017147,1.20420909326)
);
#118 = CARTESIAN_POINT('',(-8.590603852085E-002,0.258573287547,
1.193121299523));
#119 = CARTESIAN_POINT('',(-6.093412568175E-002,0.265527384085,
1.179484181515));
#120 = CARTESIAN_POINT('',(-3.559892925941E-002,0.269626621577,
1.163594059097));
#121 = CARTESIAN_POINT('',(-1.035857159269E-002,0.270936030734,
1.145862404593));
#122 = CARTESIAN_POINT('',(3.954240130616E-002,0.26827495564,
1.107302628639));
#123 = CARTESIAN_POINT('',(6.419946611199E-002,0.264212052677,
1.086415556484));
#124 = CARTESIAN_POINT('',(8.801145259373E-002,0.257588574102,
1.064495073429));
#125 = CARTESIAN_POINT('',(0.110716545078,0.248606735642,1.041945317761)
);
#126 = CARTESIAN_POINT('',(0.132117956787,0.237469697978,1.019123487794)
);
#127 = CARTESIAN_POINT('',(0.152063664007,0.224358011512,0.996327683819)
);
#128 = CARTESIAN_POINT('',(0.196702304276,0.188033664883,0.941572429137)
);
#129 = CARTESIAN_POINT('',(0.219687087753,0.162931760584,0.909952324108)
);
#130 = CARTESIAN_POINT('',(0.23896186591,0.134600222745,0.879734852673)
);
#131 = CARTESIAN_POINT('',(0.254091618518,0.10349797635,0.85164988958));
#132 = CARTESIAN_POINT('',(0.264593843741,7.017979946469E-002,
0.826429998044));
#133 = CARTESIAN_POINT('',(0.27,3.537138491491E-002,0.804788214984));
#134 = CARTESIAN_POINT('',(0.27,-8.326672684689E-017,0.787320917464));
#135 = TOROIDAL_SURFACE('',#136,2.69512195122,1.80487804878);
#136 = AXIS2_PLACEMENT_3D('',#137,#138,#139);
#137 = CARTESIAN_POINT('',(2.5,-0.70487804878,4.53));
#138 = DIRECTION('',(0.E+000,1.,0.E+000));
#139 = DIRECTION('',(1.,0.E+000,0.E+000));
#140 = ADVANCED_FACE('',(#141,#161),#229,.T.);
#141 = FACE_BOUND('',#142,.T.);
#142 = EDGE_LOOP('',(#143,#144,#153,#160));
#143 = ORIENTED_EDGE('',*,*,#31,.T.);
#144 = ORIENTED_EDGE('',*,*,#145,.T.);
#145 = EDGE_CURVE('',#24,#146,#148,.T.);
#146 = VERTEX_POINT('',#147);
#147 = CARTESIAN_POINT('',(5.19512195122,-2.6,4.53));
#148 = CIRCLE('',#149,1.80487804878);
#149 = AXIS2_PLACEMENT_3D('',#150,#151,#152);
#150 = CARTESIAN_POINT('',(5.19512195122,-0.79512195122,4.53));
#151 = DIRECTION('',(0.E+000,0.E+000,-1.));
#152 = DIRECTION('',(1.,0.E+000,0.E+000));
#153 = ORIENTED_EDGE('',*,*,#154,.F.);
#154 = EDGE_CURVE('',#146,#146,#155,.T.);
#155 = CIRCLE('',#156,2.69512195122);
#156 = AXIS2_PLACEMENT_3D('',#157,#158,#159);
#157 = CARTESIAN_POINT('',(2.5,-2.6,4.53));
#158 = DIRECTION('',(0.E+000,-1.,0.E+000));
#159 = DIRECTION('',(1.,0.E+000,0.E+000));
#160 = ORIENTED_EDGE('',*,*,#145,.F.);
#161 = FACE_BOUND('',#162,.T.);
#162 = EDGE_LOOP('',(#163,#182));
#163 = ORIENTED_EDGE('',*,*,#164,.T.);
#164 = EDGE_CURVE('',#165,#167,#169,.T.);
#165 = VERTEX_POINT('',#166);
#166 = CARTESIAN_POINT('',(5.27,-1.5,1.167315549319));
#167 = VERTEX_POINT('',#168);
#168 = CARTESIAN_POINT('',(5.05074211124,-1.234810938863,0.888943858646)
);
#169 = B_SPLINE_CURVE_WITH_KNOTS('',6,(#170,#171,#172,#173,#174,#175,
#176,#177,#178,#179,#180,#181),.UNSPECIFIED.,.F.,.F.,(7,5,7),(
0.E+000,0.560070134245,1.),.UNSPECIFIED.);
#170 = CARTESIAN_POINT('',(5.27,-1.5,1.167315549319));
#171 = CARTESIAN_POINT('',(5.27,-1.465061423063,1.148112272624));
#172 = CARTESIAN_POINT('',(5.264574632303,-1.430475542977,1.126034647197
));
#173 = CARTESIAN_POINT('',(5.253929413581,-1.39715586534,1.101746785816)
);
#174 = CARTESIAN_POINT('',(5.238393637914,-1.365914318614,1.075799981794
));
#175 = CARTESIAN_POINT('',(5.218374529888,-1.337496521276,1.048673367038
));
#176 = CARTESIAN_POINT('',(5.17554053079,-1.293063492351,0.999018810748)
);
#177 = CARTESIAN_POINT('',(5.154254587839,-1.275703826276,0.976761957585
));
#178 = CARTESIAN_POINT('',(5.130775346752,-1.260867603,0.954329613218));
#179 = CARTESIAN_POINT('',(5.105407686481,-1.248900566676,0.93198753719)
);
#180 = CARTESIAN_POINT('',(5.078559657388,-1.240133635866,0.910063817696
));
#181 = CARTESIAN_POINT('',(5.05074211124,-1.234810938863,0.888943858646)
);
#182 = ORIENTED_EDGE('',*,*,#183,.T.);
#183 = EDGE_CURVE('',#167,#165,#184,.T.);
#184 = B_SPLINE_CURVE_WITH_KNOTS('',7,(#185,#186,#187,#188,#189,#190,
#191,#192,#193,#194,#195,#196,#197,#198,#199,#200,#201,#202,#203,
#204,#205,#206,#207,#208,#209,#210,#211,#212,#213,#214,#215,#216,
#217,#218,#219,#220,#221,#222,#223,#224,#225,#226,#227,#228),
.UNSPECIFIED.,.F.,.F.,(8,6,6,6,6,6,6,8),(0.E+000,0.249679942579,
0.402205593891,0.542619719345,0.667976532286,0.803281743779,
0.920427166397,1.),.UNSPECIFIED.);
#185 = CARTESIAN_POINT('',(5.05074211124,-1.234810938863,0.888943858646)
);
#186 = CARTESIAN_POINT('',(5.004163293638,-1.225898401015,0.85357975014)
);
#187 = CARTESIAN_POINT('',(4.954790971162,-1.226345098976,0.820291296636
));
#188 = CARTESIAN_POINT('',(4.905263012525,-1.237399150945,0.791125495912
));
#189 = CARTESIAN_POINT('',(4.858766124752,-1.259126560426,0.768120515734
));
#190 = CARTESIAN_POINT('',(4.818290074815,-1.290238761393,0.753077507594
));
#191 = CARTESIAN_POINT('',(4.785997520995,-1.328413877583,0.747021731817
));
#192 = CARTESIAN_POINT('',(4.748743777116,-1.396834473492,0.751561719531
));
#193 = CARTESIAN_POINT('',(4.7380365922,-1.424385735264,0.756594955989)
);
#194 = CARTESIAN_POINT('',(4.730978450741,-1.452906454415,0.764915876482
));
#195 = CARTESIAN_POINT('',(4.727595110668,-1.481754727417,0.776339833848
));
#196 = CARTESIAN_POINT('',(4.727769137048,-1.510364906367,0.790577298768
));
#197 = CARTESIAN_POINT('',(4.731300540487,-1.5382767084,0.80728329797));
#198 = CARTESIAN_POINT('',(4.744106512688,-1.589813340588,0.843423321008
));
#199 = CARTESIAN_POINT('',(4.752902671011,-1.613603315199,0.862535603579
));
#200 = CARTESIAN_POINT('',(4.764186098888,-1.636195998004,0.883165585893
));
#201 = CARTESIAN_POINT('',(4.77777211504,-1.657353791039,0.905027031958)
);
#202 = CARTESIAN_POINT('',(4.793479575632,-1.676871759745,0.927827476761
));
#203 = CARTESIAN_POINT('',(4.811136462745,-1.694560399523,0.951267043006
));
#204 = CARTESIAN_POINT('',(4.847926159105,-1.724210266117,0.996240456671
));
#205 = CARTESIAN_POINT('',(4.866688261983,-1.736574720988,1.017697667993
));
#206 = CARTESIAN_POINT('',(4.886743305777,-1.74718886304,1.039180814152)
);
#207 = CARTESIAN_POINT('',(4.90796254033,-1.755902606352,1.060440209525)
);
#208 = CARTESIAN_POINT('',(4.930184858219,-1.762549435904,1.081182887308
));
#209 = CARTESIAN_POINT('',(4.95320192573,-1.766961655143,1.101079942098)
);
#210 = CARTESIAN_POINT('',(5.002163808098,-1.77119380596,1.139991907198)
);
#211 = CARTESIAN_POINT('',(5.028219084953,-1.770623346277,1.158829565067
));
#212 = CARTESIAN_POINT('',(5.05447997616,-1.767089972568,1.175796713981)
);
#213 = CARTESIAN_POINT('',(5.080450135967,-1.760499315705,1.190422424125
));
#214 = CARTESIAN_POINT('',(5.105600871639,-1.750891576546,1.202357212705
));
#215 = CARTESIAN_POINT('',(5.129418036742,-1.738454048293,1.211416663671
));
#216 = CARTESIAN_POINT('',(5.170555207832,-1.710576942239,1.222927178041
));
#217 = CARTESIAN_POINT('',(5.188330306847,-1.69575607096,1.226105391233)
);
#218 = CARTESIAN_POINT('',(5.204516589369,-1.679249128771,1.227107718857
));
#219 = CARTESIAN_POINT('',(5.218903614621,-1.661309077375,1.226017462553
));
#220 = CARTESIAN_POINT('',(5.231350349248,-1.642209979862,1.222976301512
));
#221 = CARTESIAN_POINT('',(5.241778386846,-1.622223292216,1.218152861365
));
#222 = CARTESIAN_POINT('',(5.255842340461,-1.587597025704,1.207346377088
));
#223 = CARTESIAN_POINT('',(5.260584476066,-1.573297293242,1.202231062103
));
#224 = CARTESIAN_POINT('',(5.264369767839,-1.558782147218,1.19642472437)
);
#225 = CARTESIAN_POINT('',(5.26719657258,-1.544126191049,1.189980196086)
);
#226 = CARTESIAN_POINT('',(5.269069963329,-1.529400241286,1.182948806359
));
#227 = CARTESIAN_POINT('',(5.27,-1.514670878806,1.175379098833));
#228 = CARTESIAN_POINT('',(5.27,-1.5,1.167315549319));
#229 = TOROIDAL_SURFACE('',#230,2.69512195122,1.80487804878);
#230 = AXIS2_PLACEMENT_3D('',#231,#232,#233);
#231 = CARTESIAN_POINT('',(2.5,-0.79512195122,4.53));
#232 = DIRECTION('',(0.E+000,-1.,0.E+000));
#233 = DIRECTION('',(1.,0.E+000,0.E+000));
#234 = ADVANCED_FACE('',(#235),#238,.F.);
#235 = FACE_BOUND('',#236,.F.);
#236 = EDGE_LOOP('',(#237));
#237 = ORIENTED_EDGE('',*,*,#64,.T.);
#238 = PLANE('',#239);
#239 = AXIS2_PLACEMENT_3D('',#240,#241,#242);
#240 = CARTESIAN_POINT('',(2.5,1.1,4.53));
#241 = DIRECTION('',(-0.E+000,-1.,-0.E+000));
#242 = DIRECTION('',(0.E+000,0.E+000,-1.));
#243 = ADVANCED_FACE('',(#244),#264,.T.);
#244 = FACE_BOUND('',#245,.T.);
#245 = EDGE_LOOP('',(#246,#247,#255,#262,#263));
#246 = ORIENTED_EDGE('',*,*,#101,.T.);
#247 = ORIENTED_EDGE('',*,*,#248,.T.);
#248 = EDGE_CURVE('',#75,#249,#251,.T.);
#249 = VERTEX_POINT('',#250);
#250 = CARTESIAN_POINT('',(0.27,0.E+000,-2.892));
#251 = LINE('',#252,#253);
#252 = CARTESIAN_POINT('',(0.27,0.E+000,4.53));
#253 = VECTOR('',#254,1.);
#254 = DIRECTION('',(-0.E+000,-0.E+000,-1.));
#255 = ORIENTED_EDGE('',*,*,#256,.T.);
#256 = EDGE_CURVE('',#249,#249,#257,.T.);
#257 = CIRCLE('',#258,0.27);
#258 = AXIS2_PLACEMENT_3D('',#259,#260,#261);
#259 = CARTESIAN_POINT('',(0.E+000,0.E+000,-2.892));
#260 = DIRECTION('',(0.E+000,0.E+000,1.));
#261 = DIRECTION('',(1.,0.E+000,0.E+000));
#262 = ORIENTED_EDGE('',*,*,#248,.F.);
#263 = ORIENTED_EDGE('',*,*,#74,.T.);
#264 = CYLINDRICAL_SURFACE('',#265,0.27);
#265 = AXIS2_PLACEMENT_3D('',#266,#267,#268);
#266 = CARTESIAN_POINT('',(0.E+000,0.E+000,4.53));
#267 = DIRECTION('',(0.E+000,0.E+000,1.));
#268 = DIRECTION('',(1.,0.E+000,0.E+000));
#269 = ADVANCED_FACE('',(#270),#273,.T.);
#270 = FACE_BOUND('',#271,.T.);
#271 = EDGE_LOOP('',(#272));
#272 = ORIENTED_EDGE('',*,*,#154,.T.);
#273 = PLANE('',#274);
#274 = AXIS2_PLACEMENT_3D('',#275,#276,#277);
#275 = CARTESIAN_POINT('',(2.5,-2.6,4.53));
#276 = DIRECTION('',(-0.E+000,-1.,-0.E+000));
#277 = DIRECTION('',(0.E+000,0.E+000,-1.));
#278 = ADVANCED_FACE('',(#279),#299,.T.);
#279 = FACE_BOUND('',#280,.T.);
#280 = EDGE_LOOP('',(#281,#282,#290,#297,#298));
#281 = ORIENTED_EDGE('',*,*,#164,.F.);
#282 = ORIENTED_EDGE('',*,*,#283,.T.);
#283 = EDGE_CURVE('',#165,#284,#286,.T.);
#284 = VERTEX_POINT('',#285);
#285 = CARTESIAN_POINT('',(5.27,-1.5,-2.892));
#286 = LINE('',#287,#288);
#287 = CARTESIAN_POINT('',(5.27,-1.5,4.53));
#288 = VECTOR('',#289,1.);
#289 = DIRECTION('',(-0.E+000,-0.E+000,-1.));
#290 = ORIENTED_EDGE('',*,*,#291,.T.);
#291 = EDGE_CURVE('',#284,#284,#292,.T.);
#292 = CIRCLE('',#293,0.27);
#293 = AXIS2_PLACEMENT_3D('',#294,#295,#296);
#294 = CARTESIAN_POINT('',(5.,-1.5,-2.892));
#295 = DIRECTION('',(0.E+000,0.E+000,1.));
#296 = DIRECTION('',(1.,0.E+000,0.E+000));
#297 = ORIENTED_EDGE('',*,*,#283,.F.);
#298 = ORIENTED_EDGE('',*,*,#183,.F.);
#299 = CYLINDRICAL_SURFACE('',#300,0.27);
#300 = AXIS2_PLACEMENT_3D('',#301,#302,#303);
#301 = CARTESIAN_POINT('',(5.,-1.5,4.53));
#302 = DIRECTION('',(0.E+000,0.E+000,1.));
#303 = DIRECTION('',(1.,0.E+000,0.E+000));
#304 = ADVANCED_FACE('',(#305),#325,.T.);
#305 = FACE_BOUND('',#306,.F.);
#306 = EDGE_LOOP('',(#307,#316,#317,#318));
#307 = ORIENTED_EDGE('',*,*,#308,.F.);
#308 = EDGE_CURVE('',#249,#309,#311,.T.);
#309 = VERTEX_POINT('',#310);
#310 = CARTESIAN_POINT('',(0.162,0.E+000,-3.));
#311 = CIRCLE('',#312,0.108);
#312 = AXIS2_PLACEMENT_3D('',#313,#314,#315);
#313 = CARTESIAN_POINT('',(0.162,0.E+000,-2.892));
#314 = DIRECTION('',(-0.E+000,1.,0.E+000));
#315 = DIRECTION('',(1.,0.E+000,0.E+000));
#316 = ORIENTED_EDGE('',*,*,#256,.T.);
#317 = ORIENTED_EDGE('',*,*,#308,.T.);
#318 = ORIENTED_EDGE('',*,*,#319,.F.);
#319 = EDGE_CURVE('',#309,#309,#320,.T.);
#320 = CIRCLE('',#321,0.162);
#321 = AXIS2_PLACEMENT_3D('',#322,#323,#324);
#322 = CARTESIAN_POINT('',(0.E+000,0.E+000,-3.));
#323 = DIRECTION('',(0.E+000,0.E+000,1.));
#324 = DIRECTION('',(1.,0.E+000,0.E+000));
#325 = TOROIDAL_SURFACE('',#326,0.162,0.108);
#326 = AXIS2_PLACEMENT_3D('',#327,#328,#329);
#327 = CARTESIAN_POINT('',(0.E+000,0.E+000,-2.892));
#328 = DIRECTION('',(-0.E+000,-0.E+000,-1.));
#329 = DIRECTION('',(1.,0.E+000,0.E+000));
#330 = ADVANCED_FACE('',(#331),#351,.T.);
#331 = FACE_BOUND('',#332,.F.);
#332 = EDGE_LOOP('',(#333,#342,#343,#344));
#333 = ORIENTED_EDGE('',*,*,#334,.F.);
#334 = EDGE_CURVE('',#284,#335,#337,.T.);
#335 = VERTEX_POINT('',#336);
#336 = CARTESIAN_POINT('',(5.162,-1.5,-3.));
#337 = CIRCLE('',#338,0.108);
#338 = AXIS2_PLACEMENT_3D('',#339,#340,#341);
#339 = CARTESIAN_POINT('',(5.162,-1.5,-2.892));
#340 = DIRECTION('',(-0.E+000,1.,0.E+000));
#341 = DIRECTION('',(1.,0.E+000,0.E+000));
#342 = ORIENTED_EDGE('',*,*,#291,.T.);
#343 = ORIENTED_EDGE('',*,*,#334,.T.);
#344 = ORIENTED_EDGE('',*,*,#345,.F.);
#345 = EDGE_CURVE('',#335,#335,#346,.T.);
#346 = CIRCLE('',#347,0.162);
#347 = AXIS2_PLACEMENT_3D('',#348,#349,#350);
#348 = CARTESIAN_POINT('',(5.,-1.5,-3.));
#349 = DIRECTION('',(0.E+000,0.E+000,1.));
#350 = DIRECTION('',(1.,0.E+000,0.E+000));
#351 = TOROIDAL_SURFACE('',#352,0.162,0.108);
#352 = AXIS2_PLACEMENT_3D('',#353,#354,#355);
#353 = CARTESIAN_POINT('',(5.,-1.5,-2.892));
#354 = DIRECTION('',(-0.E+000,-0.E+000,-1.));
#355 = DIRECTION('',(1.,0.E+000,0.E+000));
#356 = ADVANCED_FACE('',(#357),#360,.F.);
#357 = FACE_BOUND('',#358,.F.);
#358 = EDGE_LOOP('',(#359));
#359 = ORIENTED_EDGE('',*,*,#319,.T.);
#360 = PLANE('',#361);
#361 = AXIS2_PLACEMENT_3D('',#362,#363,#364);
#362 = CARTESIAN_POINT('',(-1.978356673234E-017,2.854531227236E-017,-3.)
);
#363 = DIRECTION('',(0.E+000,0.E+000,1.));
#364 = DIRECTION('',(1.,0.E+000,0.E+000));
#365 = ADVANCED_FACE('',(#366),#369,.F.);
#366 = FACE_BOUND('',#367,.F.);
#367 = EDGE_LOOP('',(#368));
#368 = ORIENTED_EDGE('',*,*,#345,.T.);
#369 = PLANE('',#370);
#370 = AXIS2_PLACEMENT_3D('',#371,#372,#373);
#371 = CARTESIAN_POINT('',(5.,-1.5,-3.));
#372 = DIRECTION('',(0.E+000,0.E+000,1.));
#373 = DIRECTION('',(1.,0.E+000,0.E+000));
#374 = ( GEOMETRIC_REPRESENTATION_CONTEXT(3)
GLOBAL_UNCERTAINTY_ASSIGNED_CONTEXT((#378)) GLOBAL_UNIT_ASSIGNED_CONTEXT
((#375,#376,#377)) REPRESENTATION_CONTEXT('Context #1',
'3D Context with UNIT and UNCERTAINTY') );
#375 = ( LENGTH_UNIT() NAMED_UNIT(*) SI_UNIT(.MILLI.,.METRE.) );
#376 = ( NAMED_UNIT(*) PLANE_ANGLE_UNIT() SI_UNIT($,.RADIAN.) );
#377 = ( NAMED_UNIT(*) SI_UNIT($,.STERADIAN.) SOLID_ANGLE_UNIT() );
#378 = UNCERTAINTY_MEASURE_WITH_UNIT(LENGTH_MEASURE(1.E-007),#375,
'distance_accuracy_value','confusion accuracy');
#379 = PRODUCT_RELATED_PRODUCT_CATEGORY('part',$,(#7));
#380 = MECHANICAL_DESIGN_GEOMETRIC_PRESENTATION_REPRESENTATION('',(#381,
#389,#396,#403,#410,#418,#425,#432,#439,#446,#453),#374);
#381 = STYLED_ITEM('color',(#382),#17);
#382 = PRESENTATION_STYLE_ASSIGNMENT((#383));
#383 = SURFACE_STYLE_USAGE(.BOTH.,#384);
#384 = SURFACE_SIDE_STYLE('',(#385));
#385 = SURFACE_STYLE_FILL_AREA(#386);
#386 = FILL_AREA_STYLE('',(#387));
#387 = FILL_AREA_STYLE_COLOUR('',#388);
#388 = COLOUR_RGB('',0.136999994516,0.402000010014,0.726999998093);
#389 = STYLED_ITEM('color',(#390),#50);
#390 = PRESENTATION_STYLE_ASSIGNMENT((#391));
#391 = SURFACE_STYLE_USAGE(.BOTH.,#392);
#392 = SURFACE_SIDE_STYLE('',(#393));
#393 = SURFACE_STYLE_FILL_AREA(#394);
#394 = FILL_AREA_STYLE('',(#395));
#395 = FILL_AREA_STYLE_COLOUR('',#388);
#396 = STYLED_ITEM('color',(#397),#140);
#397 = PRESENTATION_STYLE_ASSIGNMENT((#398));
#398 = SURFACE_STYLE_USAGE(.BOTH.,#399);
#399 = SURFACE_SIDE_STYLE('',(#400));
#400 = SURFACE_STYLE_FILL_AREA(#401);
#401 = FILL_AREA_STYLE('',(#402));
#402 = FILL_AREA_STYLE_COLOUR('',#388);
#403 = STYLED_ITEM('color',(#404),#234);
#404 = PRESENTATION_STYLE_ASSIGNMENT((#405));
#405 = SURFACE_STYLE_USAGE(.BOTH.,#406);
#406 = SURFACE_SIDE_STYLE('',(#407));
#407 = SURFACE_STYLE_FILL_AREA(#408);
#408 = FILL_AREA_STYLE('',(#409));
#409 = FILL_AREA_STYLE_COLOUR('',#388);
#410 = STYLED_ITEM('color',(#411),#243);
#411 = PRESENTATION_STYLE_ASSIGNMENT((#412));
#412 = SURFACE_STYLE_USAGE(.BOTH.,#413);
#413 = SURFACE_SIDE_STYLE('',(#414));
#414 = SURFACE_STYLE_FILL_AREA(#415);
#415 = FILL_AREA_STYLE('',(#416));
#416 = FILL_AREA_STYLE_COLOUR('',#417);
#417 = COLOUR_RGB('',0.824000000954,0.819999992847,0.78100001812);
#418 = STYLED_ITEM('color',(#419),#269);
#419 = PRESENTATION_STYLE_ASSIGNMENT((#420));
#420 = SURFACE_STYLE_USAGE(.BOTH.,#421);
#421 = SURFACE_SIDE_STYLE('',(#422));
#422 = SURFACE_STYLE_FILL_AREA(#423);
#423 = FILL_AREA_STYLE('',(#424));
#424 = FILL_AREA_STYLE_COLOUR('',#388);
#425 = STYLED_ITEM('color',(#426),#278);
#426 = PRESENTATION_STYLE_ASSIGNMENT((#427));
#427 = SURFACE_STYLE_USAGE(.BOTH.,#428);
#428 = SURFACE_SIDE_STYLE('',(#429));
#429 = SURFACE_STYLE_FILL_AREA(#430);
#430 = FILL_AREA_STYLE('',(#431));
#431 = FILL_AREA_STYLE_COLOUR('',#417);
#432 = STYLED_ITEM('color',(#433),#304);
#433 = PRESENTATION_STYLE_ASSIGNMENT((#434));
#434 = SURFACE_STYLE_USAGE(.BOTH.,#435);
#435 = SURFACE_SIDE_STYLE('',(#436));
#436 = SURFACE_STYLE_FILL_AREA(#437);
#437 = FILL_AREA_STYLE('',(#438));
#438 = FILL_AREA_STYLE_COLOUR('',#417);
#439 = STYLED_ITEM('color',(#440),#330);
#440 = PRESENTATION_STYLE_ASSIGNMENT((#441));
#441 = SURFACE_STYLE_USAGE(.BOTH.,#442);
#442 = SURFACE_SIDE_STYLE('',(#443));
#443 = SURFACE_STYLE_FILL_AREA(#444);
#444 = FILL_AREA_STYLE('',(#445));
#445 = FILL_AREA_STYLE_COLOUR('',#417);
#446 = STYLED_ITEM('color',(#447),#356);
#447 = PRESENTATION_STYLE_ASSIGNMENT((#448));
#448 = SURFACE_STYLE_USAGE(.BOTH.,#449);
#449 = SURFACE_SIDE_STYLE('',(#450));
#450 = SURFACE_STYLE_FILL_AREA(#451);
#451 = FILL_AREA_STYLE('',(#452));
#452 = FILL_AREA_STYLE_COLOUR('',#417);
#453 = STYLED_ITEM('color',(#454),#365);
#454 = PRESENTATION_STYLE_ASSIGNMENT((#455));
#455 = SURFACE_STYLE_USAGE(.BOTH.,#456);
#456 = SURFACE_SIDE_STYLE('',(#457));
#457 = SURFACE_STYLE_FILL_AREA(#458);
#458 = FILL_AREA_STYLE('',(#459));
#459 = FILL_AREA_STYLE_COLOUR('',#417);
ENDSEC;
END-ISO-10303-21;
