ISO-10303-21;
HEADER;
/* RV_Disc_D21.5mm_W5.1mm_P10mm.step 3D STEP model for use in ECAD systems
 * Copyright (C) 2018, kicad StepUp
 * 
 * This work is licensed under the [Creative Commons CC-BY-SA 4.0 License](https://creativecommons.org/licenses/by-sa/4.0/legalcode), 
 * with the following exception:
 * To the extent that the creation of electronic designs that use 'Licensed Material' can be considered to be 'Adapted Material', 
 * then the copyright holder waives article 3 of the license with respect to these designs and any generated files which use data provided 
 * as part of the 'Licensed Material'.
 * You are free to use the library data in your own projects without the obligation to share your project files under this or any other license agreement.
 * However, if you wish to redistribute these libraries, or parts thereof (including in modified form) as a collection then the exception above does not apply. 
 * Please refer to https://github.com/KiCad/kicad-packages3D/blob/master/LICENSE.md for further clarification of the exception.
 * Disclaimer of Warranties and Limitation of Liability.
 * These libraries are provided in the hope that they will be useful, but are provided without warranty of any kind, express or implied.
 * *USE 3D CAD DATA AT YOUR OWN RISK*
 * *DO NOT RELY UPON ANY INFORMATION FOUND HERE WITHOUT INDEPENDENT VERIFICATION.*
 * 
 */

FILE_DESCRIPTION(
/* description */ ('model of RV_Disc_D21.5mm_W5.1mm_P10mm'),
/* implementation_level */ '2;1');

FILE_NAME(
/* name */ 'RV_Disc_D21.5mm_W5.1mm_P10mm.step',
/* time_stamp */ '2018-11-11T21:03:34',
/* author */ ('kicad StepUp','ksu'),
/* organization */ ('FreeCAD'),
/* preprocessor_version */ 'OCC',
/* originating_system */ 'kicad StepUp',
/* authorisation */ '');

FILE_SCHEMA(('AUTOMOTIVE_DESIGN { 1 0 10303 214 1 1 1 1 }'));
ENDSEC;

DATA;
#1 = APPLICATION_PROTOCOL_DEFINITION('international standard',
'automotive_design',2000,#2);
#2 = APPLICATION_CONTEXT(
'core data for automotive mechanical design processes');
#3 = SHAPE_DEFINITION_REPRESENTATION(#4,#10);
#4 = PRODUCT_DEFINITION_SHAPE('','',#5);
#5 = PRODUCT_DEFINITION('design','',#6,#9);
#6 = PRODUCT_DEFINITION_FORMATION('','',#7);
#7 = PRODUCT('RV_Disc_D215mm_W51mm_P10mm','RV_Disc_D215mm_W51mm_P10mm',
'',(#8));
#8 = PRODUCT_CONTEXT('',#2,'mechanical');
#9 = PRODUCT_DEFINITION_CONTEXT('part definition',#2,'design');
#10 = ADVANCED_BREP_SHAPE_REPRESENTATION('',(#11,#15),#392);
#11 = AXIS2_PLACEMENT_3D('',#12,#13,#14);
#12 = CARTESIAN_POINT('',(0.E+000,0.E+000,0.E+000));
#13 = DIRECTION('',(0.E+000,0.E+000,1.));
#14 = DIRECTION('',(1.,0.E+000,-0.E+000));
#15 = MANIFOLD_SOLID_BREP('',#16);
#16 = CLOSED_SHELL('',(#17,#50,#155,#252,#261,#287,#296,#322,#348,#374,
#383));
#17 = ADVANCED_FACE('',(#18),#45,.T.);
#18 = FACE_BOUND('',#19,.F.);
#19 = EDGE_LOOP('',(#20,#30,#37,#38));
#20 = ORIENTED_EDGE('',*,*,#21,.T.);
#21 = EDGE_CURVE('',#22,#24,#26,.T.);
#22 = VERTEX_POINT('',#23);
#23 = CARTESIAN_POINT('',(15.75,-1.012804878049,10.78));
#24 = VERTEX_POINT('',#25);
#25 = CARTESIAN_POINT('',(15.75,-1.137195121951,10.78));
#26 = LINE('',#27,#28);
#27 = CARTESIAN_POINT('',(15.75,1.475,10.78));
#28 = VECTOR('',#29,1.);
#29 = DIRECTION('',(0.E+000,-1.,0.E+000));
#30 = ORIENTED_EDGE('',*,*,#31,.T.);
#31 = EDGE_CURVE('',#24,#24,#32,.T.);
#32 = CIRCLE('',#33,10.75);
#33 = AXIS2_PLACEMENT_3D('',#34,#35,#36);
#34 = CARTESIAN_POINT('',(5.,-1.137195121951,10.78));
#35 = DIRECTION('',(1.137711779659E-033,-1.,-3.413135338977E-033));
#36 = DIRECTION('',(1.,1.137711779659E-033,7.898804414649E-034));
#37 = ORIENTED_EDGE('',*,*,#21,.F.);
#38 = ORIENTED_EDGE('',*,*,#39,.F.);
#39 = EDGE_CURVE('',#22,#22,#40,.T.);
#40 = CIRCLE('',#41,10.75);
#41 = AXIS2_PLACEMENT_3D('',#42,#43,#44);
#42 = CARTESIAN_POINT('',(5.,-1.012804878049,10.78));
#43 = DIRECTION('',(1.137711779659E-033,-1.,-3.413135338977E-033));
#44 = DIRECTION('',(1.,1.137711779659E-033,-7.898804414649E-034));
#45 = CYLINDRICAL_SURFACE('',#46,10.75);
#46 = AXIS2_PLACEMENT_3D('',#47,#48,#49);
#47 = CARTESIAN_POINT('',(5.,1.475,10.78));
#48 = DIRECTION('',(0.E+000,1.,0.E+000));
#49 = DIRECTION('',(1.,0.E+000,0.E+000));
#50 = ADVANCED_FACE('',(#51,#71),#150,.T.);
#51 = FACE_BOUND('',#52,.F.);
#52 = EDGE_LOOP('',(#53,#54,#63,#70));
#53 = ORIENTED_EDGE('',*,*,#39,.T.);
#54 = ORIENTED_EDGE('',*,*,#55,.T.);
#55 = EDGE_CURVE('',#22,#56,#58,.T.);
#56 = VERTEX_POINT('',#57);
#57 = CARTESIAN_POINT('',(13.262195121951,1.475,10.78));
#58 = CIRCLE('',#59,2.487804878049);
#59 = AXIS2_PLACEMENT_3D('',#60,#61,#62);
#60 = CARTESIAN_POINT('',(13.262195121951,-1.012804878049,10.78));
#61 = DIRECTION('',(7.898804414649E-034,-3.413135338977E-033,1.));
#62 = DIRECTION('',(1.,1.137711779659E-033,-7.898804414649E-034));
#63 = ORIENTED_EDGE('',*,*,#64,.F.);
#64 = EDGE_CURVE('',#56,#56,#65,.T.);
#65 = CIRCLE('',#66,8.262195121951);
#66 = AXIS2_PLACEMENT_3D('',#67,#68,#69);
#67 = CARTESIAN_POINT('',(5.,1.475,10.78));
#68 = DIRECTION('',(1.137711779659E-033,-1.,-3.413135338977E-033));
#69 = DIRECTION('',(1.,1.137711779659E-033,-7.898804414649E-034));
#70 = ORIENTED_EDGE('',*,*,#55,.F.);
#71 = FACE_BOUND('',#72,.F.);
#72 = EDGE_LOOP('',(#73,#103));
#73 = ORIENTED_EDGE('',*,*,#74,.T.);
#74 = EDGE_CURVE('',#75,#77,#79,.T.);
#75 = VERTEX_POINT('',#76);
#76 = CARTESIAN_POINT('',(0.45,0.E+000,1.278772236535));
#77 = VERTEX_POINT('',#78);
#78 = CARTESIAN_POINT('',(-0.284317700056,-0.348802874751,1.522231424693
));
#79 = B_SPLINE_CURVE_WITH_KNOTS('',8,(#80,#81,#82,#83,#84,#85,#86,#87,
#88,#89,#90,#91,#92,#93,#94,#95,#96,#97,#98,#99,#100,#101,#102),
.UNSPECIFIED.,.F.,.F.,(9,7,7,9),(0.E+000,0.234119981225,0.445610848317
,1.),.UNSPECIFIED.);
#80 = CARTESIAN_POINT('',(0.45,-5.551115123126E-017,1.278772236535));
#81 = CARTESIAN_POINT('',(0.45,-2.78364908178E-002,1.265015770502));
#82 = CARTESIAN_POINT('',(0.44803204909,-5.595331556374E-002,
1.252585407535));
#83 = CARTESIAN_POINT('',(0.444026908193,-8.419227102193E-002,
1.24159341987));
#84 = CARTESIAN_POINT('',(0.437928442418,-0.11237539165,1.232142560311)
);
#85 = CARTESIAN_POINT('',(0.42970087844,-0.140304755058,1.224320246005)
);
#86 = CARTESIAN_POINT('',(0.419336166341,-0.167765325728,1.218192939265)
);
#87 = CARTESIAN_POINT('',(0.406861445917,-0.19453083696,1.213800725438)
);
#88 = CARTESIAN_POINT('',(0.379234735062,-0.2437168115,1.208759457092));
#89 = CARTESIAN_POINT('',(0.364455108847,-0.266312539122,1.207789097567)
);
#90 = CARTESIAN_POINT('',(0.348057838844,-0.287990559298,1.208248570011)
);
#91 = CARTESIAN_POINT('',(0.330115552266,-0.308590888581,1.210123299449)
);
#92 = CARTESIAN_POINT('',(0.310720942202,-0.327964967475,1.213379722178)
);
#93 = CARTESIAN_POINT('',(0.28998430632,-0.345977733219,1.217968432772)
);
#94 = CARTESIAN_POINT('',(0.268031085573,-0.362509692565,1.223827331084)
);
#95 = CARTESIAN_POINT('',(0.18462556646,-0.416646175403,1.249384703591)
);
#96 = CARTESIAN_POINT('',(0.116011555368,-0.445496568737,1.27637409037)
);
#97 = CARTESIAN_POINT('',(4.226312244403E-002,-0.461010887091,
1.310663200579));
#98 = CARTESIAN_POINT('',(-3.265636873976E-002,-0.462234039155,
1.349913094943));
#99 = CARTESIAN_POINT('',(-0.105166398074,-0.449817074656,1.39205381032)
);
#100 = CARTESIAN_POINT('',(-0.172424371538,-0.425381285233,
1.435539006782));
#101 = CARTESIAN_POINT('',(-0.23252633788,-0.39101927273,1.479206605898)
);
#102 = CARTESIAN_POINT('',(-0.284317700056,-0.348802874751,
1.522231424693));
#103 = ORIENTED_EDGE('',*,*,#104,.T.);
#104 = EDGE_CURVE('',#77,#75,#105,.T.);
#105 = B_SPLINE_CURVE_WITH_KNOTS('',7,(#106,#107,#108,#109,#110,#111,
#112,#113,#114,#115,#116,#117,#118,#119,#120,#121,#122,#123,#124,
#125,#126,#127,#128,#129,#130,#131,#132,#133,#134,#135,#136,#137,
#138,#139,#140,#141,#142,#143,#144,#145,#146,#147,#148,#149),
.UNSPECIFIED.,.F.,.F.,(8,6,6,6,6,6,6,8),(0.E+000,8.122407769252E-002,
0.351970780947,0.407072359583,0.498980897916,0.632047398226,
0.788920008227,1.),.UNSPECIFIED.);
#106 = CARTESIAN_POINT('',(-0.284317700056,-0.348802874751,
1.522231424693));
#107 = CARTESIAN_POINT('',(-0.300632737896,-0.335504090908,
1.535784872936));
#108 = CARTESIAN_POINT('',(-0.31614681001,-0.321376330128,1.549307156255
));
#109 = CARTESIAN_POINT('',(-0.330822152629,-0.306474985299,
1.562777047913));
#110 = CARTESIAN_POINT('',(-0.344624723668,-0.29085554967,1.576175025865
));
#111 = CARTESIAN_POINT('',(-0.357523864831,-0.274573507085,
1.589482654406));
#112 = CARTESIAN_POINT('',(-0.369491963727,-0.257684222207,
1.602681965823));
#113 = CARTESIAN_POINT('',(-0.417211259988,-0.182104906968,
1.659331060359));
#114 = CARTESIAN_POINT('',(-0.443251577473,-0.117903580593,
1.701448722308));
#115 = CARTESIAN_POINT('',(-0.457815354559,-4.960718732924E-002,
1.74152268697));
#116 = CARTESIAN_POINT('',(-0.46023527028,2.080286495261E-002,
1.778835984521));
#117 = CARTESIAN_POINT('',(-0.450055355474,9.113935672494E-002,
1.812357954091));
#118 = CARTESIAN_POINT('',(-0.427087865482,0.15902242477,1.840469163927)
);
#119 = CARTESIAN_POINT('',(-0.384358190951,0.234486325514,1.865040596708
));
#120 = CARTESIAN_POINT('',(-0.376615955416,0.247028131463,1.868875435976
));
#121 = CARTESIAN_POINT('',(-0.368360994369,0.259326194324,1.872370715003
));
#122 = CARTESIAN_POINT('',(-0.359598799332,0.27135488548,1.875505987201)
);
#123 = CARTESIAN_POINT('',(-0.350336868643,0.283087685967,1.878260123124
));
#124 = CARTESIAN_POINT('',(-0.340585061648,0.294497468196,1.880611751785
));
#125 = CARTESIAN_POINT('',(-0.313293965632,0.324003526281,1.885755491577
));
#126 = CARTESIAN_POINT('',(-0.294903102212,0.34147632369,1.887792608279)
);
#127 = CARTESIAN_POINT('',(-0.275242652101,0.357845967382,1.888553112516
));
#128 = CARTESIAN_POINT('',(-0.254396045004,0.372980123107,1.887940462929
));
#129 = CARTESIAN_POINT('',(-0.232472129371,0.386751828113,1.885871515332
));
#130 = CARTESIAN_POINT('',(-0.209606450886,0.399047994389,1.882288521678
));
#131 = CARTESIAN_POINT('',(-0.151730524512,0.42531284039,1.86976209455)
);
#132 = CARTESIAN_POINT('',(-0.115835691289,0.43757910453,1.859130227792)
);
#133 = CARTESIAN_POINT('',(-7.879884800964E-002,0.44627675963,
1.84521220453));
#134 = CARTESIAN_POINT('',(-4.123783980609E-002,0.451241585939,
1.828122078889));
#135 = CARTESIAN_POINT('',(-3.817976073189E-003,0.452485106663,
1.808210638768));
#136 = CARTESIAN_POINT('',(3.279926894781E-002,0.450214318172,
1.786052172827));
#137 = CARTESIAN_POINT('',(0.109518521328,0.438484873968,1.734426262545)
);
#138 = CARTESIAN_POINT('',(0.149223697629,0.427789502743,1.704257943161)
);
#139 = CARTESIAN_POINT('',(0.186766425208,0.41324793449,1.672551905652)
);
#140 = CARTESIAN_POINT('',(0.221932359923,0.395305972527,1.639933177865)
);
#141 = CARTESIAN_POINT('',(0.254589783564,0.374330208052,1.606916285848)
);
#142 = CARTESIAN_POINT('',(0.284639330745,0.350598329112,1.573906796077)
);
#143 = CARTESIAN_POINT('',(0.348756207086,0.288918586291,1.497289203992)
);
#144 = CARTESIAN_POINT('',(0.380563769833,0.248950055172,1.454032049523)
);
#145 = CARTESIAN_POINT('',(0.407108522817,0.204937740831,1.412348674097)
);
#146 = CARTESIAN_POINT('',(0.427941791664,0.157346478082,1.373084046267)
);
#147 = CARTESIAN_POINT('',(0.442461190175,0.106742035034,1.337133100677)
);
#148 = CARTESIAN_POINT('',(0.45,5.392200558852E-002,1.305419856853));
#149 = CARTESIAN_POINT('',(0.45,-5.551115123126E-017,1.278772236535));
#150 = TOROIDAL_SURFACE('',#151,8.262195121951,2.487804878049);
#151 = AXIS2_PLACEMENT_3D('',#152,#153,#154);
#152 = CARTESIAN_POINT('',(5.,-1.012804878049,10.78));
#153 = DIRECTION('',(-1.137711779659E-033,1.,3.413135338977E-033));
#154 = DIRECTION('',(1.,1.137711779659E-033,-7.898804414649E-034));
#155 = ADVANCED_FACE('',(#156,#176),#247,.T.);
#156 = FACE_BOUND('',#157,.T.);
#157 = EDGE_LOOP('',(#158,#159,#168,#175));
#158 = ORIENTED_EDGE('',*,*,#31,.T.);
#159 = ORIENTED_EDGE('',*,*,#160,.T.);
#160 = EDGE_CURVE('',#24,#161,#163,.T.);
#161 = VERTEX_POINT('',#162);
#162 = CARTESIAN_POINT('',(13.262195121951,-3.625,10.78));
#163 = CIRCLE('',#164,2.487804878049);
#164 = AXIS2_PLACEMENT_3D('',#165,#166,#167);
#165 = CARTESIAN_POINT('',(13.262195121951,-1.137195121951,10.78));
#166 = DIRECTION('',(7.898804414649E-034,3.413135338977E-033,-1.));
#167 = DIRECTION('',(1.,1.137711779659E-033,7.898804414649E-034));
#168 = ORIENTED_EDGE('',*,*,#169,.F.);
#169 = EDGE_CURVE('',#161,#161,#170,.T.);
#170 = CIRCLE('',#171,8.262195121951);
#171 = AXIS2_PLACEMENT_3D('',#172,#173,#174);
#172 = CARTESIAN_POINT('',(5.,-3.625,10.78));
#173 = DIRECTION('',(1.137711779659E-033,-1.,-3.413135338977E-033));
#174 = DIRECTION('',(1.,1.137711779659E-033,7.898804414649E-034));
#175 = ORIENTED_EDGE('',*,*,#160,.F.);
#176 = FACE_BOUND('',#177,.T.);
#177 = EDGE_LOOP('',(#178,#202));
#178 = ORIENTED_EDGE('',*,*,#179,.T.);
#179 = EDGE_CURVE('',#180,#182,#184,.T.);
#180 = VERTEX_POINT('',#181);
#181 = CARTESIAN_POINT('',(10.45,-2.15,1.764827843394));
#182 = VERTEX_POINT('',#183);
#183 = CARTESIAN_POINT('',(9.80518786788,-1.744354547445,1.247899411339)
);
#184 = B_SPLINE_CURVE_WITH_KNOTS('',6,(#185,#186,#187,#188,#189,#190,
#191,#192,#193,#194,#195,#196,#197,#198,#199,#200,#201),
.UNSPECIFIED.,.F.,.F.,(7,5,5,7),(0.E+000,0.294183489313,0.676585595146
,1.),.UNSPECIFIED.);
#185 = CARTESIAN_POINT('',(10.45,-2.15,1.764827843394));
#186 = CARTESIAN_POINT('',(10.45,-2.107150364281,1.742510359325));
#187 = CARTESIAN_POINT('',(10.445103768067,-2.064545225529,
1.718736147959));
#188 = CARTESIAN_POINT('',(10.435415947709,-2.022759984134,
1.693816102794));
#189 = CARTESIAN_POINT('',(10.421079729267,-1.982349222391,
1.667981101538));
#190 = CARTESIAN_POINT('',(10.402284322644,-1.943855370919,1.64141673381
));
#191 = CARTESIAN_POINT('',(10.349359819345,-1.860972443282,
1.579047070639));
#192 = CARTESIAN_POINT('',(10.312338938077,-1.818302339353,
1.542878474319));
#193 = CARTESIAN_POINT('',(10.268734636065,-1.780946393051,
1.506151955643));
#194 = CARTESIAN_POINT('',(10.219240687934,-1.750128638894,
1.469252270032));
#195 = CARTESIAN_POINT('',(10.164891349203,-1.727096102683,1.43272647713
));
#196 = CARTESIAN_POINT('',(10.058278079729,-1.700963781821,
1.367616782948));
#197 = CARTESIAN_POINT('',(10.006754780592,-1.695280132295,
1.338535962483));
#198 = CARTESIAN_POINT('',(9.954084396336,-1.696833230391,1.311177805099
));
#199 = CARTESIAN_POINT('',(9.901989961054,-1.705829500082,1.286447673035
));
#200 = CARTESIAN_POINT('',(9.851959319488,-1.721892453632,1.265146620775
));
#201 = CARTESIAN_POINT('',(9.80518786788,-1.744354547445,1.247899411339)
);
#202 = ORIENTED_EDGE('',*,*,#203,.T.);
#203 = EDGE_CURVE('',#182,#180,#204,.T.);
#204 = B_SPLINE_CURVE_WITH_KNOTS('',6,(#205,#206,#207,#208,#209,#210,
#211,#212,#213,#214,#215,#216,#217,#218,#219,#220,#221,#222,#223,
#224,#225,#226,#227,#228,#229,#230,#231,#232,#233,#234,#235,#236,
#237,#238,#239,#240,#241,#242,#243,#244,#245,#246),.UNSPECIFIED.,.F.
,.F.,(7,5,5,5,5,5,5,5,7),(0.E+000,0.135443980772,0.244366989501,
0.298375594141,0.457517196822,0.610345450735,0.737090239123,
0.865857059498,1.),.UNSPECIFIED.);
#205 = CARTESIAN_POINT('',(9.80518786788,-1.744354547445,1.247899411339)
);
#206 = CARTESIAN_POINT('',(9.763683981327,-1.764286881407,1.23259464317)
);
#207 = CARTESIAN_POINT('',(9.7246944346,-1.789282863019,1.220463051688)
);
#208 = CARTESIAN_POINT('',(9.689048306056,-1.818905919957,1.211949631591
));
#209 = CARTESIAN_POINT('',(9.657467964205,-1.852513301083,1.20743251753)
);
#210 = CARTESIAN_POINT('',(9.630498289671,-1.889278989299,1.207133916956
));
#211 = CARTESIAN_POINT('',(9.590671062433,-1.959611522858,1.214134609475
));
#212 = CARTESIAN_POINT('',(9.576077964325,-1.992406277287,1.219958773789
));
#213 = CARTESIAN_POINT('',(9.564793755865,-2.026163310115,1.228470642637
));
#214 = CARTESIAN_POINT('',(9.556832391287,-2.060404917348,1.239553250578
));
#215 = CARTESIAN_POINT('',(9.552113172841,-2.094711124817,1.253016554214
));
#216 = CARTESIAN_POINT('',(9.549704974477,-2.145589059208,1.276374106542
));
#217 = CARTESIAN_POINT('',(9.549671073862,-2.162383637781,1.284646440417
));
#218 = CARTESIAN_POINT('',(9.550385501932,-2.179065596243,1.293421459482
));
#219 = CARTESIAN_POINT('',(9.551829513318,-2.195597260949,1.302670359286
));
#220 = CARTESIAN_POINT('',(9.553982958162,-2.211945150892,1.312363495769
));
#221 = CARTESIAN_POINT('',(9.565201650192,-2.275621612253,1.352254799865
));
#222 = CARTESIAN_POINT('',(9.579558311054,-2.32129254155,1.385626836559)
);
#223 = CARTESIAN_POINT('',(9.599373242611,-2.36437261116,1.421846056874)
);
#224 = CARTESIAN_POINT('',(9.624134031642,-2.404357427705,1.460149323466
));
#225 = CARTESIAN_POINT('',(9.653451950389,-2.440848333748,1.499819022111
));
#226 = CARTESIAN_POINT('',(9.71935140049,-2.504618789585,1.578777140486)
);
#227 = CARTESIAN_POINT('',(9.755554149506,-2.532163623859,1.617965440025
));
#228 = CARTESIAN_POINT('',(9.795483588709,-2.555667899834,1.657049385952
));
#229 = CARTESIAN_POINT('',(9.83896449164,-2.574569703565,1.695246293301)
);
#230 = CARTESIAN_POINT('',(9.885689243902,-2.588080898363,1.731446872353
));
#231 = CARTESIAN_POINT('',(9.975866340296,-2.601247745254,1.791665855177
));
#232 = CARTESIAN_POINT('',(10.018670683858,-2.602897478226,
1.816812676139));
#233 = CARTESIAN_POINT('',(10.062324908018,-2.599537385887,
1.838566050354));
#234 = CARTESIAN_POINT('',(10.105644715854,-2.590947226879,
1.856034558311));
#235 = CARTESIAN_POINT('',(10.147533534291,-2.57735170749,1.868949165976
));
#236 = CARTESIAN_POINT('',(10.227356743129,-2.540852278301,1.88603047223
));
#237 = CARTESIAN_POINT('',(10.265234641985,-2.517795425015,
1.890058449454));
#238 = CARTESIAN_POINT('',(10.299885418185,-2.490572711156,
1.889622549258));
#239 = CARTESIAN_POINT('',(10.330718653516,-2.459921269073,
1.885251013209));
#240 = CARTESIAN_POINT('',(10.357435598727,-2.426579455911,
1.877527862687));
#241 = CARTESIAN_POINT('',(10.403300150854,-2.354340683976,1.85596625907
));
#242 = CARTESIAN_POINT('',(10.422084978495,-2.315270377058,
1.841886081248));
#243 = CARTESIAN_POINT('',(10.43612047541,-2.274691818812,1.825301107903
));
#244 = CARTESIAN_POINT('',(10.445403783331,-2.233250769482,
1.806700671297));
#245 = CARTESIAN_POINT('',(10.45,-2.191516165251,1.786450812669));
#246 = CARTESIAN_POINT('',(10.45,-2.15,1.764827843394));
#247 = TOROIDAL_SURFACE('',#248,8.262195121951,2.487804878049);
#248 = AXIS2_PLACEMENT_3D('',#249,#250,#251);
#249 = CARTESIAN_POINT('',(5.,-1.137195121951,10.78));
#250 = DIRECTION('',(1.137711779659E-033,-1.,-3.413135338977E-033));
#251 = DIRECTION('',(1.,1.137711779659E-033,7.898804414649E-034));
#252 = ADVANCED_FACE('',(#253),#256,.F.);
#253 = FACE_BOUND('',#254,.F.);
#254 = EDGE_LOOP('',(#255));
#255 = ORIENTED_EDGE('',*,*,#64,.T.);
#256 = PLANE('',#257);
#257 = AXIS2_PLACEMENT_3D('',#258,#259,#260);
#258 = CARTESIAN_POINT('',(5.,1.475,10.78));
#259 = DIRECTION('',(1.137711779659E-033,-1.,-3.413135338977E-033));
#260 = DIRECTION('',(0.E+000,3.413135338977E-033,-1.));
#261 = ADVANCED_FACE('',(#262),#282,.T.);
#262 = FACE_BOUND('',#263,.T.);
#263 = EDGE_LOOP('',(#264,#265,#273,#280,#281));
#264 = ORIENTED_EDGE('',*,*,#104,.T.);
#265 = ORIENTED_EDGE('',*,*,#266,.T.);
#266 = EDGE_CURVE('',#75,#267,#269,.T.);
#267 = VERTEX_POINT('',#268);
#268 = CARTESIAN_POINT('',(0.45,0.E+000,-2.82));
#269 = LINE('',#270,#271);
#270 = CARTESIAN_POINT('',(0.45,0.E+000,10.78));
#271 = VECTOR('',#272,1.);
#272 = DIRECTION('',(-0.E+000,-0.E+000,-1.));
#273 = ORIENTED_EDGE('',*,*,#274,.T.);
#274 = EDGE_CURVE('',#267,#267,#275,.T.);
#275 = CIRCLE('',#276,0.45);
#276 = AXIS2_PLACEMENT_3D('',#277,#278,#279);
#277 = CARTESIAN_POINT('',(0.E+000,0.E+000,-2.82));
#278 = DIRECTION('',(0.E+000,0.E+000,1.));
#279 = DIRECTION('',(1.,0.E+000,0.E+000));
#280 = ORIENTED_EDGE('',*,*,#266,.F.);
#281 = ORIENTED_EDGE('',*,*,#74,.T.);
#282 = CYLINDRICAL_SURFACE('',#283,0.45);
#283 = AXIS2_PLACEMENT_3D('',#284,#285,#286);
#284 = CARTESIAN_POINT('',(0.E+000,0.E+000,10.78));
#285 = DIRECTION('',(0.E+000,0.E+000,1.));
#286 = DIRECTION('',(1.,0.E+000,0.E+000));
#287 = ADVANCED_FACE('',(#288),#291,.T.);
#288 = FACE_BOUND('',#289,.T.);
#289 = EDGE_LOOP('',(#290));
#290 = ORIENTED_EDGE('',*,*,#169,.T.);
#291 = PLANE('',#292);
#292 = AXIS2_PLACEMENT_3D('',#293,#294,#295);
#293 = CARTESIAN_POINT('',(5.,-3.625,10.78));
#294 = DIRECTION('',(1.137711779659E-033,-1.,-3.413135338977E-033));
#295 = DIRECTION('',(0.E+000,3.413135338977E-033,-1.));
#296 = ADVANCED_FACE('',(#297),#317,.T.);
#297 = FACE_BOUND('',#298,.T.);
#298 = EDGE_LOOP('',(#299,#300,#308,#315,#316));
#299 = ORIENTED_EDGE('',*,*,#179,.F.);
#300 = ORIENTED_EDGE('',*,*,#301,.T.);
#301 = EDGE_CURVE('',#180,#302,#304,.T.);
#302 = VERTEX_POINT('',#303);
#303 = CARTESIAN_POINT('',(10.45,-2.15,-2.82));
#304 = LINE('',#305,#306);
#305 = CARTESIAN_POINT('',(10.45,-2.15,10.78));
#306 = VECTOR('',#307,1.);
#307 = DIRECTION('',(-0.E+000,-0.E+000,-1.));
#308 = ORIENTED_EDGE('',*,*,#309,.T.);
#309 = EDGE_CURVE('',#302,#302,#310,.T.);
#310 = CIRCLE('',#311,0.45);
#311 = AXIS2_PLACEMENT_3D('',#312,#313,#314);
#312 = CARTESIAN_POINT('',(10.,-2.15,-2.82));
#313 = DIRECTION('',(0.E+000,0.E+000,1.));
#314 = DIRECTION('',(1.,0.E+000,0.E+000));
#315 = ORIENTED_EDGE('',*,*,#301,.F.);
#316 = ORIENTED_EDGE('',*,*,#203,.F.);
#317 = CYLINDRICAL_SURFACE('',#318,0.45);
#318 = AXIS2_PLACEMENT_3D('',#319,#320,#321);
#319 = CARTESIAN_POINT('',(10.,-2.15,10.78));
#320 = DIRECTION('',(0.E+000,0.E+000,1.));
#321 = DIRECTION('',(1.,0.E+000,0.E+000));
#322 = ADVANCED_FACE('',(#323),#343,.T.);
#323 = FACE_BOUND('',#324,.F.);
#324 = EDGE_LOOP('',(#325,#334,#335,#336));
#325 = ORIENTED_EDGE('',*,*,#326,.F.);
#326 = EDGE_CURVE('',#267,#327,#329,.T.);
#327 = VERTEX_POINT('',#328);
#328 = CARTESIAN_POINT('',(0.27,0.E+000,-3.));
#329 = CIRCLE('',#330,0.18);
#330 = AXIS2_PLACEMENT_3D('',#331,#332,#333);
#331 = CARTESIAN_POINT('',(0.27,0.E+000,-2.82));
#332 = DIRECTION('',(-0.E+000,1.,0.E+000));
#333 = DIRECTION('',(1.,0.E+000,0.E+000));
#334 = ORIENTED_EDGE('',*,*,#274,.T.);
#335 = ORIENTED_EDGE('',*,*,#326,.T.);
#336 = ORIENTED_EDGE('',*,*,#337,.F.);
#337 = EDGE_CURVE('',#327,#327,#338,.T.);
#338 = CIRCLE('',#339,0.27);
#339 = AXIS2_PLACEMENT_3D('',#340,#341,#342);
#340 = CARTESIAN_POINT('',(0.E+000,0.E+000,-3.));
#341 = DIRECTION('',(0.E+000,0.E+000,1.));
#342 = DIRECTION('',(1.,0.E+000,0.E+000));
#343 = TOROIDAL_SURFACE('',#344,0.27,0.18);
#344 = AXIS2_PLACEMENT_3D('',#345,#346,#347);
#345 = CARTESIAN_POINT('',(0.E+000,0.E+000,-2.82));
#346 = DIRECTION('',(-0.E+000,-0.E+000,-1.));
#347 = DIRECTION('',(1.,0.E+000,0.E+000));
#348 = ADVANCED_FACE('',(#349),#369,.T.);
#349 = FACE_BOUND('',#350,.F.);
#350 = EDGE_LOOP('',(#351,#360,#361,#362));
#351 = ORIENTED_EDGE('',*,*,#352,.F.);
#352 = EDGE_CURVE('',#302,#353,#355,.T.);
#353 = VERTEX_POINT('',#354);
#354 = CARTESIAN_POINT('',(10.27,-2.15,-3.));
#355 = CIRCLE('',#356,0.18);
#356 = AXIS2_PLACEMENT_3D('',#357,#358,#359);
#357 = CARTESIAN_POINT('',(10.27,-2.15,-2.82));
#358 = DIRECTION('',(-0.E+000,1.,0.E+000));
#359 = DIRECTION('',(1.,0.E+000,0.E+000));
#360 = ORIENTED_EDGE('',*,*,#309,.T.);
#361 = ORIENTED_EDGE('',*,*,#352,.T.);
#362 = ORIENTED_EDGE('',*,*,#363,.F.);
#363 = EDGE_CURVE('',#353,#353,#364,.T.);
#364 = CIRCLE('',#365,0.27);
#365 = AXIS2_PLACEMENT_3D('',#366,#367,#368);
#366 = CARTESIAN_POINT('',(10.,-2.15,-3.));
#367 = DIRECTION('',(0.E+000,0.E+000,1.));
#368 = DIRECTION('',(1.,0.E+000,0.E+000));
#369 = TOROIDAL_SURFACE('',#370,0.27,0.18);
#370 = AXIS2_PLACEMENT_3D('',#371,#372,#373);
#371 = CARTESIAN_POINT('',(10.,-2.15,-2.82));
#372 = DIRECTION('',(-0.E+000,-0.E+000,-1.));
#373 = DIRECTION('',(1.,0.E+000,0.E+000));
#374 = ADVANCED_FACE('',(#375),#378,.F.);
#375 = FACE_BOUND('',#376,.F.);
#376 = EDGE_LOOP('',(#377));
#377 = ORIENTED_EDGE('',*,*,#337,.T.);
#378 = PLANE('',#379);
#379 = AXIS2_PLACEMENT_3D('',#380,#381,#382);
#380 = CARTESIAN_POINT('',(-1.18701400394E-017,2.911085817041E-017,-3.)
);
#381 = DIRECTION('',(0.E+000,0.E+000,1.));
#382 = DIRECTION('',(1.,0.E+000,0.E+000));
#383 = ADVANCED_FACE('',(#384),#387,.F.);
#384 = FACE_BOUND('',#385,.F.);
#385 = EDGE_LOOP('',(#386));
#386 = ORIENTED_EDGE('',*,*,#363,.T.);
#387 = PLANE('',#388);
#388 = AXIS2_PLACEMENT_3D('',#389,#390,#391);
#389 = CARTESIAN_POINT('',(10.,-2.15,-3.));
#390 = DIRECTION('',(0.E+000,0.E+000,1.));
#391 = DIRECTION('',(1.,0.E+000,0.E+000));
#392 = ( GEOMETRIC_REPRESENTATION_CONTEXT(3)
GLOBAL_UNCERTAINTY_ASSIGNED_CONTEXT((#396)) GLOBAL_UNIT_ASSIGNED_CONTEXT
((#393,#394,#395)) REPRESENTATION_CONTEXT('Context #1',
'3D Context with UNIT and UNCERTAINTY') );
#393 = ( LENGTH_UNIT() NAMED_UNIT(*) SI_UNIT(.MILLI.,.METRE.) );
#394 = ( NAMED_UNIT(*) PLANE_ANGLE_UNIT() SI_UNIT($,.RADIAN.) );
#395 = ( NAMED_UNIT(*) SI_UNIT($,.STERADIAN.) SOLID_ANGLE_UNIT() );
#396 = UNCERTAINTY_MEASURE_WITH_UNIT(LENGTH_MEASURE(1.E-007),#393,
'distance_accuracy_value','confusion accuracy');
#397 = PRODUCT_RELATED_PRODUCT_CATEGORY('part',$,(#7));
#398 = MECHANICAL_DESIGN_GEOMETRIC_PRESENTATION_REPRESENTATION('',(#399,
#407,#414,#421,#428,#436,#443,#450,#457,#464,#471),#392);
#399 = STYLED_ITEM('color',(#400),#17);
#400 = PRESENTATION_STYLE_ASSIGNMENT((#401));
#401 = SURFACE_STYLE_USAGE(.BOTH.,#402);
#402 = SURFACE_SIDE_STYLE('',(#403));
#403 = SURFACE_STYLE_FILL_AREA(#404);
#404 = FILL_AREA_STYLE('',(#405));
#405 = FILL_AREA_STYLE_COLOUR('',#406);
#406 = COLOUR_RGB('',0.136999994516,0.402000010014,0.726999998093);
#407 = STYLED_ITEM('color',(#408),#50);
#408 = PRESENTATION_STYLE_ASSIGNMENT((#409));
#409 = SURFACE_STYLE_USAGE(.BOTH.,#410);
#410 = SURFACE_SIDE_STYLE('',(#411));
#411 = SURFACE_STYLE_FILL_AREA(#412);
#412 = FILL_AREA_STYLE('',(#413));
#413 = FILL_AREA_STYLE_COLOUR('',#406);
#414 = STYLED_ITEM('color',(#415),#155);
#415 = PRESENTATION_STYLE_ASSIGNMENT((#416));
#416 = SURFACE_STYLE_USAGE(.BOTH.,#417);
#417 = SURFACE_SIDE_STYLE('',(#418));
#418 = SURFACE_STYLE_FILL_AREA(#419);
#419 = FILL_AREA_STYLE('',(#420));
#420 = FILL_AREA_STYLE_COLOUR('',#406);
#421 = STYLED_ITEM('color',(#422),#252);
#422 = PRESENTATION_STYLE_ASSIGNMENT((#423));
#423 = SURFACE_STYLE_USAGE(.BOTH.,#424);
#424 = SURFACE_SIDE_STYLE('',(#425));
#425 = SURFACE_STYLE_FILL_AREA(#426);
#426 = FILL_AREA_STYLE('',(#427));
#427 = FILL_AREA_STYLE_COLOUR('',#406);
#428 = STYLED_ITEM('color',(#429),#261);
#429 = PRESENTATION_STYLE_ASSIGNMENT((#430));
#430 = SURFACE_STYLE_USAGE(.BOTH.,#431);
#431 = SURFACE_SIDE_STYLE('',(#432));
#432 = SURFACE_STYLE_FILL_AREA(#433);
#433 = FILL_AREA_STYLE('',(#434));
#434 = FILL_AREA_STYLE_COLOUR('',#435);
#435 = COLOUR_RGB('',0.824000000954,0.819999992847,0.78100001812);
#436 = STYLED_ITEM('color',(#437),#287);
#437 = PRESENTATION_STYLE_ASSIGNMENT((#438));
#438 = SURFACE_STYLE_USAGE(.BOTH.,#439);
#439 = SURFACE_SIDE_STYLE('',(#440));
#440 = SURFACE_STYLE_FILL_AREA(#441);
#441 = FILL_AREA_STYLE('',(#442));
#442 = FILL_AREA_STYLE_COLOUR('',#406);
#443 = STYLED_ITEM('color',(#444),#296);
#444 = PRESENTATION_STYLE_ASSIGNMENT((#445));
#445 = SURFACE_STYLE_USAGE(.BOTH.,#446);
#446 = SURFACE_SIDE_STYLE('',(#447));
#447 = SURFACE_STYLE_FILL_AREA(#448);
#448 = FILL_AREA_STYLE('',(#449));
#449 = FILL_AREA_STYLE_COLOUR('',#435);
#450 = STYLED_ITEM('color',(#451),#322);
#451 = PRESENTATION_STYLE_ASSIGNMENT((#452));
#452 = SURFACE_STYLE_USAGE(.BOTH.,#453);
#453 = SURFACE_SIDE_STYLE('',(#454));
#454 = SURFACE_STYLE_FILL_AREA(#455);
#455 = FILL_AREA_STYLE('',(#456));
#456 = FILL_AREA_STYLE_COLOUR('',#435);
#457 = STYLED_ITEM('color',(#458),#348);
#458 = PRESENTATION_STYLE_ASSIGNMENT((#459));
#459 = SURFACE_STYLE_USAGE(.BOTH.,#460);
#460 = SURFACE_SIDE_STYLE('',(#461));
#461 = SURFACE_STYLE_FILL_AREA(#462);
#462 = FILL_AREA_STYLE('',(#463));
#463 = FILL_AREA_STYLE_COLOUR('',#435);
#464 = STYLED_ITEM('color',(#465),#374);
#465 = PRESENTATION_STYLE_ASSIGNMENT((#466));
#466 = SURFACE_STYLE_USAGE(.BOTH.,#467);
#467 = SURFACE_SIDE_STYLE('',(#468));
#468 = SURFACE_STYLE_FILL_AREA(#469);
#469 = FILL_AREA_STYLE('',(#470));
#470 = FILL_AREA_STYLE_COLOUR('',#435);
#471 = STYLED_ITEM('color',(#472),#383);
#472 = PRESENTATION_STYLE_ASSIGNMENT((#473));
#473 = SURFACE_STYLE_USAGE(.BOTH.,#474);
#474 = SURFACE_SIDE_STYLE('',(#475));
#475 = SURFACE_STYLE_FILL_AREA(#476);
#476 = FILL_AREA_STYLE('',(#477));
#477 = FILL_AREA_STYLE_COLOUR('',#435);
ENDSEC;
END-ISO-10303-21;
