ISO-10303-21;
HEADER;
/* RV_Disc_D15.5mm_W6.1mm_P7.5mm.step 3D STEP model for use in ECAD systems
 * Copyright (C) 2018, kicad StepUp
 * 
 * This work is licensed under the [Creative Commons CC-BY-SA 4.0 License](https://creativecommons.org/licenses/by-sa/4.0/legalcode), 
 * with the following exception:
 * To the extent that the creation of electronic designs that use 'Licensed Material' can be considered to be 'Adapted Material', 
 * then the copyright holder waives article 3 of the license with respect to these designs and any generated files which use data provided 
 * as part of the 'Licensed Material'.
 * You are free to use the library data in your own projects without the obligation to share your project files under this or any other license agreement.
 * However, if you wish to redistribute these libraries, or parts thereof (including in modified form) as a collection then the exception above does not apply. 
 * Please refer to https://github.com/KiCad/kicad-packages3D/blob/master/LICENSE.md for further clarification of the exception.
 * Disclaimer of Warranties and Limitation of Liability.
 * These libraries are provided in the hope that they will be useful, but are provided without warranty of any kind, express or implied.
 * *USE 3D CAD DATA AT YOUR OWN RISK*
 * *DO NOT RELY UPON ANY INFORMATION FOUND HERE WITHOUT INDEPENDENT VERIFICATION.*
 * 
 */

FILE_DESCRIPTION(
/* description */ ('model of RV_Disc_D15.5mm_W6.1mm_P7.5mm'),
/* implementation_level */ '2;1');

FILE_NAME(
/* name */ 'RV_Disc_D15.5mm_W6.1mm_P7.5mm.step',
/* time_stamp */ '2018-11-11T21:00:38',
/* author */ ('kicad StepUp','ksu'),
/* organization */ ('FreeCAD'),
/* preprocessor_version */ 'OCC',
/* originating_system */ 'kicad StepUp',
/* authorisation */ '');

FILE_SCHEMA(('AUTOMOTIVE_DESIGN { 1 0 10303 214 1 1 1 1 }'));
ENDSEC;

DATA;
#1 = APPLICATION_PROTOCOL_DEFINITION('international standard',
'automotive_design',2000,#2);
#2 = APPLICATION_CONTEXT(
'core data for automotive mechanical design processes');
#3 = SHAPE_DEFINITION_REPRESENTATION(#4,#10);
#4 = PRODUCT_DEFINITION_SHAPE('','',#5);
#5 = PRODUCT_DEFINITION('design','',#6,#9);
#6 = PRODUCT_DEFINITION_FORMATION('','',#7);
#7 = PRODUCT('RV_Disc_D155mm_W61mm_P75mm','RV_Disc_D155mm_W61mm_P75mm',
'',(#8));
#8 = PRODUCT_CONTEXT('',#2,'mechanical');
#9 = PRODUCT_DEFINITION_CONTEXT('part definition',#2,'design');
#10 = ADVANCED_BREP_SHAPE_REPRESENTATION('',(#11,#15),#380);
#11 = AXIS2_PLACEMENT_3D('',#12,#13,#14);
#12 = CARTESIAN_POINT('',(0.E+000,0.E+000,0.E+000));
#13 = DIRECTION('',(0.E+000,0.E+000,1.));
#14 = DIRECTION('',(1.,0.E+000,-0.E+000));
#15 = MANIFOLD_SOLID_BREP('',#16);
#16 = CLOSED_SHELL('',(#17,#50,#144,#240,#249,#275,#284,#310,#336,#362,
#371));
#17 = ADVANCED_FACE('',(#18),#45,.T.);
#18 = FACE_BOUND('',#19,.F.);
#19 = EDGE_LOOP('',(#20,#30,#37,#38));
#20 = ORIENTED_EDGE('',*,*,#21,.T.);
#21 = EDGE_CURVE('',#22,#24,#26,.T.);
#22 = VERTEX_POINT('',#23);
#23 = CARTESIAN_POINT('',(11.5,-1.375609756098,7.78));
#24 = VERTEX_POINT('',#25);
#25 = CARTESIAN_POINT('',(11.5,-1.524390243902,7.78));
#26 = LINE('',#27,#28);
#27 = CARTESIAN_POINT('',(11.5,1.6,7.78));
#28 = VECTOR('',#29,1.);
#29 = DIRECTION('',(0.E+000,-1.,0.E+000));
#30 = ORIENTED_EDGE('',*,*,#31,.T.);
#31 = EDGE_CURVE('',#24,#24,#32,.T.);
#32 = CIRCLE('',#33,7.75);
#33 = AXIS2_PLACEMENT_3D('',#34,#35,#36);
#34 = CARTESIAN_POINT('',(3.75,-1.524390243902,7.78));
#35 = DIRECTION('',(1.09450004193E-033,-1.,7.66150029351E-033));
#36 = DIRECTION('',(1.,1.09450004193E-033,-2.941630325124E-033));
#37 = ORIENTED_EDGE('',*,*,#21,.F.);
#38 = ORIENTED_EDGE('',*,*,#39,.F.);
#39 = EDGE_CURVE('',#22,#22,#40,.T.);
#40 = CIRCLE('',#41,7.75);
#41 = AXIS2_PLACEMENT_3D('',#42,#43,#44);
#42 = CARTESIAN_POINT('',(3.75,-1.375609756098,7.78));
#43 = DIRECTION('',(1.09450004193E-033,-1.,7.66150029351E-033));
#44 = DIRECTION('',(1.,1.09450004193E-033,2.941630325124E-033));
#45 = CYLINDRICAL_SURFACE('',#46,7.75);
#46 = AXIS2_PLACEMENT_3D('',#47,#48,#49);
#47 = CARTESIAN_POINT('',(3.75,1.6,7.78));
#48 = DIRECTION('',(0.E+000,1.,0.E+000));
#49 = DIRECTION('',(1.,0.E+000,0.E+000));
#50 = ADVANCED_FACE('',(#51,#71),#139,.T.);
#51 = FACE_BOUND('',#52,.F.);
#52 = EDGE_LOOP('',(#53,#54,#63,#70));
#53 = ORIENTED_EDGE('',*,*,#39,.T.);
#54 = ORIENTED_EDGE('',*,*,#55,.T.);
#55 = EDGE_CURVE('',#22,#56,#58,.T.);
#56 = VERTEX_POINT('',#57);
#57 = CARTESIAN_POINT('',(8.524390243902,1.6,7.78));
#58 = CIRCLE('',#59,2.975609756098);
#59 = AXIS2_PLACEMENT_3D('',#60,#61,#62);
#60 = CARTESIAN_POINT('',(8.524390243902,-1.375609756098,7.78));
#61 = DIRECTION('',(-2.941630325124E-033,7.66150029351E-033,1.));
#62 = DIRECTION('',(1.,1.09450004193E-033,2.941630325124E-033));
#63 = ORIENTED_EDGE('',*,*,#64,.F.);
#64 = EDGE_CURVE('',#56,#56,#65,.T.);
#65 = CIRCLE('',#66,4.774390243902);
#66 = AXIS2_PLACEMENT_3D('',#67,#68,#69);
#67 = CARTESIAN_POINT('',(3.75,1.6,7.78));
#68 = DIRECTION('',(1.09450004193E-033,-1.,7.66150029351E-033));
#69 = DIRECTION('',(1.,1.09450004193E-033,2.941630325124E-033));
#70 = ORIENTED_EDGE('',*,*,#55,.F.);
#71 = FACE_BOUND('',#72,.F.);
#72 = EDGE_LOOP('',(#73,#92));
#73 = ORIENTED_EDGE('',*,*,#74,.T.);
#74 = EDGE_CURVE('',#75,#77,#79,.T.);
#75 = VERTEX_POINT('',#76);
#76 = CARTESIAN_POINT('',(0.36,0.E+000,1.187610642886));
#77 = VERTEX_POINT('',#78);
#78 = CARTESIAN_POINT('',(-3.296557557823E-003,-0.359984906223,
1.204477312559));
#79 = B_SPLINE_CURVE_WITH_KNOTS('',6,(#80,#81,#82,#83,#84,#85,#86,#87,
#88,#89,#90,#91),.UNSPECIFIED.,.F.,.F.,(7,5,7),(0.E+000,
0.412033077983,1.),.UNSPECIFIED.);
#80 = CARTESIAN_POINT('',(0.36,-5.551115123126E-017,1.187610642886));
#81 = CARTESIAN_POINT('',(0.36,-3.677460991941E-002,1.166051795386));
#82 = CARTESIAN_POINT('',(0.355491861835,-7.41283787048E-002,
1.147368994717));
#83 = CARTESIAN_POINT('',(0.346210969571,-0.111411305847,1.132065982445)
);
#84 = CARTESIAN_POINT('',(0.331986132817,-0.147809700526,1.120621292509)
);
#85 = CARTESIAN_POINT('',(0.312906599626,-0.182334401165,1.113375506691)
);
#86 = CARTESIAN_POINT('',(0.25597601574,-0.259317416708,1.106141499259)
);
#87 = CARTESIAN_POINT('',(0.213564901756,-0.29890037633,1.110569782116)
);
#88 = CARTESIAN_POINT('',(0.16360094443,-0.330041613832,1.123907432793)
);
#89 = CARTESIAN_POINT('',(0.108741431398,-0.350756011481,1.145132327958)
);
#90 = CARTESIAN_POINT('',(5.216562153992E-002,-0.360492800478,
1.17260724281));
#91 = CARTESIAN_POINT('',(-3.296557557823E-003,-0.359984906223,
1.204477312559));
#92 = ORIENTED_EDGE('',*,*,#93,.T.);
#93 = EDGE_CURVE('',#77,#75,#94,.T.);
#94 = B_SPLINE_CURVE_WITH_KNOTS('',7,(#95,#96,#97,#98,#99,#100,#101,#102
,#103,#104,#105,#106,#107,#108,#109,#110,#111,#112,#113,#114,#115,
#116,#117,#118,#119,#120,#121,#122,#123,#124,#125,#126,#127,#128,
#129,#130,#131,#132,#133,#134,#135,#136,#137,#138),.UNSPECIFIED.,.F.
,.F.,(8,6,6,6,6,6,6,8),(0.E+000,0.194691659866,0.404408530913,
0.457666452549,0.549632358189,0.676189104353,0.823747796657,1.),
.UNSPECIFIED.);
#95 = CARTESIAN_POINT('',(-3.296557557823E-003,-0.359984906223,
1.204477312559));
#96 = CARTESIAN_POINT('',(-5.269887464573E-002,-0.359532505083,
1.232865221526));
#97 = CARTESIAN_POINT('',(-0.101179381101,-0.351178195509,1.264607071279
));
#98 = CARTESIAN_POINT('',(-0.14722799249,-0.335425736327,1.298667980183)
);
#99 = CARTESIAN_POINT('',(-0.189656827835,-0.313121585046,1.334132587186
));
#100 = CARTESIAN_POINT('',(-0.227633824933,-0.285204567111,
1.370276651718));
#101 = CARTESIAN_POINT('',(-0.260574206961,-0.252565686173,
1.406514867498));
#102 = CARTESIAN_POINT('',(-0.317530358282,-0.176628383662,
1.480905428589));
#103 = CARTESIAN_POINT('',(-0.340613509594,-0.132765588332,
1.518927637014));
#104 = CARTESIAN_POINT('',(-0.356658420006,-8.547066857947E-002,
1.555723917608));
#105 = CARTESIAN_POINT('',(-0.365141642105,-3.582007281987E-002,
1.590589621758));
#106 = CARTESIAN_POINT('',(-0.365601284017,1.499529293436E-002,
1.622668015169));
#107 = CARTESIAN_POINT('',(-0.357697024412,6.560625378984E-002,
1.650881462166));
#108 = CARTESIAN_POINT('',(-0.337174063825,0.126825231653,1.679760829178
));
#109 = CARTESIAN_POINT('',(-0.332473190895,0.139104340642,1.685273620408
));
#110 = CARTESIAN_POINT('',(-0.327227255224,0.151237104545,1.690428703066
));
#111 = CARTESIAN_POINT('',(-0.321437453355,0.163194508733,1.695203111383
));
#112 = CARTESIAN_POINT('',(-0.315107203301,0.174946143957,1.699573263026
));
#113 = CARTESIAN_POINT('',(-0.308242648873,0.186460501746,1.703515487185
));
#114 = CARTESIAN_POINT('',(-0.288092983974,0.21712276201,1.713034932822)
);
#115 = CARTESIAN_POINT('',(-0.273765995093,0.235738721806,1.717718754387
));
#116 = CARTESIAN_POINT('',(-0.257922600966,0.253382598026,1.720937050418
));
#117 = CARTESIAN_POINT('',(-0.240643564396,0.269878171759,1.722574847032
));
#118 = CARTESIAN_POINT('',(-0.222047686865,0.285053039641,1.722537136485
));
#119 = CARTESIAN_POINT('',(-0.202294259029,0.298751581627,1.72076485438)
);
#120 = CARTESIAN_POINT('',(-0.153075223845,0.327502315637,1.712419912882
));
#121 = CARTESIAN_POINT('',(-0.122728671462,0.341138952231,1.704288742687
));
#122 = CARTESIAN_POINT('',(-9.107717525114E-002,0.351415769603,
1.69283952477));
#123 = CARTESIAN_POINT('',(-5.872619991992E-002,0.358171696473,
1.678252598373));
#124 = CARTESIAN_POINT('',(-2.627241653486E-002,0.361418367428,
1.660885154326));
#125 = CARTESIAN_POINT('',(5.746281525668E-003,0.361311676238,
1.641218151282));
#126 = CARTESIAN_POINT('',(7.316524493639E-002,0.354369772273,
1.594770050194));
#127 = CARTESIAN_POINT('',(0.108266757912,0.346418695371,1.567335193135)
);
#128 = CARTESIAN_POINT('',(0.14168134121,0.334628130741,1.538136473703)
);
#129 = CARTESIAN_POINT('',(0.173060387007,0.319394461601,1.507804657187)
);
#130 = CARTESIAN_POINT('',(0.20215810283,0.30107959988,1.476879012173));
#131 = CARTESIAN_POINT('',(0.228784541725,0.279983843172,1.445798480561)
);
#132 = CARTESIAN_POINT('',(0.281389869631,0.228115481625,1.378078075579)
);
#133 = CARTESIAN_POINT('',(0.306201540038,0.196292709113,1.341576700696)
);
#134 = CARTESIAN_POINT('',(0.326870911647,0.161326867268,1.306101946168)
);
#135 = CARTESIAN_POINT('',(0.34302205521,0.123642009896,1.272295874167)
);
#136 = CARTESIAN_POINT('',(0.35421665494,8.373435164176E-002,
1.240824247678));
#137 = CARTESIAN_POINT('',(0.36,4.224359029281E-002,1.21237564034));
#138 = CARTESIAN_POINT('',(0.36,-5.551115123126E-017,1.187610642886));
#139 = TOROIDAL_SURFACE('',#140,4.774390243902,2.975609756098);
#140 = AXIS2_PLACEMENT_3D('',#141,#142,#143);
#141 = CARTESIAN_POINT('',(3.75,-1.375609756098,7.78));
#142 = DIRECTION('',(-1.09450004193E-033,1.,-7.66150029351E-033));
#143 = DIRECTION('',(1.,1.09450004193E-033,2.941630325124E-033));
#144 = ADVANCED_FACE('',(#145,#165),#235,.T.);
#145 = FACE_BOUND('',#146,.T.);
#146 = EDGE_LOOP('',(#147,#148,#157,#164));
#147 = ORIENTED_EDGE('',*,*,#31,.T.);
#148 = ORIENTED_EDGE('',*,*,#149,.T.);
#149 = EDGE_CURVE('',#24,#150,#152,.T.);
#150 = VERTEX_POINT('',#151);
#151 = CARTESIAN_POINT('',(8.524390243902,-4.5,7.78));
#152 = CIRCLE('',#153,2.975609756098);
#153 = AXIS2_PLACEMENT_3D('',#154,#155,#156);
#154 = CARTESIAN_POINT('',(8.524390243902,-1.524390243902,7.78));
#155 = DIRECTION('',(-2.941630325124E-033,-7.66150029351E-033,-1.));
#156 = DIRECTION('',(1.,1.09450004193E-033,-2.941630325124E-033));
#157 = ORIENTED_EDGE('',*,*,#158,.F.);
#158 = EDGE_CURVE('',#150,#150,#159,.T.);
#159 = CIRCLE('',#160,4.774390243902);
#160 = AXIS2_PLACEMENT_3D('',#161,#162,#163);
#161 = CARTESIAN_POINT('',(3.75,-4.5,7.78));
#162 = DIRECTION('',(1.09450004193E-033,-1.,7.66150029351E-033));
#163 = DIRECTION('',(1.,1.09450004193E-033,-2.941630325124E-033));
#164 = ORIENTED_EDGE('',*,*,#149,.F.);
#165 = FACE_BOUND('',#166,.T.);
#166 = EDGE_LOOP('',(#167,#188));
#167 = ORIENTED_EDGE('',*,*,#168,.T.);
#168 = EDGE_CURVE('',#169,#171,#173,.T.);
#169 = VERTEX_POINT('',#170);
#170 = CARTESIAN_POINT('',(7.86,-2.9,1.610753900533));
#171 = VERTEX_POINT('',#172);
#172 = CARTESIAN_POINT('',(7.494603630296,-2.540040447836,1.199533610786
));
#173 = B_SPLINE_CURVE_WITH_KNOTS('',7,(#174,#175,#176,#177,#178,#179,
#180,#181,#182,#183,#184,#185,#186,#187),.UNSPECIFIED.,.F.,.F.,(8,6,
8),(0.E+000,0.417819136219,1.),.UNSPECIFIED.);
#174 = CARTESIAN_POINT('',(7.86,-2.9,1.610753900533));
#175 = CARTESIAN_POINT('',(7.86,-2.866130984347,1.589536567417));
#176 = CARTESIAN_POINT('',(7.85628223143,-2.832544374051,1.566820715323)
);
#177 = CARTESIAN_POINT('',(7.84895934787,-2.799644405411,1.54292042282)
);
#178 = CARTESIAN_POINT('',(7.838164727053,-2.767805631185,1.518105903944
));
#179 = CARTESIAN_POINT('',(7.824052127271,-2.737381164216,1.492616736137
));
#180 = CARTESIAN_POINT('',(7.806795343794,-2.708710921052,1.46667508818)
);
#181 = CARTESIAN_POINT('',(7.758431167129,-2.645092352208,1.404025635854
));
#182 = CARTESIAN_POINT('',(7.724577048539,-2.612151378487,1.367137110456
));
#183 = CARTESIAN_POINT('',(7.685536198871,-2.584146892014,1.330375670693
));
#184 = CARTESIAN_POINT('',(7.641928393248,-2.562021587795,1.294361354837
));
#185 = CARTESIAN_POINT('',(7.594649506338,-2.546772540353,1.259870495389
));
#186 = CARTESIAN_POINT('',(7.544994833475,-2.539285003063,1.227893009686
));
#187 = CARTESIAN_POINT('',(7.494603630296,-2.540040447836,1.199533610786
));
#188 = ORIENTED_EDGE('',*,*,#189,.T.);
#189 = EDGE_CURVE('',#171,#169,#190,.T.);
#190 = B_SPLINE_CURVE_WITH_KNOTS('',7,(#191,#192,#193,#194,#195,#196,
#197,#198,#199,#200,#201,#202,#203,#204,#205,#206,#207,#208,#209,
#210,#211,#212,#213,#214,#215,#216,#217,#218,#219,#220,#221,#222,
#223,#224,#225,#226,#227,#228,#229,#230,#231,#232,#233,#234),
.UNSPECIFIED.,.F.,.F.,(8,6,6,6,6,6,6,8),(0.E+000,0.186030889057,
0.292760070767,0.345858898793,0.501477836377,0.696428058607,
0.905234577901,1.),.UNSPECIFIED.);
#191 = CARTESIAN_POINT('',(7.494603630296,-2.540040447836,1.199533610786
));
#192 = CARTESIAN_POINT('',(7.448388879046,-2.540733280911,1.173524655193
));
#193 = CARTESIAN_POINT('',(7.401626306875,-2.548358299642,1.15059948257)
);
#194 = CARTESIAN_POINT('',(7.355803311571,-2.563244602338,1.131714443));
#195 = CARTESIAN_POINT('',(7.312524532068,-2.585232513055,1.117737624679
));
#196 = CARTESIAN_POINT('',(7.27329691685,-2.613640248855,1.109347089592)
);
#197 = CARTESIAN_POINT('',(7.239330483121,-2.647328510799,1.106903199462
));
#198 = CARTESIAN_POINT('',(7.195304607971,-2.706397192253,1.11224098574)
);
#199 = CARTESIAN_POINT('',(7.181221305715,-2.729204135593,1.116108518603
));
#200 = CARTESIAN_POINT('',(7.169242124514,-2.753018713812,1.121879901914
));
#201 = CARTESIAN_POINT('',(7.159440021181,-2.777564501498,1.129491178646
));
#202 = CARTESIAN_POINT('',(7.151832877556,-2.802575135741,1.138843076104
));
#203 = CARTESIAN_POINT('',(7.146395680041,-2.827806899328,1.149812099078
));
#204 = CARTESIAN_POINT('',(7.141423896008,-2.865597483079,1.168455655047
));
#205 = CARTESIAN_POINT('',(7.140296066042,-2.878154227215,1.175016399799
));
#206 = CARTESIAN_POINT('',(7.139685656292,-2.890686595609,1.181927599436
));
#207 = CARTESIAN_POINT('',(7.139584595477,-2.903170221606,1.189172189798
));
#208 = CARTESIAN_POINT('',(7.139983638228,-2.915582494201,1.19673273178)
);
#209 = CARTESIAN_POINT('',(7.140872762526,-2.927902529473,1.20459166227)
);
#210 = CARTESIAN_POINT('',(7.146253179575,-2.975891429179,1.236587437232
));
#211 = CARTESIAN_POINT('',(7.154383603447,-3.010703051531,1.262848740006
));
#212 = CARTESIAN_POINT('',(7.166367454137,-3.044080669979,1.291084733711
));
#213 = CARTESIAN_POINT('',(7.181919444252,-3.075651100694,1.3208607935)
);
#214 = CARTESIAN_POINT('',(7.200770004329,-3.105105935355,1.351752587756
));
#215 = CARTESIAN_POINT('',(7.22268091873,-3.132166660607,1.383341716478)
);
#216 = CARTESIAN_POINT('',(7.27845891632,-3.187078610289,1.455093934676)
);
#217 = CARTESIAN_POINT('',(7.313880818994,-3.213334790444,1.495319752404
));
#218 = CARTESIAN_POINT('',(7.353347416875,-3.234859067849,1.535124567535
));
#219 = CARTESIAN_POINT('',(7.396478001898,-3.250941158327,1.573532208097
));
#220 = CARTESIAN_POINT('',(7.442648033428,-3.260693229834,1.609208248403
));
#221 = CARTESIAN_POINT('',(7.490752534489,-3.263162369666,1.640509727514
));
#222 = CARTESIAN_POINT('',(7.591030582932,-3.252186151496,1.693402346074
));
#223 = CARTESIAN_POINT('',(7.643162559903,-3.237607500819,1.714099345899
));
#224 = CARTESIAN_POINT('',(7.69281779123,-3.213665340812,1.726066983958)
);
#225 = CARTESIAN_POINT('',(7.737330082103,-3.181247488324,1.728582159567
));
#226 = CARTESIAN_POINT('',(7.774852197217,-3.142215963396,1.722588791491
));
#227 = CARTESIAN_POINT('',(7.804471082658,-3.098689475222,1.709469992732
));
#228 = CARTESIAN_POINT('',(7.835792868612,-3.031812715142,1.682263278183
));
#229 = CARTESIAN_POINT('',(7.84392787466,-3.010382350317,1.672599576664)
);
#230 = CARTESIAN_POINT('',(7.850405894672,-2.988553981987,1.661887621958
));
#231 = CARTESIAN_POINT('',(7.855230879589,-2.966472787231,1.650243914159
));
#232 = CARTESIAN_POINT('',(7.858420236738,-2.944273160019,1.637776920945
));
#233 = CARTESIAN_POINT('',(7.86,-2.922078333118,1.62458492985));
#234 = CARTESIAN_POINT('',(7.86,-2.9,1.610753900533));
#235 = TOROIDAL_SURFACE('',#236,4.774390243902,2.975609756098);
#236 = AXIS2_PLACEMENT_3D('',#237,#238,#239);
#237 = CARTESIAN_POINT('',(3.75,-1.524390243902,7.78));
#238 = DIRECTION('',(1.09450004193E-033,-1.,7.66150029351E-033));
#239 = DIRECTION('',(1.,1.09450004193E-033,-2.941630325124E-033));
#240 = ADVANCED_FACE('',(#241),#244,.F.);
#241 = FACE_BOUND('',#242,.F.);
#242 = EDGE_LOOP('',(#243));
#243 = ORIENTED_EDGE('',*,*,#64,.T.);
#244 = PLANE('',#245);
#245 = AXIS2_PLACEMENT_3D('',#246,#247,#248);
#246 = CARTESIAN_POINT('',(3.75,1.6,7.78));
#247 = DIRECTION('',(1.09450004193E-033,-1.,7.66150029351E-033));
#248 = DIRECTION('',(0.E+000,-7.66150029351E-033,-1.));
#249 = ADVANCED_FACE('',(#250),#270,.T.);
#250 = FACE_BOUND('',#251,.T.);
#251 = EDGE_LOOP('',(#252,#253,#261,#268,#269));
#252 = ORIENTED_EDGE('',*,*,#93,.T.);
#253 = ORIENTED_EDGE('',*,*,#254,.T.);
#254 = EDGE_CURVE('',#75,#255,#257,.T.);
#255 = VERTEX_POINT('',#256);
#256 = CARTESIAN_POINT('',(0.36,0.E+000,-2.856));
#257 = LINE('',#258,#259);
#258 = CARTESIAN_POINT('',(0.36,0.E+000,7.78));
#259 = VECTOR('',#260,1.);
#260 = DIRECTION('',(-0.E+000,-0.E+000,-1.));
#261 = ORIENTED_EDGE('',*,*,#262,.T.);
#262 = EDGE_CURVE('',#255,#255,#263,.T.);
#263 = CIRCLE('',#264,0.36);
#264 = AXIS2_PLACEMENT_3D('',#265,#266,#267);
#265 = CARTESIAN_POINT('',(0.E+000,0.E+000,-2.856));
#266 = DIRECTION('',(0.E+000,0.E+000,1.));
#267 = DIRECTION('',(1.,0.E+000,0.E+000));
#268 = ORIENTED_EDGE('',*,*,#254,.F.);
#269 = ORIENTED_EDGE('',*,*,#74,.T.);
#270 = CYLINDRICAL_SURFACE('',#271,0.36);
#271 = AXIS2_PLACEMENT_3D('',#272,#273,#274);
#272 = CARTESIAN_POINT('',(0.E+000,0.E+000,7.78));
#273 = DIRECTION('',(0.E+000,0.E+000,1.));
#274 = DIRECTION('',(1.,0.E+000,0.E+000));
#275 = ADVANCED_FACE('',(#276),#279,.T.);
#276 = FACE_BOUND('',#277,.T.);
#277 = EDGE_LOOP('',(#278));
#278 = ORIENTED_EDGE('',*,*,#158,.T.);
#279 = PLANE('',#280);
#280 = AXIS2_PLACEMENT_3D('',#281,#282,#283);
#281 = CARTESIAN_POINT('',(3.75,-4.5,7.78));
#282 = DIRECTION('',(1.09450004193E-033,-1.,7.66150029351E-033));
#283 = DIRECTION('',(0.E+000,-7.66150029351E-033,-1.));
#284 = ADVANCED_FACE('',(#285),#305,.T.);
#285 = FACE_BOUND('',#286,.T.);
#286 = EDGE_LOOP('',(#287,#288,#296,#303,#304));
#287 = ORIENTED_EDGE('',*,*,#168,.F.);
#288 = ORIENTED_EDGE('',*,*,#289,.T.);
#289 = EDGE_CURVE('',#169,#290,#292,.T.);
#290 = VERTEX_POINT('',#291);
#291 = CARTESIAN_POINT('',(7.86,-2.9,-2.856));
#292 = LINE('',#293,#294);
#293 = CARTESIAN_POINT('',(7.86,-2.9,7.78));
#294 = VECTOR('',#295,1.);
#295 = DIRECTION('',(-0.E+000,-0.E+000,-1.));
#296 = ORIENTED_EDGE('',*,*,#297,.T.);
#297 = EDGE_CURVE('',#290,#290,#298,.T.);
#298 = CIRCLE('',#299,0.36);
#299 = AXIS2_PLACEMENT_3D('',#300,#301,#302);
#300 = CARTESIAN_POINT('',(7.5,-2.9,-2.856));
#301 = DIRECTION('',(0.E+000,0.E+000,1.));
#302 = DIRECTION('',(1.,0.E+000,0.E+000));
#303 = ORIENTED_EDGE('',*,*,#289,.F.);
#304 = ORIENTED_EDGE('',*,*,#189,.F.);
#305 = CYLINDRICAL_SURFACE('',#306,0.36);
#306 = AXIS2_PLACEMENT_3D('',#307,#308,#309);
#307 = CARTESIAN_POINT('',(7.5,-2.9,7.78));
#308 = DIRECTION('',(0.E+000,0.E+000,1.));
#309 = DIRECTION('',(1.,0.E+000,0.E+000));
#310 = ADVANCED_FACE('',(#311),#331,.T.);
#311 = FACE_BOUND('',#312,.F.);
#312 = EDGE_LOOP('',(#313,#322,#323,#324));
#313 = ORIENTED_EDGE('',*,*,#314,.F.);
#314 = EDGE_CURVE('',#255,#315,#317,.T.);
#315 = VERTEX_POINT('',#316);
#316 = CARTESIAN_POINT('',(0.216,0.E+000,-3.));
#317 = CIRCLE('',#318,0.144);
#318 = AXIS2_PLACEMENT_3D('',#319,#320,#321);
#319 = CARTESIAN_POINT('',(0.216,0.E+000,-2.856));
#320 = DIRECTION('',(-0.E+000,1.,0.E+000));
#321 = DIRECTION('',(1.,0.E+000,0.E+000));
#322 = ORIENTED_EDGE('',*,*,#262,.T.);
#323 = ORIENTED_EDGE('',*,*,#314,.T.);
#324 = ORIENTED_EDGE('',*,*,#325,.F.);
#325 = EDGE_CURVE('',#315,#315,#326,.T.);
#326 = CIRCLE('',#327,0.216);
#327 = AXIS2_PLACEMENT_3D('',#328,#329,#330);
#328 = CARTESIAN_POINT('',(0.E+000,0.E+000,-3.));
#329 = DIRECTION('',(0.E+000,0.E+000,1.));
#330 = DIRECTION('',(1.,0.E+000,0.E+000));
#331 = TOROIDAL_SURFACE('',#332,0.216,0.144);
#332 = AXIS2_PLACEMENT_3D('',#333,#334,#335);
#333 = CARTESIAN_POINT('',(0.E+000,0.E+000,-2.856));
#334 = DIRECTION('',(-0.E+000,-0.E+000,-1.));
#335 = DIRECTION('',(1.,0.E+000,0.E+000));
#336 = ADVANCED_FACE('',(#337),#357,.T.);
#337 = FACE_BOUND('',#338,.F.);
#338 = EDGE_LOOP('',(#339,#348,#349,#350));
#339 = ORIENTED_EDGE('',*,*,#340,.F.);
#340 = EDGE_CURVE('',#290,#341,#343,.T.);
#341 = VERTEX_POINT('',#342);
#342 = CARTESIAN_POINT('',(7.716,-2.9,-3.));
#343 = CIRCLE('',#344,0.144);
#344 = AXIS2_PLACEMENT_3D('',#345,#346,#347);
#345 = CARTESIAN_POINT('',(7.716,-2.9,-2.856));
#346 = DIRECTION('',(-0.E+000,1.,0.E+000));
#347 = DIRECTION('',(1.,0.E+000,0.E+000));
#348 = ORIENTED_EDGE('',*,*,#297,.T.);
#349 = ORIENTED_EDGE('',*,*,#340,.T.);
#350 = ORIENTED_EDGE('',*,*,#351,.F.);
#351 = EDGE_CURVE('',#341,#341,#352,.T.);
#352 = CIRCLE('',#353,0.216);
#353 = AXIS2_PLACEMENT_3D('',#354,#355,#356);
#354 = CARTESIAN_POINT('',(7.5,-2.9,-3.));
#355 = DIRECTION('',(0.E+000,0.E+000,1.));
#356 = DIRECTION('',(1.,0.E+000,0.E+000));
#357 = TOROIDAL_SURFACE('',#358,0.216,0.144);
#358 = AXIS2_PLACEMENT_3D('',#359,#360,#361);
#359 = CARTESIAN_POINT('',(7.5,-2.9,-2.856));
#360 = DIRECTION('',(-0.E+000,-0.E+000,-1.));
#361 = DIRECTION('',(1.,0.E+000,0.E+000));
#362 = ADVANCED_FACE('',(#363),#366,.F.);
#363 = FACE_BOUND('',#364,.F.);
#364 = EDGE_LOOP('',(#365));
#365 = ORIENTED_EDGE('',*,*,#325,.T.);
#366 = PLANE('',#367);
#367 = AXIS2_PLACEMENT_3D('',#368,#369,#370);
#368 = CARTESIAN_POINT('',(-1.483767504926E-017,1.497958850874E-017,-3.)
);
#369 = DIRECTION('',(0.E+000,0.E+000,1.));
#370 = DIRECTION('',(1.,0.E+000,0.E+000));
#371 = ADVANCED_FACE('',(#372),#375,.F.);
#372 = FACE_BOUND('',#373,.F.);
#373 = EDGE_LOOP('',(#374));
#374 = ORIENTED_EDGE('',*,*,#351,.T.);
#375 = PLANE('',#376);
#376 = AXIS2_PLACEMENT_3D('',#377,#378,#379);
#377 = CARTESIAN_POINT('',(7.5,-2.9,-3.));
#378 = DIRECTION('',(0.E+000,0.E+000,1.));
#379 = DIRECTION('',(1.,0.E+000,0.E+000));
#380 = ( GEOMETRIC_REPRESENTATION_CONTEXT(3)
GLOBAL_UNCERTAINTY_ASSIGNED_CONTEXT((#384)) GLOBAL_UNIT_ASSIGNED_CONTEXT
((#381,#382,#383)) REPRESENTATION_CONTEXT('Context #1',
'3D Context with UNIT and UNCERTAINTY') );
#381 = ( LENGTH_UNIT() NAMED_UNIT(*) SI_UNIT(.MILLI.,.METRE.) );
#382 = ( NAMED_UNIT(*) PLANE_ANGLE_UNIT() SI_UNIT($,.RADIAN.) );
#383 = ( NAMED_UNIT(*) SI_UNIT($,.STERADIAN.) SOLID_ANGLE_UNIT() );
#384 = UNCERTAINTY_MEASURE_WITH_UNIT(LENGTH_MEASURE(1.E-007),#381,
'distance_accuracy_value','confusion accuracy');
#385 = PRODUCT_RELATED_PRODUCT_CATEGORY('part',$,(#7));
#386 = MECHANICAL_DESIGN_GEOMETRIC_PRESENTATION_REPRESENTATION('',(#387,
#395,#402,#409,#416,#424,#431,#438,#445,#452,#459),#380);
#387 = STYLED_ITEM('color',(#388),#17);
#388 = PRESENTATION_STYLE_ASSIGNMENT((#389));
#389 = SURFACE_STYLE_USAGE(.BOTH.,#390);
#390 = SURFACE_SIDE_STYLE('',(#391));
#391 = SURFACE_STYLE_FILL_AREA(#392);
#392 = FILL_AREA_STYLE('',(#393));
#393 = FILL_AREA_STYLE_COLOUR('',#394);
#394 = COLOUR_RGB('',0.136999994516,0.402000010014,0.726999998093);
#395 = STYLED_ITEM('color',(#396),#50);
#396 = PRESENTATION_STYLE_ASSIGNMENT((#397));
#397 = SURFACE_STYLE_USAGE(.BOTH.,#398);
#398 = SURFACE_SIDE_STYLE('',(#399));
#399 = SURFACE_STYLE_FILL_AREA(#400);
#400 = FILL_AREA_STYLE('',(#401));
#401 = FILL_AREA_STYLE_COLOUR('',#394);
#402 = STYLED_ITEM('color',(#403),#144);
#403 = PRESENTATION_STYLE_ASSIGNMENT((#404));
#404 = SURFACE_STYLE_USAGE(.BOTH.,#405);
#405 = SURFACE_SIDE_STYLE('',(#406));
#406 = SURFACE_STYLE_FILL_AREA(#407);
#407 = FILL_AREA_STYLE('',(#408));
#408 = FILL_AREA_STYLE_COLOUR('',#394);
#409 = STYLED_ITEM('color',(#410),#240);
#410 = PRESENTATION_STYLE_ASSIGNMENT((#411));
#411 = SURFACE_STYLE_USAGE(.BOTH.,#412);
#412 = SURFACE_SIDE_STYLE('',(#413));
#413 = SURFACE_STYLE_FILL_AREA(#414);
#414 = FILL_AREA_STYLE('',(#415));
#415 = FILL_AREA_STYLE_COLOUR('',#394);
#416 = STYLED_ITEM('color',(#417),#249);
#417 = PRESENTATION_STYLE_ASSIGNMENT((#418));
#418 = SURFACE_STYLE_USAGE(.BOTH.,#419);
#419 = SURFACE_SIDE_STYLE('',(#420));
#420 = SURFACE_STYLE_FILL_AREA(#421);
#421 = FILL_AREA_STYLE('',(#422));
#422 = FILL_AREA_STYLE_COLOUR('',#423);
#423 = COLOUR_RGB('',0.824000000954,0.819999992847,0.78100001812);
#424 = STYLED_ITEM('color',(#425),#275);
#425 = PRESENTATION_STYLE_ASSIGNMENT((#426));
#426 = SURFACE_STYLE_USAGE(.BOTH.,#427);
#427 = SURFACE_SIDE_STYLE('',(#428));
#428 = SURFACE_STYLE_FILL_AREA(#429);
#429 = FILL_AREA_STYLE('',(#430));
#430 = FILL_AREA_STYLE_COLOUR('',#394);
#431 = STYLED_ITEM('color',(#432),#284);
#432 = PRESENTATION_STYLE_ASSIGNMENT((#433));
#433 = SURFACE_STYLE_USAGE(.BOTH.,#434);
#434 = SURFACE_SIDE_STYLE('',(#435));
#435 = SURFACE_STYLE_FILL_AREA(#436);
#436 = FILL_AREA_STYLE('',(#437));
#437 = FILL_AREA_STYLE_COLOUR('',#423);
#438 = STYLED_ITEM('color',(#439),#310);
#439 = PRESENTATION_STYLE_ASSIGNMENT((#440));
#440 = SURFACE_STYLE_USAGE(.BOTH.,#441);
#441 = SURFACE_SIDE_STYLE('',(#442));
#442 = SURFACE_STYLE_FILL_AREA(#443);
#443 = FILL_AREA_STYLE('',(#444));
#444 = FILL_AREA_STYLE_COLOUR('',#423);
#445 = STYLED_ITEM('color',(#446),#336);
#446 = PRESENTATION_STYLE_ASSIGNMENT((#447));
#447 = SURFACE_STYLE_USAGE(.BOTH.,#448);
#448 = SURFACE_SIDE_STYLE('',(#449));
#449 = SURFACE_STYLE_FILL_AREA(#450);
#450 = FILL_AREA_STYLE('',(#451));
#451 = FILL_AREA_STYLE_COLOUR('',#423);
#452 = STYLED_ITEM('color',(#453),#362);
#453 = PRESENTATION_STYLE_ASSIGNMENT((#454));
#454 = SURFACE_STYLE_USAGE(.BOTH.,#455);
#455 = SURFACE_SIDE_STYLE('',(#456));
#456 = SURFACE_STYLE_FILL_AREA(#457);
#457 = FILL_AREA_STYLE('',(#458));
#458 = FILL_AREA_STYLE_COLOUR('',#423);
#459 = STYLED_ITEM('color',(#460),#371);
#460 = PRESENTATION_STYLE_ASSIGNMENT((#461));
#461 = SURFACE_STYLE_USAGE(.BOTH.,#462);
#462 = SURFACE_SIDE_STYLE('',(#463));
#463 = SURFACE_STYLE_FILL_AREA(#464);
#464 = FILL_AREA_STYLE('',(#465));
#465 = FILL_AREA_STYLE_COLOUR('',#423);
ENDSEC;
END-ISO-10303-21;
