ISO-10303-21;
HEADER;
FILE_DESCRIPTION(('FreeCAD Model'),'2;1');
FILE_NAME(
'D:/KiCAD/packages3D-source/Diode_THT.3dshapes\\
D_A-405_P12.70mm_Horizontal.step','2017-11-23T21:14:21',('kicad StepUp')
  ,('ksu MCAD'),'Open CASCADE STEP processor 7.1','FreeCAD','Unknown');
FILE_SCHEMA(('AUTOMOTIVE_DESIGN { 1 0 10303 214 1 1 1 1 }'));
ENDSEC;
DATA;
#1 = APPLICATION_PROTOCOL_DEFINITION('international standard',
  'automotive_design',2000,#2);
#2 = APPLICATION_CONTEXT(
  'core data for automotive mechanical design processes');
#3 = SHAPE_DEFINITION_REPRESENTATION(#4,#10);
#4 = PRODUCT_DEFINITION_SHAPE('','',#5);
#5 = PRODUCT_DEFINITION('design','',#6,#9);
#6 = PRODUCT_DEFINITION_FORMATION('','',#7);
#7 = PRODUCT('D_A-405_P12.70mm_Horizontal','D_A-405_P12.70mm_Horizontal'
  ,'',(#8));
#8 = PRODUCT_CONTEXT('',#2,'mechanical');
#9 = PRODUCT_DEFINITION_CONTEXT('part definition',#2,'design');
#10 = ADVANCED_BREP_SHAPE_REPRESENTATION('',(#11,#15),#350);
#11 = AXIS2_PLACEMENT_3D('',#12,#13,#14);
#12 = CARTESIAN_POINT('',(0.E+000,0.E+000,0.E+000));
#13 = DIRECTION('',(0.E+000,0.E+000,1.));
#14 = DIRECTION('',(1.,0.E+000,-0.E+000));
#15 = MANIFOLD_SOLID_BREP('',#16);
#16 = CLOSED_SHELL('',(#17,#50,#59,#85,#110,#130,#155,#175,#200,#220,
    #245,#265,#290,#316,#341));
#17 = ADVANCED_FACE('',(#18),#45,.T.);
#18 = FACE_BOUND('',#19,.T.);
#19 = EDGE_LOOP('',(#20,#30,#37,#38));
#20 = ORIENTED_EDGE('',*,*,#21,.T.);
#21 = EDGE_CURVE('',#22,#24,#26,.T.);
#22 = VERTEX_POINT('',#23);
#23 = CARTESIAN_POINT('',(0.3,-1.845011104114E-016,-2.5));
#24 = VERTEX_POINT('',#25);
#25 = CARTESIAN_POINT('',(0.3,7.216449660064E-016,1.25));
#26 = LINE('',#27,#28);
#27 = CARTESIAN_POINT('',(0.3,7.216449660064E-016,1.25));
#28 = VECTOR('',#29,1.);
#29 = DIRECTION('',(0.E+000,2.22044604925E-016,1.));
#30 = ORIENTED_EDGE('',*,*,#31,.F.);
#31 = EDGE_CURVE('',#24,#24,#32,.T.);
#32 = CIRCLE('',#33,0.3);
#33 = AXIS2_PLACEMENT_3D('',#34,#35,#36);
#34 = CARTESIAN_POINT('',(0.E+000,7.216449660064E-016,1.25));
#35 = DIRECTION('',(-0.E+000,2.22044604925E-016,1.));
#36 = DIRECTION('',(1.,0.E+000,0.E+000));
#37 = ORIENTED_EDGE('',*,*,#21,.F.);
#38 = ORIENTED_EDGE('',*,*,#39,.T.);
#39 = EDGE_CURVE('',#22,#22,#40,.T.);
#40 = CIRCLE('',#41,0.3);
#41 = AXIS2_PLACEMENT_3D('',#42,#43,#44);
#42 = CARTESIAN_POINT('',(0.E+000,-1.110223024625E-016,-2.5));
#43 = DIRECTION('',(-0.E+000,2.22044604925E-016,1.));
#44 = DIRECTION('',(1.,0.E+000,0.E+000));
#45 = CYLINDRICAL_SURFACE('',#46,0.3);
#46 = AXIS2_PLACEMENT_3D('',#47,#48,#49);
#47 = CARTESIAN_POINT('',(0.E+000,7.216449660064E-016,1.25));
#48 = DIRECTION('',(0.E+000,2.22044604925E-016,1.));
#49 = DIRECTION('',(1.,0.E+000,0.E+000));
#50 = ADVANCED_FACE('',(#51),#54,.T.);
#51 = FACE_BOUND('',#52,.F.);
#52 = EDGE_LOOP('',(#53));
#53 = ORIENTED_EDGE('',*,*,#39,.T.);
#54 = PLANE('',#55);
#55 = AXIS2_PLACEMENT_3D('',#56,#57,#58);
#56 = CARTESIAN_POINT('',(0.3,-1.110223024625E-016,-2.5));
#57 = DIRECTION('',(0.E+000,0.E+000,-1.));
#58 = DIRECTION('',(-1.,0.E+000,0.E+000));
#59 = ADVANCED_FACE('',(#60),#80,.T.);
#60 = FACE_BOUND('',#61,.T.);
#61 = EDGE_LOOP('',(#62,#71,#78,#79));
#62 = ORIENTED_EDGE('',*,*,#63,.T.);
#63 = EDGE_CURVE('',#24,#64,#66,.T.);
#64 = VERTEX_POINT('',#65);
#65 = CARTESIAN_POINT('',(0.6,7.882583474839E-016,1.55));
#66 = CIRCLE('',#67,0.3);
#67 = AXIS2_PLACEMENT_3D('',#68,#69,#70);
#68 = CARTESIAN_POINT('',(0.6,8.318631779296E-016,1.25));
#69 = DIRECTION('',(0.E+000,1.,-2.22044604925E-016));
#70 = DIRECTION('',(1.,0.E+000,0.E+000));
#71 = ORIENTED_EDGE('',*,*,#72,.T.);
#72 = EDGE_CURVE('',#64,#64,#73,.T.);
#73 = CIRCLE('',#74,0.3);
#74 = AXIS2_PLACEMENT_3D('',#75,#76,#77);
#75 = CARTESIAN_POINT('',(0.6,8.548717289614E-016,1.85));
#76 = DIRECTION('',(-1.,-4.078893220341E-032,-1.836970198721E-016));
#77 = DIRECTION('',(-1.836970198721E-016,2.22044604925E-016,1.));
#78 = ORIENTED_EDGE('',*,*,#63,.F.);
#79 = ORIENTED_EDGE('',*,*,#31,.T.);
#80 = TOROIDAL_SURFACE('',#81,0.6,0.3);
#81 = AXIS2_PLACEMENT_3D('',#82,#83,#84);
#82 = CARTESIAN_POINT('',(0.6,7.216449660064E-016,1.25));
#83 = DIRECTION('',(0.E+000,1.,-2.22044604925E-016));
#84 = DIRECTION('',(1.,0.E+000,0.E+000));
#85 = ADVANCED_FACE('',(#86),#105,.T.);
#86 = FACE_BOUND('',#87,.T.);
#87 = EDGE_LOOP('',(#88,#89,#97,#104));
#88 = ORIENTED_EDGE('',*,*,#72,.F.);
#89 = ORIENTED_EDGE('',*,*,#90,.T.);
#90 = EDGE_CURVE('',#64,#91,#93,.T.);
#91 = VERTEX_POINT('',#92);
#92 = CARTESIAN_POINT('',(3.75,7.882583474839E-016,1.55));
#93 = LINE('',#94,#95);
#94 = CARTESIAN_POINT('',(0.6,7.882583474839E-016,1.55));
#95 = VECTOR('',#96,1.);
#96 = DIRECTION('',(1.,0.E+000,0.E+000));
#97 = ORIENTED_EDGE('',*,*,#98,.F.);
#98 = EDGE_CURVE('',#91,#91,#99,.T.);
#99 = CIRCLE('',#100,0.3);
#100 = AXIS2_PLACEMENT_3D('',#101,#102,#103);
#101 = CARTESIAN_POINT('',(3.75,8.548717289614E-016,1.85));
#102 = DIRECTION('',(1.,0.E+000,0.E+000));
#103 = DIRECTION('',(0.E+000,-2.22044604925E-016,-1.));
#104 = ORIENTED_EDGE('',*,*,#90,.F.);
#105 = CYLINDRICAL_SURFACE('',#106,0.3);
#106 = AXIS2_PLACEMENT_3D('',#107,#108,#109);
#107 = CARTESIAN_POINT('',(0.6,8.548717289614E-016,1.85));
#108 = DIRECTION('',(1.,0.E+000,0.E+000));
#109 = DIRECTION('',(0.E+000,-2.22044604925E-016,-1.));
#110 = ADVANCED_FACE('',(#111,#122),#125,.F.);
#111 = FACE_BOUND('',#112,.T.);
#112 = EDGE_LOOP('',(#113));
#113 = ORIENTED_EDGE('',*,*,#114,.F.);
#114 = EDGE_CURVE('',#115,#115,#117,.T.);
#115 = VERTEX_POINT('',#116);
#116 = CARTESIAN_POINT('',(3.75,2.13162820728E-015,3.2));
#117 = CIRCLE('',#118,1.35);
#118 = AXIS2_PLACEMENT_3D('',#119,#120,#121);
#119 = CARTESIAN_POINT('',(3.75,8.215650382226E-016,1.85));
#120 = DIRECTION('',(1.,0.E+000,-0.E+000));
#121 = DIRECTION('',(0.E+000,9.70417162265E-016,1.));
#122 = FACE_BOUND('',#123,.T.);
#123 = EDGE_LOOP('',(#124));
#124 = ORIENTED_EDGE('',*,*,#98,.T.);
#125 = PLANE('',#126);
#126 = AXIS2_PLACEMENT_3D('',#127,#128,#129);
#127 = CARTESIAN_POINT('',(3.75,8.215650382226E-016,1.85));
#128 = DIRECTION('',(1.,0.E+000,0.E+000));
#129 = DIRECTION('',(0.E+000,9.70417162265E-016,1.));
#130 = ADVANCED_FACE('',(#131),#150,.T.);
#131 = FACE_BOUND('',#132,.T.);
#132 = EDGE_LOOP('',(#133,#141,#142,#143));
#133 = ORIENTED_EDGE('',*,*,#134,.F.);
#134 = EDGE_CURVE('',#115,#135,#137,.T.);
#135 = VERTEX_POINT('',#136);
#136 = CARTESIAN_POINT('',(4.53,2.13162820728E-015,3.2));
#137 = LINE('',#138,#139);
#138 = CARTESIAN_POINT('',(3.75,2.13162820728E-015,3.2));
#139 = VECTOR('',#140,1.);
#140 = DIRECTION('',(1.,0.E+000,0.E+000));
#141 = ORIENTED_EDGE('',*,*,#114,.T.);
#142 = ORIENTED_EDGE('',*,*,#134,.T.);
#143 = ORIENTED_EDGE('',*,*,#144,.F.);
#144 = EDGE_CURVE('',#135,#135,#145,.T.);
#145 = CIRCLE('',#146,1.35);
#146 = AXIS2_PLACEMENT_3D('',#147,#148,#149);
#147 = CARTESIAN_POINT('',(4.53,8.215650382226E-016,1.85));
#148 = DIRECTION('',(1.,0.E+000,-0.E+000));
#149 = DIRECTION('',(0.E+000,9.70417162265E-016,1.));
#150 = CYLINDRICAL_SURFACE('',#151,1.35);
#151 = AXIS2_PLACEMENT_3D('',#152,#153,#154);
#152 = CARTESIAN_POINT('',(3.75,8.215650382226E-016,1.85));
#153 = DIRECTION('',(1.,0.E+000,0.E+000));
#154 = DIRECTION('',(0.E+000,9.70417162265E-016,1.));
#155 = ADVANCED_FACE('',(#156,#167),#170,.F.);
#156 = FACE_BOUND('',#157,.T.);
#157 = EDGE_LOOP('',(#158));
#158 = ORIENTED_EDGE('',*,*,#159,.F.);
#159 = EDGE_CURVE('',#160,#160,#162,.T.);
#160 = VERTEX_POINT('',#161);
#161 = CARTESIAN_POINT('',(4.53,2.138289545428E-015,3.21));
#162 = CIRCLE('',#163,1.36);
#163 = AXIS2_PLACEMENT_3D('',#164,#165,#166);
#164 = CARTESIAN_POINT('',(4.53,8.215650382226E-016,1.85));
#165 = DIRECTION('',(1.,0.E+000,-0.E+000));
#166 = DIRECTION('',(0.E+000,9.681797847099E-016,1.));
#167 = FACE_BOUND('',#168,.T.);
#168 = EDGE_LOOP('',(#169));
#169 = ORIENTED_EDGE('',*,*,#144,.T.);
#170 = PLANE('',#171);
#171 = AXIS2_PLACEMENT_3D('',#172,#173,#174);
#172 = CARTESIAN_POINT('',(4.53,8.215650382226E-016,1.85));
#173 = DIRECTION('',(1.,0.E+000,0.E+000));
#174 = DIRECTION('',(0.E+000,9.726879335149E-016,1.));
#175 = ADVANCED_FACE('',(#176),#195,.T.);
#176 = FACE_BOUND('',#177,.T.);
#177 = EDGE_LOOP('',(#178,#179,#187,#194));
#178 = ORIENTED_EDGE('',*,*,#159,.T.);
#179 = ORIENTED_EDGE('',*,*,#180,.T.);
#180 = EDGE_CURVE('',#160,#181,#183,.T.);
#181 = VERTEX_POINT('',#182);
#182 = CARTESIAN_POINT('',(5.83,2.138289545428E-015,3.21));
#183 = LINE('',#184,#185);
#184 = CARTESIAN_POINT('',(4.53,2.138289545428E-015,3.21));
#185 = VECTOR('',#186,1.);
#186 = DIRECTION('',(1.,0.E+000,0.E+000));
#187 = ORIENTED_EDGE('',*,*,#188,.F.);
#188 = EDGE_CURVE('',#181,#181,#189,.T.);
#189 = CIRCLE('',#190,1.36);
#190 = AXIS2_PLACEMENT_3D('',#191,#192,#193);
#191 = CARTESIAN_POINT('',(5.83,8.215650382226E-016,1.85));
#192 = DIRECTION('',(1.,0.E+000,-0.E+000));
#193 = DIRECTION('',(0.E+000,9.681797847099E-016,1.));
#194 = ORIENTED_EDGE('',*,*,#180,.F.);
#195 = CYLINDRICAL_SURFACE('',#196,1.36);
#196 = AXIS2_PLACEMENT_3D('',#197,#198,#199);
#197 = CARTESIAN_POINT('',(4.53,8.215650382226E-016,1.85));
#198 = DIRECTION('',(1.,0.E+000,0.E+000));
#199 = DIRECTION('',(0.E+000,9.681797847099E-016,1.));
#200 = ADVANCED_FACE('',(#201,#204),#215,.T.);
#201 = FACE_BOUND('',#202,.T.);
#202 = EDGE_LOOP('',(#203));
#203 = ORIENTED_EDGE('',*,*,#188,.T.);
#204 = FACE_BOUND('',#205,.T.);
#205 = EDGE_LOOP('',(#206));
#206 = ORIENTED_EDGE('',*,*,#207,.F.);
#207 = EDGE_CURVE('',#208,#208,#210,.T.);
#208 = VERTEX_POINT('',#209);
#209 = CARTESIAN_POINT('',(5.83,2.13162820728E-015,3.2));
#210 = CIRCLE('',#211,1.35);
#211 = AXIS2_PLACEMENT_3D('',#212,#213,#214);
#212 = CARTESIAN_POINT('',(5.83,8.215650382226E-016,1.85));
#213 = DIRECTION('',(1.,0.E+000,-0.E+000));
#214 = DIRECTION('',(0.E+000,9.70417162265E-016,1.));
#215 = PLANE('',#216);
#216 = AXIS2_PLACEMENT_3D('',#217,#218,#219);
#217 = CARTESIAN_POINT('',(5.83,8.215650382226E-016,1.85));
#218 = DIRECTION('',(1.,0.E+000,0.E+000));
#219 = DIRECTION('',(0.E+000,9.681797847099E-016,1.));
#220 = ADVANCED_FACE('',(#221),#240,.T.);
#221 = FACE_BOUND('',#222,.T.);
#222 = EDGE_LOOP('',(#223,#224,#232,#239));
#223 = ORIENTED_EDGE('',*,*,#207,.T.);
#224 = ORIENTED_EDGE('',*,*,#225,.T.);
#225 = EDGE_CURVE('',#208,#226,#228,.T.);
#226 = VERTEX_POINT('',#227);
#227 = CARTESIAN_POINT('',(8.95,2.13162820728E-015,3.2));
#228 = LINE('',#229,#230);
#229 = CARTESIAN_POINT('',(3.75,2.13162820728E-015,3.2));
#230 = VECTOR('',#231,1.);
#231 = DIRECTION('',(1.,0.E+000,0.E+000));
#232 = ORIENTED_EDGE('',*,*,#233,.F.);
#233 = EDGE_CURVE('',#226,#226,#234,.T.);
#234 = CIRCLE('',#235,1.35);
#235 = AXIS2_PLACEMENT_3D('',#236,#237,#238);
#236 = CARTESIAN_POINT('',(8.95,8.215650382226E-016,1.85));
#237 = DIRECTION('',(1.,0.E+000,-0.E+000));
#238 = DIRECTION('',(0.E+000,9.70417162265E-016,1.));
#239 = ORIENTED_EDGE('',*,*,#225,.F.);
#240 = CYLINDRICAL_SURFACE('',#241,1.35);
#241 = AXIS2_PLACEMENT_3D('',#242,#243,#244);
#242 = CARTESIAN_POINT('',(3.75,8.215650382226E-016,1.85));
#243 = DIRECTION('',(1.,0.E+000,0.E+000));
#244 = DIRECTION('',(0.E+000,9.70417162265E-016,1.));
#245 = ADVANCED_FACE('',(#246,#249),#260,.T.);
#246 = FACE_BOUND('',#247,.F.);
#247 = EDGE_LOOP('',(#248));
#248 = ORIENTED_EDGE('',*,*,#233,.F.);
#249 = FACE_BOUND('',#250,.F.);
#250 = EDGE_LOOP('',(#251));
#251 = ORIENTED_EDGE('',*,*,#252,.T.);
#252 = EDGE_CURVE('',#253,#253,#255,.T.);
#253 = VERTEX_POINT('',#254);
#254 = CARTESIAN_POINT('',(8.95,7.882583474839E-016,1.55));
#255 = CIRCLE('',#256,0.3);
#256 = AXIS2_PLACEMENT_3D('',#257,#258,#259);
#257 = CARTESIAN_POINT('',(8.95,8.548717289614E-016,1.85));
#258 = DIRECTION('',(1.,0.E+000,0.E+000));
#259 = DIRECTION('',(0.E+000,-2.22044604925E-016,-1.));
#260 = PLANE('',#261);
#261 = AXIS2_PLACEMENT_3D('',#262,#263,#264);
#262 = CARTESIAN_POINT('',(8.95,8.215650382226E-016,1.85));
#263 = DIRECTION('',(1.,0.E+000,0.E+000));
#264 = DIRECTION('',(0.E+000,9.70417162265E-016,1.));
#265 = ADVANCED_FACE('',(#266),#285,.T.);
#266 = FACE_BOUND('',#267,.T.);
#267 = EDGE_LOOP('',(#268,#269,#277,#284));
#268 = ORIENTED_EDGE('',*,*,#252,.T.);
#269 = ORIENTED_EDGE('',*,*,#270,.T.);
#270 = EDGE_CURVE('',#253,#271,#273,.T.);
#271 = VERTEX_POINT('',#272);
#272 = CARTESIAN_POINT('',(12.1,7.882583474839E-016,1.55));
#273 = LINE('',#274,#275);
#274 = CARTESIAN_POINT('',(0.6,7.882583474839E-016,1.55));
#275 = VECTOR('',#276,1.);
#276 = DIRECTION('',(1.,0.E+000,0.E+000));
#277 = ORIENTED_EDGE('',*,*,#278,.F.);
#278 = EDGE_CURVE('',#271,#271,#279,.T.);
#279 = CIRCLE('',#280,0.3);
#280 = AXIS2_PLACEMENT_3D('',#281,#282,#283);
#281 = CARTESIAN_POINT('',(12.1,8.548717289614E-016,1.85));
#282 = DIRECTION('',(1.,0.E+000,0.E+000));
#283 = DIRECTION('',(0.E+000,-2.22044604925E-016,-1.));
#284 = ORIENTED_EDGE('',*,*,#270,.F.);
#285 = CYLINDRICAL_SURFACE('',#286,0.3);
#286 = AXIS2_PLACEMENT_3D('',#287,#288,#289);
#287 = CARTESIAN_POINT('',(0.6,8.548717289614E-016,1.85));
#288 = DIRECTION('',(1.,0.E+000,0.E+000));
#289 = DIRECTION('',(0.E+000,-2.22044604925E-016,-1.));
#290 = ADVANCED_FACE('',(#291),#311,.T.);
#291 = FACE_BOUND('',#292,.T.);
#292 = EDGE_LOOP('',(#293,#302,#309,#310));
#293 = ORIENTED_EDGE('',*,*,#294,.T.);
#294 = EDGE_CURVE('',#271,#295,#297,.T.);
#295 = VERTEX_POINT('',#296);
#296 = CARTESIAN_POINT('',(12.4,7.216449660064E-016,1.25));
#297 = CIRCLE('',#298,0.3);
#298 = AXIS2_PLACEMENT_3D('',#299,#300,#301);
#299 = CARTESIAN_POINT('',(12.1,8.318631779296E-016,1.25));
#300 = DIRECTION('',(0.E+000,1.,-2.22044604925E-016));
#301 = DIRECTION('',(1.,0.E+000,0.E+000));
#302 = ORIENTED_EDGE('',*,*,#303,.T.);
#303 = EDGE_CURVE('',#295,#295,#304,.T.);
#304 = CIRCLE('',#305,0.3);
#305 = AXIS2_PLACEMENT_3D('',#306,#307,#308);
#306 = CARTESIAN_POINT('',(12.7,7.216449660064E-016,1.25));
#307 = DIRECTION('',(-2.449293598295E-016,2.22044604925E-016,1.));
#308 = DIRECTION('',(1.,5.438524293788E-032,2.449293598295E-016));
#309 = ORIENTED_EDGE('',*,*,#294,.F.);
#310 = ORIENTED_EDGE('',*,*,#278,.T.);
#311 = TOROIDAL_SURFACE('',#312,0.6,0.3);
#312 = AXIS2_PLACEMENT_3D('',#313,#314,#315);
#313 = CARTESIAN_POINT('',(12.1,7.216449660064E-016,1.25));
#314 = DIRECTION('',(0.E+000,1.,-2.22044604925E-016));
#315 = DIRECTION('',(1.,0.E+000,0.E+000));
#316 = ADVANCED_FACE('',(#317),#336,.T.);
#317 = FACE_BOUND('',#318,.T.);
#318 = EDGE_LOOP('',(#319,#327,#334,#335));
#319 = ORIENTED_EDGE('',*,*,#320,.T.);
#320 = EDGE_CURVE('',#295,#321,#323,.T.);
#321 = VERTEX_POINT('',#322);
#322 = CARTESIAN_POINT('',(12.4,-1.845011104114E-016,-2.5));
#323 = LINE('',#324,#325);
#324 = CARTESIAN_POINT('',(12.4,7.216449660064E-016,1.25));
#325 = VECTOR('',#326,1.);
#326 = DIRECTION('',(0.E+000,-2.22044604925E-016,-1.));
#327 = ORIENTED_EDGE('',*,*,#328,.F.);
#328 = EDGE_CURVE('',#321,#321,#329,.T.);
#329 = CIRCLE('',#330,0.3);
#330 = AXIS2_PLACEMENT_3D('',#331,#332,#333);
#331 = CARTESIAN_POINT('',(12.7,-1.110223024625E-016,-2.5));
#332 = DIRECTION('',(-0.E+000,-2.22044604925E-016,-1.));
#333 = DIRECTION('',(-1.,0.E+000,0.E+000));
#334 = ORIENTED_EDGE('',*,*,#320,.F.);
#335 = ORIENTED_EDGE('',*,*,#303,.F.);
#336 = CYLINDRICAL_SURFACE('',#337,0.3);
#337 = AXIS2_PLACEMENT_3D('',#338,#339,#340);
#338 = CARTESIAN_POINT('',(12.7,7.216449660064E-016,1.25));
#339 = DIRECTION('',(0.E+000,-2.22044604925E-016,-1.));
#340 = DIRECTION('',(-1.,0.E+000,0.E+000));
#341 = ADVANCED_FACE('',(#342),#345,.F.);
#342 = FACE_BOUND('',#343,.T.);
#343 = EDGE_LOOP('',(#344));
#344 = ORIENTED_EDGE('',*,*,#328,.T.);
#345 = PLANE('',#346);
#346 = AXIS2_PLACEMENT_3D('',#347,#348,#349);
#347 = CARTESIAN_POINT('',(12.4,-1.110223024625E-016,-2.5));
#348 = DIRECTION('',(0.E+000,0.E+000,1.));
#349 = DIRECTION('',(1.,0.E+000,0.E+000));
#350 = ( GEOMETRIC_REPRESENTATION_CONTEXT(3) 
GLOBAL_UNCERTAINTY_ASSIGNED_CONTEXT((#354)) GLOBAL_UNIT_ASSIGNED_CONTEXT
((#351,#352,#353)) REPRESENTATION_CONTEXT('Context #1',
  '3D Context with UNIT and UNCERTAINTY') );
#351 = ( LENGTH_UNIT() NAMED_UNIT(*) SI_UNIT(.MILLI.,.METRE.) );
#352 = ( NAMED_UNIT(*) PLANE_ANGLE_UNIT() SI_UNIT($,.RADIAN.) );
#353 = ( NAMED_UNIT(*) SI_UNIT($,.STERADIAN.) SOLID_ANGLE_UNIT() );
#354 = UNCERTAINTY_MEASURE_WITH_UNIT(LENGTH_MEASURE(1.E-007),#351,
  'distance_accuracy_value','confusion accuracy');
#355 = PRODUCT_RELATED_PRODUCT_CATEGORY('part',$,(#7));
#356 = MECHANICAL_DESIGN_GEOMETRIC_PRESENTATION_REPRESENTATION('',(#357,
    #365,#372,#379,#386,#394,#401,#409,#416,#423,#430,#437,#444,#451,
    #458),#350);
#357 = STYLED_ITEM('color',(#358),#17);
#358 = PRESENTATION_STYLE_ASSIGNMENT((#359));
#359 = SURFACE_STYLE_USAGE(.BOTH.,#360);
#360 = SURFACE_SIDE_STYLE('',(#361));
#361 = SURFACE_STYLE_FILL_AREA(#362);
#362 = FILL_AREA_STYLE('',(#363));
#363 = FILL_AREA_STYLE_COLOUR('',#364);
#364 = COLOUR_RGB('',0.824000000954,0.819999992847,0.78100001812);
#365 = STYLED_ITEM('color',(#366),#50);
#366 = PRESENTATION_STYLE_ASSIGNMENT((#367));
#367 = SURFACE_STYLE_USAGE(.BOTH.,#368);
#368 = SURFACE_SIDE_STYLE('',(#369));
#369 = SURFACE_STYLE_FILL_AREA(#370);
#370 = FILL_AREA_STYLE('',(#371));
#371 = FILL_AREA_STYLE_COLOUR('',#364);
#372 = STYLED_ITEM('color',(#373),#59);
#373 = PRESENTATION_STYLE_ASSIGNMENT((#374));
#374 = SURFACE_STYLE_USAGE(.BOTH.,#375);
#375 = SURFACE_SIDE_STYLE('',(#376));
#376 = SURFACE_STYLE_FILL_AREA(#377);
#377 = FILL_AREA_STYLE('',(#378));
#378 = FILL_AREA_STYLE_COLOUR('',#364);
#379 = STYLED_ITEM('color',(#380),#85);
#380 = PRESENTATION_STYLE_ASSIGNMENT((#381));
#381 = SURFACE_STYLE_USAGE(.BOTH.,#382);
#382 = SURFACE_SIDE_STYLE('',(#383));
#383 = SURFACE_STYLE_FILL_AREA(#384);
#384 = FILL_AREA_STYLE('',(#385));
#385 = FILL_AREA_STYLE_COLOUR('',#364);
#386 = STYLED_ITEM('color',(#387),#110);
#387 = PRESENTATION_STYLE_ASSIGNMENT((#388));
#388 = SURFACE_STYLE_USAGE(.BOTH.,#389);
#389 = SURFACE_SIDE_STYLE('',(#390));
#390 = SURFACE_STYLE_FILL_AREA(#391);
#391 = FILL_AREA_STYLE('',(#392));
#392 = FILL_AREA_STYLE_COLOUR('',#393);
#393 = COLOUR_RGB('',0.148000001907,0.144999995828,0.144999995828);
#394 = STYLED_ITEM('color',(#395),#130);
#395 = PRESENTATION_STYLE_ASSIGNMENT((#396));
#396 = SURFACE_STYLE_USAGE(.BOTH.,#397);
#397 = SURFACE_SIDE_STYLE('',(#398));
#398 = SURFACE_STYLE_FILL_AREA(#399);
#399 = FILL_AREA_STYLE('',(#400));
#400 = FILL_AREA_STYLE_COLOUR('',#393);
#401 = STYLED_ITEM('color',(#402),#155);
#402 = PRESENTATION_STYLE_ASSIGNMENT((#403));
#403 = SURFACE_STYLE_USAGE(.BOTH.,#404);
#404 = SURFACE_SIDE_STYLE('',(#405));
#405 = SURFACE_STYLE_FILL_AREA(#406);
#406 = FILL_AREA_STYLE('',(#407));
#407 = FILL_AREA_STYLE_COLOUR('',#408);
#408 = COLOUR_RGB('',0.894999980927,0.89099997282,0.813000023365);
#409 = STYLED_ITEM('color',(#410),#175);
#410 = PRESENTATION_STYLE_ASSIGNMENT((#411));
#411 = SURFACE_STYLE_USAGE(.BOTH.,#412);
#412 = SURFACE_SIDE_STYLE('',(#413));
#413 = SURFACE_STYLE_FILL_AREA(#414);
#414 = FILL_AREA_STYLE('',(#415));
#415 = FILL_AREA_STYLE_COLOUR('',#408);
#416 = STYLED_ITEM('color',(#417),#200);
#417 = PRESENTATION_STYLE_ASSIGNMENT((#418));
#418 = SURFACE_STYLE_USAGE(.BOTH.,#419);
#419 = SURFACE_SIDE_STYLE('',(#420));
#420 = SURFACE_STYLE_FILL_AREA(#421);
#421 = FILL_AREA_STYLE('',(#422));
#422 = FILL_AREA_STYLE_COLOUR('',#408);
#423 = STYLED_ITEM('color',(#424),#220);
#424 = PRESENTATION_STYLE_ASSIGNMENT((#425));
#425 = SURFACE_STYLE_USAGE(.BOTH.,#426);
#426 = SURFACE_SIDE_STYLE('',(#427));
#427 = SURFACE_STYLE_FILL_AREA(#428);
#428 = FILL_AREA_STYLE('',(#429));
#429 = FILL_AREA_STYLE_COLOUR('',#393);
#430 = STYLED_ITEM('color',(#431),#245);
#431 = PRESENTATION_STYLE_ASSIGNMENT((#432));
#432 = SURFACE_STYLE_USAGE(.BOTH.,#433);
#433 = SURFACE_SIDE_STYLE('',(#434));
#434 = SURFACE_STYLE_FILL_AREA(#435);
#435 = FILL_AREA_STYLE('',(#436));
#436 = FILL_AREA_STYLE_COLOUR('',#393);
#437 = STYLED_ITEM('color',(#438),#265);
#438 = PRESENTATION_STYLE_ASSIGNMENT((#439));
#439 = SURFACE_STYLE_USAGE(.BOTH.,#440);
#440 = SURFACE_SIDE_STYLE('',(#441));
#441 = SURFACE_STYLE_FILL_AREA(#442);
#442 = FILL_AREA_STYLE('',(#443));
#443 = FILL_AREA_STYLE_COLOUR('',#364);
#444 = STYLED_ITEM('color',(#445),#290);
#445 = PRESENTATION_STYLE_ASSIGNMENT((#446));
#446 = SURFACE_STYLE_USAGE(.BOTH.,#447);
#447 = SURFACE_SIDE_STYLE('',(#448));
#448 = SURFACE_STYLE_FILL_AREA(#449);
#449 = FILL_AREA_STYLE('',(#450));
#450 = FILL_AREA_STYLE_COLOUR('',#364);
#451 = STYLED_ITEM('color',(#452),#316);
#452 = PRESENTATION_STYLE_ASSIGNMENT((#453));
#453 = SURFACE_STYLE_USAGE(.BOTH.,#454);
#454 = SURFACE_SIDE_STYLE('',(#455));
#455 = SURFACE_STYLE_FILL_AREA(#456);
#456 = FILL_AREA_STYLE('',(#457));
#457 = FILL_AREA_STYLE_COLOUR('',#364);
#458 = STYLED_ITEM('color',(#459),#341);
#459 = PRESENTATION_STYLE_ASSIGNMENT((#460));
#460 = SURFACE_STYLE_USAGE(.BOTH.,#461);
#461 = SURFACE_SIDE_STYLE('',(#462));
#462 = SURFACE_STYLE_FILL_AREA(#463);
#463 = FILL_AREA_STYLE('',(#464));
#464 = FILL_AREA_STYLE_COLOUR('',#364);
ENDSEC;
END-ISO-10303-21;
