ISO-10303-21;
HEADER;
/* RV_Disc_D9mm_W6.1mm_P5mm.step 3D STEP model for use in ECAD systems
 * Copyright (C) 2019, kicad StepUp
 * 
 * This work is licensed under the [Creative Commons CC-BY-SA 4.0 License](https://creativecommons.org/licenses/by-sa/4.0/legalcode), 
 * with the following exception:
 * To the extent that the creation of electronic designs that use 'Licensed Material' can be considered to be 'Adapted Material', 
 * then the copyright holder waives article 3 of the license with respect to these designs and any generated files which use data provided 
 * as part of the 'Licensed Material'.
 * You are free to use the library data in your own projects without the obligation to share your project files under this or any other license agreement.
 * However, if you wish to redistribute these libraries, or parts thereof (including in modified form) as a collection then the exception above does not apply. 
 * Please refer to https://github.com/KiCad/kicad-packages3D/blob/master/LICENSE.md for further clarification of the exception.
 * Disclaimer of Warranties and Limitation of Liability.
 * These libraries are provided in the hope that they will be useful, but are provided without warranty of any kind, express or implied.
 * *USE 3D CAD DATA AT YOUR OWN RISK*
 * *DO NOT RELY UPON ANY INFORMATION FOUND HERE WITHOUT INDEPENDENT VERIFICATION.*
 * 
 * 
 * 
 * 
 * 
 * 
 * 
 * 
 * 
 * 
 * 
 * 
 * 
 * 
 * 
 * 
 * 
 * 
 * 
 * 
 * 
 * 
 * 
 * 
 * 
 * 
 * 
 * 
 * 
 * 
 * 
 * 
 * 
 * 
 * 
 * 
 * 
 * 
 * 
 * 
 * 
 * 
 * 
 * 
 * 
 * 
 * 
 * 
 * 
 * 
 * 
 * 
 * 
 * 
 * 
 * 
 * 
 * 
 * 
 * 
 * 
 * 
 * 
 * 
 * 
 * 
 * 
 * 
 * 
 * 
 * 
 * 
 * 
 * 
 * 
 * 
 * 
 * 
 * 
 * 
 * 
 * 
 * 
 * 
 * 
 * 
 * 
 * 
 * 
 * 
 * 
 * 
 * 
 * 
 * 
 * 
 * 
 * 
 */

FILE_DESCRIPTION(
/* description */ ('model of RV_Disc_D9mm_W6.1mm_P5mm'),
/* implementation_level */ '2;1');

FILE_NAME(
/* name */ 'RV_Disc_D9mm_W6.1mm_P5mm.step',
/* time_stamp */ '2019-11-14T12:30:47',
/* author */ ('kicad StepUp','ksu'),
/* organization */ ('FreeCAD'),
/* preprocessor_version */ 'OCC',
/* originating_system */ 'kicad StepUp',
/* authorisation */ '');

FILE_SCHEMA(('AUTOMOTIVE_DESIGN { 1 0 10303 214 1 1 1 1 }'));
ENDSEC;

DATA;
#1 = APPLICATION_PROTOCOL_DEFINITION('international standard',
'automotive_design',2000,#2);
#2 = APPLICATION_CONTEXT(
'core data for automotive mechanical design processes');
#3 = SHAPE_DEFINITION_REPRESENTATION(#4,#10);
#4 = PRODUCT_DEFINITION_SHAPE('','',#5);
#5 = PRODUCT_DEFINITION('design','',#6,#9);
#6 = PRODUCT_DEFINITION_FORMATION('','',#7);
#7 = PRODUCT('RV_Disc_D9mm_W61mm_P5mm','RV_Disc_D9mm_W61mm_P5mm','',(#8)
);
#8 = PRODUCT_CONTEXT('',#2,'mechanical');
#9 = PRODUCT_DEFINITION_CONTEXT('part definition',#2,'design');
#10 = ADVANCED_BREP_SHAPE_REPRESENTATION('',(#11,#15),#399);
#11 = AXIS2_PLACEMENT_3D('',#12,#13,#14);
#12 = CARTESIAN_POINT('',(0.,0.,0.));
#13 = DIRECTION('',(0.,0.,1.));
#14 = DIRECTION('',(1.,0.,-0.));
#15 = MANIFOLD_SOLID_BREP('',#16);
#16 = CLOSED_SHELL('',(#17,#50,#152,#259,#268,#294,#303,#329,#355,#381,
#390));
#17 = ADVANCED_FACE('',(#18),#45,.T.);
#18 = FACE_BOUND('',#19,.F.);
#19 = EDGE_LOOP('',(#20,#30,#37,#38));
#20 = ORIENTED_EDGE('',*,*,#21,.T.);
#21 = EDGE_CURVE('',#22,#24,#26,.T.);
#22 = VERTEX_POINT('',#23);
#23 = CARTESIAN_POINT('',(7.,-0.675609756098,4.53));
#24 = VERTEX_POINT('',#25);
#25 = CARTESIAN_POINT('',(7.,-0.824390243902,4.53));
#26 = LINE('',#27,#28);
#27 = CARTESIAN_POINT('',(7.,2.3,4.53));
#28 = VECTOR('',#29,1.);
#29 = DIRECTION('',(0.,-1.,0.));
#30 = ORIENTED_EDGE('',*,*,#31,.T.);
#31 = EDGE_CURVE('',#24,#24,#32,.T.);
#32 = CIRCLE('',#33,4.5);
#33 = AXIS2_PLACEMENT_3D('',#34,#35,#36);
#34 = CARTESIAN_POINT('',(2.5,-0.824390243902,4.53));
#35 = DIRECTION('',(0.,-1.,0.));
#36 = DIRECTION('',(1.,0.,0.));
#37 = ORIENTED_EDGE('',*,*,#21,.F.);
#38 = ORIENTED_EDGE('',*,*,#39,.F.);
#39 = EDGE_CURVE('',#22,#22,#40,.T.);
#40 = CIRCLE('',#41,4.5);
#41 = AXIS2_PLACEMENT_3D('',#42,#43,#44);
#42 = CARTESIAN_POINT('',(2.5,-0.675609756098,4.53));
#43 = DIRECTION('',(0.,-1.,0.));
#44 = DIRECTION('',(1.,0.,0.));
#45 = CYLINDRICAL_SURFACE('',#46,4.5);
#46 = AXIS2_PLACEMENT_3D('',#47,#48,#49);
#47 = CARTESIAN_POINT('',(2.5,2.3,4.53));
#48 = DIRECTION('',(0.,1.,0.));
#49 = DIRECTION('',(1.,0.,0.));
#50 = ADVANCED_FACE('',(#51,#71),#135,.T.);
#51 = FACE_BOUND('',#52,.F.);
#52 = EDGE_LOOP('',(#53,#54,#63,#70));
#53 = ORIENTED_EDGE('',*,*,#39,.T.);
#54 = ORIENTED_EDGE('',*,*,#55,.T.);
#55 = EDGE_CURVE('',#22,#56,#58,.T.);
#56 = VERTEX_POINT('',#57);
#57 = CARTESIAN_POINT('',(4.024390243902,2.3,4.53));
#58 = CIRCLE('',#59,2.975609756098);
#59 = AXIS2_PLACEMENT_3D('',#60,#61,#62);
#60 = CARTESIAN_POINT('',(4.024390243902,-0.675609756098,4.53));
#61 = DIRECTION('',(0.,0.,1.));
#62 = DIRECTION('',(1.,0.,0.));
#63 = ORIENTED_EDGE('',*,*,#64,.F.);
#64 = EDGE_CURVE('',#56,#56,#65,.T.);
#65 = CIRCLE('',#66,1.524390243902);
#66 = AXIS2_PLACEMENT_3D('',#67,#68,#69);
#67 = CARTESIAN_POINT('',(2.5,2.3,4.53));
#68 = DIRECTION('',(0.,-1.,0.));
#69 = DIRECTION('',(1.,0.,0.));
#70 = ORIENTED_EDGE('',*,*,#55,.F.);
#71 = FACE_BOUND('',#72,.F.);
#72 = EDGE_LOOP('',(#73,#106));
#73 = ORIENTED_EDGE('',*,*,#74,.T.);
#74 = EDGE_CURVE('',#75,#77,#79,.T.);
#75 = VERTEX_POINT('',#76);
#76 = CARTESIAN_POINT('',(0.315,0.,0.685211814038));
#77 = VERTEX_POINT('',#78);
#78 = CARTESIAN_POINT('',(-0.308959606261,6.139186997513E-02,
1.13383940739));
#79 = B_SPLINE_CURVE_WITH_KNOTS('',7,(#80,#81,#82,#83,#84,#85,#86,#87,
#88,#89,#90,#91,#92,#93,#94,#95,#96,#97,#98,#99,#100,#101,#102,#103,
#104,#105),.UNSPECIFIED.,.F.,.F.,(8,6,6,6,8),(0.,9.973041866728E-02,
0.339747102921,0.60380372838,1.),.UNSPECIFIED.);
#80 = CARTESIAN_POINT('',(0.315,-5.551115123126E-17,0.685211814038));
#81 = CARTESIAN_POINT('',(0.315,-1.520771324008E-02,0.681133774518));
#82 = CARTESIAN_POINT('',(0.314143440395,-3.044494329724E-02,
0.6776487492));
#83 = CARTESIAN_POINT('',(0.312424286155,-4.564945072539E-02,
0.674774786946));
#84 = CARTESIAN_POINT('',(0.309842959921,-6.075764861698E-02,
0.672525581203));
#85 = CARTESIAN_POINT('',(0.306406538542,-7.570558313832E-02,
0.6709102292));
#86 = CARTESIAN_POINT('',(0.30212894962,-9.042991406484E-02,
0.669932991145));
#87 = CARTESIAN_POINT('',(0.28476256791,-0.139618537906,0.668774927081)
);
#88 = CARTESIAN_POINT('',(0.267739633462,-0.172726560055,0.671647671759)
);
#89 = CARTESIAN_POINT('',(0.246253821114,-0.203312971103,0.678205602515)
);
#90 = CARTESIAN_POINT('',(0.220827499589,-0.23061369026,0.688259867697)
);
#91 = CARTESIAN_POINT('',(0.192131665871,-0.254038531707,0.701492170132)
);
#92 = CARTESIAN_POINT('',(0.160915369725,-0.273190265955,0.717501084759)
);
#93 = CARTESIAN_POINT('',(9.167621442137E-02,-0.303967034909,
0.756017765482));
#94 = CARTESIAN_POINT('',(5.327155580463E-02,-0.314652280414,
0.779023191533));
#95 = CARTESIAN_POINT('',(1.371949888892E-02,-0.319611609628,
0.804285609776));
#96 = CARTESIAN_POINT('',(-2.599280578517E-02,-0.318791809236,
0.831193329472));
#97 = CARTESIAN_POINT('',(-6.493399131511E-02,-0.312318624286,
0.85913753835));
#98 = CARTESIAN_POINT('',(-0.102250496623,-0.300454830116,0.887526646906
));
#99 = CARTESIAN_POINT('',(-0.189524732975,-0.258243359186,0.958152050834
));
#100 = CARTESIAN_POINT('',(-0.236465883896,-0.221617013354,
1.000210219621));
#101 = CARTESIAN_POINT('',(-0.275308593369,-0.174952583513,1.03995397295
));
#102 = CARTESIAN_POINT('',(-0.303586195473,-0.120182312571,
1.075289914793));
#103 = CARTESIAN_POINT('',(-0.31916274897,-6.000352713233E-02,
1.103991155373));
#104 = CARTESIAN_POINT('',(-0.320792303083,1.842855543239E-03,
1.123870298893));
#105 = CARTESIAN_POINT('',(-0.308959606261,6.139186997513E-02,
1.13383940739));
#106 = ORIENTED_EDGE('',*,*,#107,.T.);
#107 = EDGE_CURVE('',#77,#75,#108,.T.);
#108 = B_SPLINE_CURVE_WITH_KNOTS('',7,(#109,#110,#111,#112,#113,#114,
#115,#116,#117,#118,#119,#120,#121,#122,#123,#124,#125,#126,#127,
#128,#129,#130,#131,#132,#133,#134),.UNSPECIFIED.,.F.,.F.,(8,6,6,6,8
),(0.,9.577858631492E-02,0.344014095014,0.799981580721,1.),
.UNSPECIFIED.);
#109 = CARTESIAN_POINT('',(-0.308959606261,6.139186997513E-02,
1.13383940739));
#110 = CARTESIAN_POINT('',(-0.306426994827,7.413744413285E-02,
1.13597314567));
#111 = CARTESIAN_POINT('',(-0.303278149981,8.67752699929E-02,
1.137652460865));
#112 = CARTESIAN_POINT('',(-0.299518269481,9.926626676245E-02,
1.13886691456));
#113 = CARTESIAN_POINT('',(-0.295156160103,0.111571564103,1.139608553786
));
#114 = CARTESIAN_POINT('',(-0.290204199335,0.123652963139,1.139872119003
));
#115 = CARTESIAN_POINT('',(-0.284678297074,0.135473397475,1.139655252096
));
#116 = CARTESIAN_POINT('',(-0.262838791373,0.176864876053,1.137153416906
));
#117 = CARTESIAN_POINT('',(-0.243350496794,0.204749439635,1.13212559741)
);
#118 = CARTESIAN_POINT('',(-0.220473554687,0.230016934917,1.12388504258)
);
#119 = CARTESIAN_POINT('',(-0.194696634841,0.252150948793,1.112589277135
));
#120 = CARTESIAN_POINT('',(-0.166588500208,0.270778439815,1.098514101864
));
#121 = CARTESIAN_POINT('',(-0.136746734293,0.285669881613,1.082018697016
));
#122 = CARTESIAN_POINT('',(-4.885155857482E-02,0.316999973755,
1.029499204402));
#123 = CARTESIAN_POINT('',(1.184509330509E-02,0.324281721383,
0.988725098881));
#124 = CARTESIAN_POINT('',(7.291060093395E-02,0.31802699558,
0.943546831358));
#125 = CARTESIAN_POINT('',(0.131132000544,0.298717865193,0.896627501398)
);
#126 = CARTESIAN_POINT('',(0.183661461452,0.267387983404,0.850536337603)
);
#127 = CARTESIAN_POINT('',(0.227802346932,0.225665536758,0.807755627375)
);
#128 = CARTESIAN_POINT('',(0.27597412526,0.154126067446,0.754202019586)
);
#129 = CARTESIAN_POINT('',(0.28860376605,0.130784035418,0.738950626754)
);
#130 = CARTESIAN_POINT('',(0.298979140013,0.106130038679,0.72497356806)
);
#131 = CARTESIAN_POINT('',(0.306924784891,8.04166095114E-02,
0.712457398794));
#132 = CARTESIAN_POINT('',(0.312297320014,5.393553759791E-02,
0.701571050041));
#133 = CARTESIAN_POINT('',(0.315,2.701352573303E-02,0.692455652988));
#134 = CARTESIAN_POINT('',(0.315,-3.857637417314E-17,0.685211814038));
#135 = SURFACE_OF_REVOLUTION('',#136,#149);
#136 = B_SPLINE_CURVE_WITH_KNOTS('',6,(#137,#138,#139,#140,#141,#142,
#143,#144,#145,#146,#147,#148),.UNSPECIFIED.,.F.,.F.,(7,5,7),(0.,
0.785398163397,1.570796326795),.UNSPECIFIED.);
#137 = CARTESIAN_POINT('',(7.,-0.675609756098,4.53));
#138 = CARTESIAN_POINT('',(7.,-0.28610334986,4.53));
#139 = CARTESIAN_POINT('',(6.938816716777,0.103402405795,4.53));
#140 = CARTESIAN_POINT('',(6.8164485564,0.480898663875,4.53));
#141 = CARTESIAN_POINT('',(6.636045748443,0.83435618384,4.53));
#142 = CARTESIAN_POINT('',(6.40388670177,1.153041459438,4.53));
#143 = CARTESIAN_POINT('',(5.853041459438,1.70388670177,4.53));
#144 = CARTESIAN_POINT('',(5.53435618384,1.936045748443,4.53));
#145 = CARTESIAN_POINT('',(5.180898663875,2.1164485564,4.53));
#146 = CARTESIAN_POINT('',(4.803402405795,2.238816716777,4.53));
#147 = CARTESIAN_POINT('',(4.41389665014,2.3,4.53));
#148 = CARTESIAN_POINT('',(4.024390243902,2.3,4.53));
#149 = AXIS1_PLACEMENT('',#150,#151);
#150 = CARTESIAN_POINT('',(2.5,-0.675609756098,4.53));
#151 = DIRECTION('',(0.,1.,0.));
#152 = ADVANCED_FACE('',(#153,#173),#242,.T.);
#153 = FACE_BOUND('',#154,.T.);
#154 = EDGE_LOOP('',(#155,#156,#165,#172));
#155 = ORIENTED_EDGE('',*,*,#31,.T.);
#156 = ORIENTED_EDGE('',*,*,#157,.T.);
#157 = EDGE_CURVE('',#24,#158,#160,.T.);
#158 = VERTEX_POINT('',#159);
#159 = CARTESIAN_POINT('',(4.024390243902,-3.8,4.53));
#160 = CIRCLE('',#161,2.975609756098);
#161 = AXIS2_PLACEMENT_3D('',#162,#163,#164);
#162 = CARTESIAN_POINT('',(4.024390243902,-0.824390243902,4.53));
#163 = DIRECTION('',(0.,0.,-1.));
#164 = DIRECTION('',(1.,0.,0.));
#165 = ORIENTED_EDGE('',*,*,#166,.F.);
#166 = EDGE_CURVE('',#158,#158,#167,.T.);
#167 = CIRCLE('',#168,1.524390243902);
#168 = AXIS2_PLACEMENT_3D('',#169,#170,#171);
#169 = CARTESIAN_POINT('',(2.5,-3.8,4.53));
#170 = DIRECTION('',(0.,-1.,0.));
#171 = DIRECTION('',(1.,0.,0.));
#172 = ORIENTED_EDGE('',*,*,#157,.F.);
#173 = FACE_BOUND('',#174,.T.);
#174 = EDGE_LOOP('',(#175,#202));
#175 = ORIENTED_EDGE('',*,*,#176,.T.);
#176 = EDGE_CURVE('',#177,#179,#181,.T.);
#177 = VERTEX_POINT('',#178);
#178 = CARTESIAN_POINT('',(5.315,-1.5,1.119370117572));
#179 = VERTEX_POINT('',#180);
#180 = CARTESIAN_POINT('',(4.738464706535,-1.324431522555,0.675104123313
));
#181 = B_SPLINE_CURVE_WITH_KNOTS('',7,(#182,#183,#184,#185,#186,#187,
#188,#189,#190,#191,#192,#193,#194,#195,#196,#197,#198,#199,#200,
#201),.UNSPECIFIED.,.F.,.F.,(8,6,6,8),(0.,0.440188099995,
0.777279866734,1.),.UNSPECIFIED.);
#182 = CARTESIAN_POINT('',(5.315,-1.5,1.119370117572));
#183 = CARTESIAN_POINT('',(5.315,-1.448480190223,1.103796138299));
#184 = CARTESIAN_POINT('',(5.305169362662,-1.397351230684,1.081720971399
));
#185 = CARTESIAN_POINT('',(5.28577610883,-1.348951754503,1.054150123812)
);
#186 = CARTESIAN_POINT('',(5.257831477871,-1.305324805558,1.022456087623
));
#187 = CARTESIAN_POINT('',(5.222715129144,-1.268003179562,0.987992128237
));
#188 = CARTESIAN_POINT('',(5.181971032266,-1.238121353227,0.952044642903
));
#189 = CARTESIAN_POINT('',(5.102998755936,-1.199893194685,0.888128104993
));
#190 = CARTESIAN_POINT('',(5.066422436235,-1.188145433907,0.8602673083)
);
#191 = CARTESIAN_POINT('',(5.02826563796,-1.181583786017,0.832823765193)
);
#192 = CARTESIAN_POINT('',(4.989335655009,-1.180457981365,0.80635753335)
);
#193 = CARTESIAN_POINT('',(4.950509559417,-1.184890701564,0.781442818922
));
#194 = CARTESIAN_POINT('',(4.912715251311,-1.194841460465,0.758656252092
));
#195 = CARTESIAN_POINT('',(4.853209967952,-1.220108591869,0.725250150255
));
#196 = CARTESIAN_POINT('',(4.830394004974,-1.232458513091,0.713126223433
));
#197 = CARTESIAN_POINT('',(4.808709588314,-1.247029875222,0.702328008273
));
#198 = CARTESIAN_POINT('',(4.788428261095,-1.263703973205,0.693005705804
));
#199 = CARTESIAN_POINT('',(4.76981021225,-1.282313842521,0.685293900973)
);
#200 = CARTESIAN_POINT('',(4.753091036049,-1.302643434868,0.67930232622)
);
#201 = CARTESIAN_POINT('',(4.738464706535,-1.324431522555,0.675104123313
));
#202 = ORIENTED_EDGE('',*,*,#203,.T.);
#203 = EDGE_CURVE('',#179,#177,#204,.T.);
#204 = B_SPLINE_CURVE_WITH_KNOTS('',8,(#205,#206,#207,#208,#209,#210,
#211,#212,#213,#214,#215,#216,#217,#218,#219,#220,#221,#222,#223,
#224,#225,#226,#227,#228,#229,#230,#231,#232,#233,#234,#235,#236,
#237,#238,#239,#240,#241),.UNSPECIFIED.,.F.,.F.,(9,7,7,7,7,9),(0.,
6.474909268283E-02,0.272460133246,0.47854962373,0.870994098368,1.),
.UNSPECIFIED.);
#205 = CARTESIAN_POINT('',(4.738464706535,-1.324431522555,0.675104123313
));
#206 = CARTESIAN_POINT('',(4.733061809457,-1.332479939295,0.673553326977
));
#207 = CARTESIAN_POINT('',(4.727938503775,-1.340723535064,0.672242191336
));
#208 = CARTESIAN_POINT('',(4.723103981248,-1.349150000648,0.67117421347)
);
#209 = CARTESIAN_POINT('',(4.718566620784,-1.357746544152,0.670352250345
));
#210 = CARTESIAN_POINT('',(4.714333988446,-1.366499891005,0.669778518813
));
#211 = CARTESIAN_POINT('',(4.710412837451,-1.375396283956,0.669454595613
));
#212 = CARTESIAN_POINT('',(4.706809108164,-1.384421483073,0.669381417369
));
#213 = CARTESIAN_POINT('',(4.693002107661,-1.422879013087,0.670129854694
));
#214 = CARTESIAN_POINT('',(4.6857922183,-1.453379611092,0.673283696703)
);
#215 = CARTESIAN_POINT('',(4.682072790026,-1.484569348381,0.679031486456
));
#216 = CARTESIAN_POINT('',(4.681905949267,-1.515935502023,0.687304868422
));
#217 = CARTESIAN_POINT('',(4.685253111874,-1.54697729223,0.697967836704)
);
#218 = CARTESIAN_POINT('',(4.69198922703,-1.577228340555,0.710828785162)
);
#219 = CARTESIAN_POINT('',(4.701919572064,-1.606270131588,0.725653222656
));
#220 = CARTESIAN_POINT('',(4.727578076901,-1.660988401578,0.758572085848
));
#221 = CARTESIAN_POINT('',(4.74326316727,-1.686695757609,0.776643794249)
);
#222 = CARTESIAN_POINT('',(4.761623539899,-1.710514455894,0.796144354064
));
#223 = CARTESIAN_POINT('',(4.782388924529,-1.732152437749,0.816804459374
));
#224 = CARTESIAN_POINT('',(4.805265511082,-1.751366202032,0.838343384567
));
#225 = CARTESIAN_POINT('',(4.82994656737,-1.767956092236,0.86047588143)
);
#226 = CARTESIAN_POINT('',(4.856117773422,-1.781760344819,0.882916011666
));
#227 = CARTESIAN_POINT('',(4.93551832272,-1.813380447421,0.948150837282)
);
#228 = CARTESIAN_POINT('',(4.991893236714,-1.823567639426,0.991066440937
));
#229 = CARTESIAN_POINT('',(5.050330011086,-1.822231985247,1.032108312049
));
#230 = CARTESIAN_POINT('',(5.108279606146,-1.808799525166,1.069119149896
));
#231 = CARTESIAN_POINT('',(5.162913972221,-1.783285615794,1.099912483207
));
#232 = CARTESIAN_POINT('',(5.211128725603,-1.7464742902,1.122456361103)
);
#233 = CARTESIAN_POINT('',(5.250006117164,-1.700492366446,1.135469060152
));
#234 = CARTESIAN_POINT('',(5.286933912094,-1.631413330405,1.139980032608
));
#235 = CARTESIAN_POINT('',(5.294872554326,-1.613672970146,1.140056846291
));
#236 = CARTESIAN_POINT('',(5.301552677218,-1.595391856248,1.139091148021
));
#237 = CARTESIAN_POINT('',(5.306928614288,-1.5766856072,1.137093124797)
);
#238 = CARTESIAN_POINT('',(5.310969894173,-1.557673507214,1.134084967579
));
#239 = CARTESIAN_POINT('',(5.313660811875,-1.538476128626,1.130099369219
));
#240 = CARTESIAN_POINT('',(5.315,-1.519212954293,1.1251780224));
#241 = CARTESIAN_POINT('',(5.315,-1.5,1.119370117572));
#242 = SURFACE_OF_REVOLUTION('',#243,#256);
#243 = B_SPLINE_CURVE_WITH_KNOTS('',6,(#244,#245,#246,#247,#248,#249,
#250,#251,#252,#253,#254,#255),.UNSPECIFIED.,.F.,.F.,(7,5,7),(0.,
0.785398163397,1.570796326795),.UNSPECIFIED.);
#244 = CARTESIAN_POINT('',(7.,-0.824390243902,4.53));
#245 = CARTESIAN_POINT('',(7.,-1.21389665014,4.53));
#246 = CARTESIAN_POINT('',(6.938816716777,-1.603402405795,4.53));
#247 = CARTESIAN_POINT('',(6.8164485564,-1.980898663875,4.53));
#248 = CARTESIAN_POINT('',(6.636045748443,-2.33435618384,4.53));
#249 = CARTESIAN_POINT('',(6.40388670177,-2.653041459438,4.53));
#250 = CARTESIAN_POINT('',(5.853041459438,-3.20388670177,4.53));
#251 = CARTESIAN_POINT('',(5.53435618384,-3.436045748443,4.53));
#252 = CARTESIAN_POINT('',(5.180898663875,-3.6164485564,4.53));
#253 = CARTESIAN_POINT('',(4.803402405795,-3.738816716777,4.53));
#254 = CARTESIAN_POINT('',(4.41389665014,-3.8,4.53));
#255 = CARTESIAN_POINT('',(4.024390243902,-3.8,4.53));
#256 = AXIS1_PLACEMENT('',#257,#258);
#257 = CARTESIAN_POINT('',(2.5,-0.824390243902,4.53));
#258 = DIRECTION('',(0.,-1.,0.));
#259 = ADVANCED_FACE('',(#260),#263,.F.);
#260 = FACE_BOUND('',#261,.F.);
#261 = EDGE_LOOP('',(#262));
#262 = ORIENTED_EDGE('',*,*,#64,.T.);
#263 = PLANE('',#264);
#264 = AXIS2_PLACEMENT_3D('',#265,#266,#267);
#265 = CARTESIAN_POINT('',(2.5,2.3,4.53));
#266 = DIRECTION('',(-0.,-1.,-0.));
#267 = DIRECTION('',(0.,0.,-1.));
#268 = ADVANCED_FACE('',(#269),#289,.T.);
#269 = FACE_BOUND('',#270,.T.);
#270 = EDGE_LOOP('',(#271,#272,#280,#287,#288));
#271 = ORIENTED_EDGE('',*,*,#107,.T.);
#272 = ORIENTED_EDGE('',*,*,#273,.T.);
#273 = EDGE_CURVE('',#75,#274,#276,.T.);
#274 = VERTEX_POINT('',#275);
#275 = CARTESIAN_POINT('',(0.315,-4.655594885001E-32,-2.874));
#276 = LINE('',#277,#278);
#277 = CARTESIAN_POINT('',(0.315,0.,4.53));
#278 = VECTOR('',#279,1.);
#279 = DIRECTION('',(-0.,-0.,-1.));
#280 = ORIENTED_EDGE('',*,*,#281,.T.);
#281 = EDGE_CURVE('',#274,#274,#282,.T.);
#282 = CIRCLE('',#283,0.315);
#283 = AXIS2_PLACEMENT_3D('',#284,#285,#286);
#284 = CARTESIAN_POINT('',(-1.22559252389E-30,2.736027634801E-30,-2.874)
);
#285 = DIRECTION('',(1.656296517219E-31,-3.694916575398E-31,1.));
#286 = DIRECTION('',(1.,-8.833598678256E-30,-1.656296517219E-31));
#287 = ORIENTED_EDGE('',*,*,#273,.F.);
#288 = ORIENTED_EDGE('',*,*,#74,.T.);
#289 = CYLINDRICAL_SURFACE('',#290,0.315);
#290 = AXIS2_PLACEMENT_3D('',#291,#292,#293);
#291 = CARTESIAN_POINT('',(0.,0.,4.53));
#292 = DIRECTION('',(0.,0.,1.));
#293 = DIRECTION('',(1.,0.,0.));
#294 = ADVANCED_FACE('',(#295),#298,.T.);
#295 = FACE_BOUND('',#296,.T.);
#296 = EDGE_LOOP('',(#297));
#297 = ORIENTED_EDGE('',*,*,#166,.T.);
#298 = PLANE('',#299);
#299 = AXIS2_PLACEMENT_3D('',#300,#301,#302);
#300 = CARTESIAN_POINT('',(2.5,-3.8,4.53));
#301 = DIRECTION('',(-0.,-1.,-0.));
#302 = DIRECTION('',(0.,0.,-1.));
#303 = ADVANCED_FACE('',(#304),#324,.T.);
#304 = FACE_BOUND('',#305,.T.);
#305 = EDGE_LOOP('',(#306,#307,#315,#322,#323));
#306 = ORIENTED_EDGE('',*,*,#176,.F.);
#307 = ORIENTED_EDGE('',*,*,#308,.T.);
#308 = EDGE_CURVE('',#177,#309,#311,.T.);
#309 = VERTEX_POINT('',#310);
#310 = CARTESIAN_POINT('',(5.315,-1.5,-2.874));
#311 = LINE('',#312,#313);
#312 = CARTESIAN_POINT('',(5.315,-1.5,4.53));
#313 = VECTOR('',#314,1.);
#314 = DIRECTION('',(-0.,-0.,-1.));
#315 = ORIENTED_EDGE('',*,*,#316,.T.);
#316 = EDGE_CURVE('',#309,#309,#317,.T.);
#317 = CIRCLE('',#318,0.315);
#318 = AXIS2_PLACEMENT_3D('',#319,#320,#321);
#319 = CARTESIAN_POINT('',(5.,-1.5,-2.874));
#320 = DIRECTION('',(0.,0.,1.));
#321 = DIRECTION('',(1.,0.,0.));
#322 = ORIENTED_EDGE('',*,*,#308,.F.);
#323 = ORIENTED_EDGE('',*,*,#203,.F.);
#324 = CYLINDRICAL_SURFACE('',#325,0.315);
#325 = AXIS2_PLACEMENT_3D('',#326,#327,#328);
#326 = CARTESIAN_POINT('',(5.,-1.5,4.53));
#327 = DIRECTION('',(0.,0.,1.));
#328 = DIRECTION('',(1.,0.,0.));
#329 = ADVANCED_FACE('',(#330),#350,.T.);
#330 = FACE_BOUND('',#331,.F.);
#331 = EDGE_LOOP('',(#332,#341,#342,#343));
#332 = ORIENTED_EDGE('',*,*,#333,.F.);
#333 = EDGE_CURVE('',#274,#334,#336,.T.);
#334 = VERTEX_POINT('',#335);
#335 = CARTESIAN_POINT('',(0.189,1.11303343346E-30,-3.));
#336 = CIRCLE('',#337,0.126);
#337 = AXIS2_PLACEMENT_3D('',#338,#339,#340);
#338 = CARTESIAN_POINT('',(0.189,1.06647748461E-30,-2.874));
#339 = DIRECTION('',(8.833598678256E-30,1.,3.694916575398E-31));
#340 = DIRECTION('',(1.,-8.833598678256E-30,-1.656296517219E-31));
#341 = ORIENTED_EDGE('',*,*,#281,.T.);
#342 = ORIENTED_EDGE('',*,*,#333,.T.);
#343 = ORIENTED_EDGE('',*,*,#344,.F.);
#344 = EDGE_CURVE('',#334,#334,#345,.T.);
#345 = CIRCLE('',#346,0.189);
#346 = AXIS2_PLACEMENT_3D('',#347,#348,#349);
#347 = CARTESIAN_POINT('',(-1.246461860007E-30,2.782583583651E-30,-3.));
#348 = DIRECTION('',(1.656296517219E-31,-3.694916575398E-31,1.));
#349 = DIRECTION('',(1.,-8.833598678256E-30,-1.656296517219E-31));
#350 = TOROIDAL_SURFACE('',#351,0.189,0.126);
#351 = AXIS2_PLACEMENT_3D('',#352,#353,#354);
#352 = CARTESIAN_POINT('',(-1.22559252389E-30,2.736027634801E-30,-2.874)
);
#353 = DIRECTION('',(-1.656296517219E-31,3.694916575398E-31,-1.));
#354 = DIRECTION('',(1.,-8.833598678256E-30,-1.656296517219E-31));
#355 = ADVANCED_FACE('',(#356),#376,.T.);
#356 = FACE_BOUND('',#357,.F.);
#357 = EDGE_LOOP('',(#358,#367,#368,#369));
#358 = ORIENTED_EDGE('',*,*,#359,.F.);
#359 = EDGE_CURVE('',#309,#360,#362,.T.);
#360 = VERTEX_POINT('',#361);
#361 = CARTESIAN_POINT('',(5.189,-1.5,-3.));
#362 = CIRCLE('',#363,0.126);
#363 = AXIS2_PLACEMENT_3D('',#364,#365,#366);
#364 = CARTESIAN_POINT('',(5.189,-1.5,-2.874));
#365 = DIRECTION('',(-0.,1.,0.));
#366 = DIRECTION('',(1.,0.,0.));
#367 = ORIENTED_EDGE('',*,*,#316,.T.);
#368 = ORIENTED_EDGE('',*,*,#359,.T.);
#369 = ORIENTED_EDGE('',*,*,#370,.F.);
#370 = EDGE_CURVE('',#360,#360,#371,.T.);
#371 = CIRCLE('',#372,0.189);
#372 = AXIS2_PLACEMENT_3D('',#373,#374,#375);
#373 = CARTESIAN_POINT('',(5.,-1.5,-3.));
#374 = DIRECTION('',(0.,0.,1.));
#375 = DIRECTION('',(1.,0.,0.));
#376 = TOROIDAL_SURFACE('',#377,0.189,0.126);
#377 = AXIS2_PLACEMENT_3D('',#378,#379,#380);
#378 = CARTESIAN_POINT('',(5.,-1.5,-2.874));
#379 = DIRECTION('',(-0.,-0.,-1.));
#380 = DIRECTION('',(1.,0.,0.));
#381 = ADVANCED_FACE('',(#382),#385,.F.);
#382 = FACE_BOUND('',#383,.F.);
#383 = EDGE_LOOP('',(#384));
#384 = ORIENTED_EDGE('',*,*,#344,.T.);
#385 = PLANE('',#386);
#386 = AXIS2_PLACEMENT_3D('',#387,#388,#389);
#387 = CARTESIAN_POINT('',(-8.478671456718E-18,2.105589443582E-17,-3.));
#388 = DIRECTION('',(1.656296517219E-31,-3.694916575398E-31,1.));
#389 = DIRECTION('',(0.,1.,3.694916575398E-31));
#390 = ADVANCED_FACE('',(#391),#394,.F.);
#391 = FACE_BOUND('',#392,.F.);
#392 = EDGE_LOOP('',(#393));
#393 = ORIENTED_EDGE('',*,*,#370,.T.);
#394 = PLANE('',#395);
#395 = AXIS2_PLACEMENT_3D('',#396,#397,#398);
#396 = CARTESIAN_POINT('',(5.,-1.5,-3.));
#397 = DIRECTION('',(0.,0.,1.));
#398 = DIRECTION('',(1.,0.,0.));
#399 = ( GEOMETRIC_REPRESENTATION_CONTEXT(3)
GLOBAL_UNCERTAINTY_ASSIGNED_CONTEXT((#403)) GLOBAL_UNIT_ASSIGNED_CONTEXT
((#400,#401,#402)) REPRESENTATION_CONTEXT('Context #1',
'3D Context with UNIT and UNCERTAINTY') );
#400 = ( LENGTH_UNIT() NAMED_UNIT(*) SI_UNIT(.MILLI.,.METRE.) );
#401 = ( NAMED_UNIT(*) PLANE_ANGLE_UNIT() SI_UNIT($,.RADIAN.) );
#402 = ( NAMED_UNIT(*) SI_UNIT($,.STERADIAN.) SOLID_ANGLE_UNIT() );
#403 = UNCERTAINTY_MEASURE_WITH_UNIT(LENGTH_MEASURE(1.E-07),#400,
'distance_accuracy_value','confusion accuracy');
#404 = PRODUCT_RELATED_PRODUCT_CATEGORY('part',$,(#7));
#405 = MECHANICAL_DESIGN_GEOMETRIC_PRESENTATION_REPRESENTATION('',(#406,
#414,#421,#428,#435,#443,#450,#457,#464,#471,#478),#399);
#406 = STYLED_ITEM('color',(#407),#17);
#407 = PRESENTATION_STYLE_ASSIGNMENT((#408));
#408 = SURFACE_STYLE_USAGE(.BOTH.,#409);
#409 = SURFACE_SIDE_STYLE('',(#410));
#410 = SURFACE_STYLE_FILL_AREA(#411);
#411 = FILL_AREA_STYLE('',(#412));
#412 = FILL_AREA_STYLE_COLOUR('',#413);
#413 = COLOUR_RGB('',0.136999994516,0.402000010014,0.726999998093);
#414 = STYLED_ITEM('color',(#415),#50);
#415 = PRESENTATION_STYLE_ASSIGNMENT((#416));
#416 = SURFACE_STYLE_USAGE(.BOTH.,#417);
#417 = SURFACE_SIDE_STYLE('',(#418));
#418 = SURFACE_STYLE_FILL_AREA(#419);
#419 = FILL_AREA_STYLE('',(#420));
#420 = FILL_AREA_STYLE_COLOUR('',#413);
#421 = STYLED_ITEM('color',(#422),#152);
#422 = PRESENTATION_STYLE_ASSIGNMENT((#423));
#423 = SURFACE_STYLE_USAGE(.BOTH.,#424);
#424 = SURFACE_SIDE_STYLE('',(#425));
#425 = SURFACE_STYLE_FILL_AREA(#426);
#426 = FILL_AREA_STYLE('',(#427));
#427 = FILL_AREA_STYLE_COLOUR('',#413);
#428 = STYLED_ITEM('color',(#429),#259);
#429 = PRESENTATION_STYLE_ASSIGNMENT((#430));
#430 = SURFACE_STYLE_USAGE(.BOTH.,#431);
#431 = SURFACE_SIDE_STYLE('',(#432));
#432 = SURFACE_STYLE_FILL_AREA(#433);
#433 = FILL_AREA_STYLE('',(#434));
#434 = FILL_AREA_STYLE_COLOUR('',#413);
#435 = STYLED_ITEM('color',(#436),#268);
#436 = PRESENTATION_STYLE_ASSIGNMENT((#437));
#437 = SURFACE_STYLE_USAGE(.BOTH.,#438);
#438 = SURFACE_SIDE_STYLE('',(#439));
#439 = SURFACE_STYLE_FILL_AREA(#440);
#440 = FILL_AREA_STYLE('',(#441));
#441 = FILL_AREA_STYLE_COLOUR('',#442);
#442 = COLOUR_RGB('',0.824000000954,0.819999992847,0.78100001812);
#443 = STYLED_ITEM('color',(#444),#294);
#444 = PRESENTATION_STYLE_ASSIGNMENT((#445));
#445 = SURFACE_STYLE_USAGE(.BOTH.,#446);
#446 = SURFACE_SIDE_STYLE('',(#447));
#447 = SURFACE_STYLE_FILL_AREA(#448);
#448 = FILL_AREA_STYLE('',(#449));
#449 = FILL_AREA_STYLE_COLOUR('',#413);
#450 = STYLED_ITEM('color',(#451),#303);
#451 = PRESENTATION_STYLE_ASSIGNMENT((#452));
#452 = SURFACE_STYLE_USAGE(.BOTH.,#453);
#453 = SURFACE_SIDE_STYLE('',(#454));
#454 = SURFACE_STYLE_FILL_AREA(#455);
#455 = FILL_AREA_STYLE('',(#456));
#456 = FILL_AREA_STYLE_COLOUR('',#442);
#457 = STYLED_ITEM('color',(#458),#329);
#458 = PRESENTATION_STYLE_ASSIGNMENT((#459));
#459 = SURFACE_STYLE_USAGE(.BOTH.,#460);
#460 = SURFACE_SIDE_STYLE('',(#461));
#461 = SURFACE_STYLE_FILL_AREA(#462);
#462 = FILL_AREA_STYLE('',(#463));
#463 = FILL_AREA_STYLE_COLOUR('',#442);
#464 = STYLED_ITEM('color',(#465),#355);
#465 = PRESENTATION_STYLE_ASSIGNMENT((#466));
#466 = SURFACE_STYLE_USAGE(.BOTH.,#467);
#467 = SURFACE_SIDE_STYLE('',(#468));
#468 = SURFACE_STYLE_FILL_AREA(#469);
#469 = FILL_AREA_STYLE('',(#470));
#470 = FILL_AREA_STYLE_COLOUR('',#442);
#471 = STYLED_ITEM('color',(#472),#381);
#472 = PRESENTATION_STYLE_ASSIGNMENT((#473));
#473 = SURFACE_STYLE_USAGE(.BOTH.,#474);
#474 = SURFACE_SIDE_STYLE('',(#475));
#475 = SURFACE_STYLE_FILL_AREA(#476);
#476 = FILL_AREA_STYLE('',(#477));
#477 = FILL_AREA_STYLE_COLOUR('',#442);
#478 = STYLED_ITEM('color',(#479),#390);
#479 = PRESENTATION_STYLE_ASSIGNMENT((#480));
#480 = SURFACE_STYLE_USAGE(.BOTH.,#481);
#481 = SURFACE_SIDE_STYLE('',(#482));
#482 = SURFACE_STYLE_FILL_AREA(#483);
#483 = FILL_AREA_STYLE('',(#484));
#484 = FILL_AREA_STYLE_COLOUR('',#442);
ENDSEC;
END-ISO-10303-21;
