ISO-10303-21;
HEADER;
/* RV_Disc_D9mm_W5.4mm_P5mm.step 3D STEP model for use in ECAD systems
 * Copyright (C) 2018, kicad StepUp
 * 
 * This work is licensed under the [Creative Commons CC-BY-SA 4.0 License](https://creativecommons.org/licenses/by-sa/4.0/legalcode), 
 * with the following exception:
 * To the extent that the creation of electronic designs that use 'Licensed Material' can be considered to be 'Adapted Material', 
 * then the copyright holder waives article 3 of the license with respect to these designs and any generated files which use data provided 
 * as part of the 'Licensed Material'.
 * You are free to use the library data in your own projects without the obligation to share your project files under this or any other license agreement.
 * However, if you wish to redistribute these libraries, or parts thereof (including in modified form) as a collection then the exception above does not apply. 
 * Please refer to https://github.com/KiCad/kicad-packages3D/blob/master/LICENSE.md for further clarification of the exception.
 * Disclaimer of Warranties and Limitation of Liability.
 * These libraries are provided in the hope that they will be useful, but are provided without warranty of any kind, express or implied.
 * *USE 3D CAD DATA AT YOUR OWN RISK*
 * *DO NOT RELY UPON ANY INFORMATION FOUND HERE WITHOUT INDEPENDENT VERIFICATION.*
 * 
 */

FILE_DESCRIPTION(
/* description */ ('model of RV_Disc_D9mm_W5.4mm_P5mm'),
/* implementation_level */ '2;1');

FILE_NAME(
/* name */ 'RV_Disc_D9mm_W5.4mm_P5mm.step',
/* time_stamp */ '2018-11-11T21:12:54',
/* author */ ('kicad StepUp','ksu'),
/* organization */ ('FreeCAD'),
/* preprocessor_version */ 'OCC',
/* originating_system */ 'kicad StepUp',
/* authorisation */ '');

FILE_SCHEMA(('AUTOMOTIVE_DESIGN { 1 0 10303 214 1 1 1 1 }'));
ENDSEC;

DATA;
#1 = APPLICATION_PROTOCOL_DEFINITION('international standard',
'automotive_design',2000,#2);
#2 = APPLICATION_CONTEXT(
'core data for automotive mechanical design processes');
#3 = SHAPE_DEFINITION_REPRESENTATION(#4,#10);
#4 = PRODUCT_DEFINITION_SHAPE('','',#5);
#5 = PRODUCT_DEFINITION('design','',#6,#9);
#6 = PRODUCT_DEFINITION_FORMATION('','',#7);
#7 = PRODUCT('RV_Disc_D9mm_W54mm_P5mm','RV_Disc_D9mm_W54mm_P5mm','',(#8)
);
#8 = PRODUCT_CONTEXT('',#2,'mechanical');
#9 = PRODUCT_DEFINITION_CONTEXT('part definition',#2,'design');
#10 = ADVANCED_BREP_SHAPE_REPRESENTATION('',(#11,#15),#406);
#11 = AXIS2_PLACEMENT_3D('',#12,#13,#14);
#12 = CARTESIAN_POINT('',(0.E+000,0.E+000,0.E+000));
#13 = DIRECTION('',(0.E+000,0.E+000,1.));
#14 = DIRECTION('',(1.,0.E+000,-0.E+000));
#15 = MANIFOLD_SOLID_BREP('',#16);
#16 = CLOSED_SHELL('',(#17,#50,#154,#266,#275,#301,#310,#336,#362,#388,
#397));
#17 = ADVANCED_FACE('',(#18),#45,.T.);
#18 = FACE_BOUND('',#19,.F.);
#19 = EDGE_LOOP('',(#20,#30,#37,#38));
#20 = ORIENTED_EDGE('',*,*,#21,.T.);
#21 = EDGE_CURVE('',#22,#24,#26,.T.);
#22 = VERTEX_POINT('',#23);
#23 = CARTESIAN_POINT('',(7.,-1.334146341463,4.53));
#24 = VERTEX_POINT('',#25);
#25 = CARTESIAN_POINT('',(7.,-1.465853658537,4.53));
#26 = LINE('',#27,#28);
#27 = CARTESIAN_POINT('',(7.,1.3,4.53));
#28 = VECTOR('',#29,1.);
#29 = DIRECTION('',(0.E+000,-1.,0.E+000));
#30 = ORIENTED_EDGE('',*,*,#31,.T.);
#31 = EDGE_CURVE('',#24,#24,#32,.T.);
#32 = CIRCLE('',#33,4.5);
#33 = AXIS2_PLACEMENT_3D('',#34,#35,#36);
#34 = CARTESIAN_POINT('',(2.5,-1.465853658537,4.53));
#35 = DIRECTION('',(0.E+000,-1.,0.E+000));
#36 = DIRECTION('',(1.,0.E+000,0.E+000));
#37 = ORIENTED_EDGE('',*,*,#21,.F.);
#38 = ORIENTED_EDGE('',*,*,#39,.F.);
#39 = EDGE_CURVE('',#22,#22,#40,.T.);
#40 = CIRCLE('',#41,4.5);
#41 = AXIS2_PLACEMENT_3D('',#42,#43,#44);
#42 = CARTESIAN_POINT('',(2.5,-1.334146341463,4.53));
#43 = DIRECTION('',(0.E+000,-1.,0.E+000));
#44 = DIRECTION('',(1.,0.E+000,0.E+000));
#45 = CYLINDRICAL_SURFACE('',#46,4.5);
#46 = AXIS2_PLACEMENT_3D('',#47,#48,#49);
#47 = CARTESIAN_POINT('',(2.5,1.3,4.53));
#48 = DIRECTION('',(0.E+000,1.,0.E+000));
#49 = DIRECTION('',(1.,0.E+000,0.E+000));
#50 = ADVANCED_FACE('',(#51,#71),#137,.T.);
#51 = FACE_BOUND('',#52,.F.);
#52 = EDGE_LOOP('',(#53,#54,#63,#70));
#53 = ORIENTED_EDGE('',*,*,#39,.T.);
#54 = ORIENTED_EDGE('',*,*,#55,.T.);
#55 = EDGE_CURVE('',#22,#56,#58,.T.);
#56 = VERTEX_POINT('',#57);
#57 = CARTESIAN_POINT('',(4.365853658537,1.3,4.53));
#58 = CIRCLE('',#59,2.634146341463);
#59 = AXIS2_PLACEMENT_3D('',#60,#61,#62);
#60 = CARTESIAN_POINT('',(4.365853658537,-1.334146341463,4.53));
#61 = DIRECTION('',(0.E+000,0.E+000,1.));
#62 = DIRECTION('',(1.,0.E+000,0.E+000));
#63 = ORIENTED_EDGE('',*,*,#64,.F.);
#64 = EDGE_CURVE('',#56,#56,#65,.T.);
#65 = CIRCLE('',#66,1.865853658537);
#66 = AXIS2_PLACEMENT_3D('',#67,#68,#69);
#67 = CARTESIAN_POINT('',(2.5,1.3,4.53));
#68 = DIRECTION('',(0.E+000,-1.,0.E+000));
#69 = DIRECTION('',(1.,0.E+000,0.E+000));
#70 = ORIENTED_EDGE('',*,*,#55,.F.);
#71 = FACE_BOUND('',#72,.F.);
#72 = EDGE_LOOP('',(#73,#96));
#73 = ORIENTED_EDGE('',*,*,#74,.T.);
#74 = EDGE_CURVE('',#75,#77,#79,.T.);
#75 = VERTEX_POINT('',#76);
#76 = CARTESIAN_POINT('',(0.27,0.E+000,1.045305159455));
#77 = VERTEX_POINT('',#78);
#78 = CARTESIAN_POINT('',(-8.051449827756E-002,-0.257715765073,
1.127937304863));
#79 = B_SPLINE_CURVE_WITH_KNOTS('',8,(#80,#81,#82,#83,#84,#85,#86,#87,
#88,#89,#90,#91,#92,#93,#94,#95),.UNSPECIFIED.,.F.,.F.,(9,7,9),(
0.E+000,0.358175106926,1.),.UNSPECIFIED.);
#80 = CARTESIAN_POINT('',(0.27,-1.665334536938E-016,1.045305159455));
#81 = CARTESIAN_POINT('',(0.27,-2.162994672611E-002,1.030220977657));
#82 = CARTESIAN_POINT('',(0.268019473944,-4.352899195828E-002,
1.016614157728));
#83 = CARTESIAN_POINT('',(0.263973060166,-6.54986230441E-002,
1.004662437842));
#84 = CARTESIAN_POINT('',(0.25779198571,-8.730430385718E-002,
0.994546563462));
#85 = CARTESIAN_POINT('',(0.249445421402,-0.108674387444,0.986435485542)
);
#86 = CARTESIAN_POINT('',(0.238958519977,-0.12930932557,0.980469550696)
);
#87 = CARTESIAN_POINT('',(0.226427137281,-0.148901175165,0.976741683362)
);
#88 = CARTESIAN_POINT('',(0.186229199258,-0.199888042052,0.972651160655)
);
#89 = CARTESIAN_POINT('',(0.15439381991,-0.228395649252,0.977287479236)
);
#90 = CARTESIAN_POINT('',(0.117599220309,-0.250896404928,0.989382166409)
);
#91 = CARTESIAN_POINT('',(7.759896278048E-002,-0.266237014934,
1.008263746152));
#92 = CARTESIAN_POINT('',(3.632148951809E-002,-0.274129557059,
1.032757790098));
#93 = CARTESIAN_POINT('',(-4.590690963827E-003,-0.274892817193,
1.061625881797));
#94 = CARTESIAN_POINT('',(-4.385093999079E-002,-0.269170043005,
1.093690558752));
#95 = CARTESIAN_POINT('',(-8.051449827756E-002,-0.257715765073,
1.127937304863));
#96 = ORIENTED_EDGE('',*,*,#97,.T.);
#97 = EDGE_CURVE('',#77,#75,#98,.T.);
#98 = B_SPLINE_CURVE_WITH_KNOTS('',7,(#99,#100,#101,#102,#103,#104,#105,
#106,#107,#108,#109,#110,#111,#112,#113,#114,#115,#116,#117,#118,
#119,#120,#121,#122,#123,#124,#125,#126,#127,#128,#129,#130,#131,
#132,#133,#134,#135,#136),.UNSPECIFIED.,.F.,.F.,(8,6,6,6,6,6,8),(
0.E+000,0.135664975334,0.337531960634,0.492284504927,0.637734462754,
0.799761443,1.),.UNSPECIFIED.);
#99 = CARTESIAN_POINT('',(-8.051449827756E-002,-0.257715765073,
1.127937304863));
#100 = CARTESIAN_POINT('',(-0.102612979523,-0.250811848544,
1.148579084113));
#101 = CARTESIAN_POINT('',(-0.123784504206,-0.241771048868,
1.170063754128));
#102 = CARTESIAN_POINT('',(-0.143823585234,-0.230750983651,
1.192178376572));
#103 = CARTESIAN_POINT('',(-0.162558627638,-0.217918879229,
1.214726930468));
#104 = CARTESIAN_POINT('',(-0.179845439616,-0.203442859217,
1.237527707397));
#105 = CARTESIAN_POINT('',(-0.195559648755,-0.187487572482,
1.260408137702));
#106 = CARTESIAN_POINT('',(-0.230461986601,-0.144511641576,
1.317106526184));
#107 = CARTESIAN_POINT('',(-0.247587611852,-0.115910273029,
1.350787878056));
#108 = CARTESIAN_POINT('',(-0.260615307973,-8.493168481684E-002,
1.383698399607));
#109 = CARTESIAN_POINT('',(-0.269207056069,-5.210658732999E-002,
1.415255975036));
#110 = CARTESIAN_POINT('',(-0.273023322249,-1.802568945261E-002,
1.444765181948));
#111 = CARTESIAN_POINT('',(-0.271747658971,1.661165310392E-002,
1.471376710885));
#112 = CARTESIAN_POINT('',(-0.260090416334,7.727587128173E-002,
1.511484663853));
#113 = CARTESIAN_POINT('',(-0.25190588649,0.103414342459,1.526585424769)
);
#114 = CARTESIAN_POINT('',(-0.240500339764,0.128960397521,1.538916756847
));
#115 = CARTESIAN_POINT('',(-0.225837924181,0.153396986206,1.547938357911
));
#116 = CARTESIAN_POINT('',(-0.208029392845,0.176099825425,1.553090275092
));
#117 = CARTESIAN_POINT('',(-0.187446290997,0.19643691882,1.554012386011)
);
#118 = CARTESIAN_POINT('',(-0.14333363447,0.230397495118,1.547653211514)
);
#119 = CARTESIAN_POINT('',(-0.120044749004,0.244359377857,1.540860037901
));
#120 = CARTESIAN_POINT('',(-9.536203898597E-002,0.255427568537,
1.530372805924));
#121 = CARTESIAN_POINT('',(-6.98861400404E-002,0.263433289011,
1.516506203073));
#122 = CARTESIAN_POINT('',(-4.415958691955E-002,0.268416501493,
1.49977118477));
#123 = CARTESIAN_POINT('',(-1.86129674976E-002,0.270519617963,
1.48069782094));
#124 = CARTESIAN_POINT('',(3.431871793902E-002,0.269259482849,
1.436461534788));
#125 = CARTESIAN_POINT('',(6.1584902508E-002,0.265245632555,
1.410849197425));
#126 = CARTESIAN_POINT('',(8.7830527021E-002,0.25812938004,
1.383557118463));
#127 = CARTESIAN_POINT('',(0.112756544831,0.248171562573,1.355150584221)
);
#128 = CARTESIAN_POINT('',(0.136127765219,0.235615653717,1.32611364984)
);
#129 = CARTESIAN_POINT('',(0.157742580276,0.220675078681,1.296853163834)
);
#130 = CARTESIAN_POINT('',(0.201701287762,0.182360822635,1.23174157813)
);
#131 = CARTESIAN_POINT('',(0.22298971984,0.157851106046,1.19600092024));
#132 = CARTESIAN_POINT('',(0.240899126118,0.130384718646,1.161201561863)
);
#133 = CARTESIAN_POINT('',(0.25501829844,0.100330184798,1.128009917491)
);
#134 = CARTESIAN_POINT('',(0.264878557001,6.814122853009E-002,
1.097130584149));
#135 = CARTESIAN_POINT('',(0.27,3.442691156096E-002,1.069313623245));
#136 = CARTESIAN_POINT('',(0.27,-1.665334536938E-016,1.045305159455));
#137 = SURFACE_OF_REVOLUTION('',#138,#151);
#138 = B_SPLINE_CURVE_WITH_KNOTS('',6,(#139,#140,#141,#142,#143,#144,
#145,#146,#147,#148,#149,#150),.UNSPECIFIED.,.F.,.F.,(7,5,7),(
0.E+000,0.785398163397,1.570796326795),.UNSPECIFIED.);
#139 = CARTESIAN_POINT('',(7.,-1.334146341463,4.53));
#140 = CARTESIAN_POINT('',(7.,-0.989337391679,4.53));
#141 = CARTESIAN_POINT('',(6.945837749278,-0.64452901782,4.53));
#142 = CARTESIAN_POINT('',(6.837511836813,-0.310352002471,4.53));
#143 = CARTESIAN_POINT('',(6.677810990425,2.544818481679E-003,4.53));
#144 = CARTESIAN_POINT('',(6.472293145829,0.284659652617,4.53));
#145 = CARTESIAN_POINT('',(5.984659652617,0.772293145829,4.53));
#146 = CARTESIAN_POINT('',(5.702544818482,0.977810990425,4.53));
#147 = CARTESIAN_POINT('',(5.389647997529,1.137511836813,4.53));
#148 = CARTESIAN_POINT('',(5.05547098218,1.245837749278,4.53));
#149 = CARTESIAN_POINT('',(4.710662608321,1.3,4.53));
#150 = CARTESIAN_POINT('',(4.365853658537,1.3,4.53));
#151 = AXIS1_PLACEMENT('',#152,#153);
#152 = CARTESIAN_POINT('',(2.5,-1.334146341463,4.53));
#153 = DIRECTION('',(0.E+000,1.,0.E+000));
#154 = ADVANCED_FACE('',(#155,#175),#249,.T.);
#155 = FACE_BOUND('',#156,.T.);
#156 = EDGE_LOOP('',(#157,#158,#167,#174));
#157 = ORIENTED_EDGE('',*,*,#31,.T.);
#158 = ORIENTED_EDGE('',*,*,#159,.T.);
#159 = EDGE_CURVE('',#24,#160,#162,.T.);
#160 = VERTEX_POINT('',#161);
#161 = CARTESIAN_POINT('',(4.365853658537,-4.1,4.53));
#162 = CIRCLE('',#163,2.634146341463);
#163 = AXIS2_PLACEMENT_3D('',#164,#165,#166);
#164 = CARTESIAN_POINT('',(4.365853658537,-1.465853658537,4.53));
#165 = DIRECTION('',(0.E+000,0.E+000,-1.));
#166 = DIRECTION('',(1.,0.E+000,0.E+000));
#167 = ORIENTED_EDGE('',*,*,#168,.F.);
#168 = EDGE_CURVE('',#160,#160,#169,.T.);
#169 = CIRCLE('',#170,1.865853658537);
#170 = AXIS2_PLACEMENT_3D('',#171,#172,#173);
#171 = CARTESIAN_POINT('',(2.5,-4.1,4.53));
#172 = DIRECTION('',(0.E+000,-1.,0.E+000));
#173 = DIRECTION('',(1.,0.E+000,0.E+000));
#174 = ORIENTED_EDGE('',*,*,#159,.F.);
#175 = FACE_BOUND('',#176,.T.);
#176 = EDGE_LOOP('',(#177,#196));
#177 = ORIENTED_EDGE('',*,*,#178,.T.);
#178 = EDGE_CURVE('',#179,#181,#183,.T.);
#179 = VERTEX_POINT('',#180);
#180 = CARTESIAN_POINT('',(5.27,-2.8,1.457037564219));
#181 = VERTEX_POINT('',#182);
#182 = CARTESIAN_POINT('',(5.006565335589,-2.530079833342,1.066390008905
));
#183 = B_SPLINE_CURVE_WITH_KNOTS('',6,(#184,#185,#186,#187,#188,#189,
#190,#191,#192,#193,#194,#195),.UNSPECIFIED.,.F.,.F.,(7,5,7),(
0.E+000,0.439717370212,1.),.UNSPECIFIED.);
#184 = CARTESIAN_POINT('',(5.27,-2.8,1.457037564219));
#185 = CARTESIAN_POINT('',(5.27,-2.769012697814,1.432532402299));
#186 = CARTESIAN_POINT('',(5.265732361831,-2.738494876412,1.405575359595
));
#187 = CARTESIAN_POINT('',(5.257439729615,-2.709037233441,1.376880753429
));
#188 = CARTESIAN_POINT('',(5.245394257261,-2.681132202849,1.347029041964
));
#189 = CARTESIAN_POINT('',(5.229871877844,-2.655225584412,1.316509833346
));
#190 = CARTESIAN_POINT('',(5.187341132349,-2.601844366137,1.24662931475)
);
#191 = CARTESIAN_POINT('',(5.158370004346,-2.575912430339,1.207170572567
));
#192 = CARTESIAN_POINT('',(5.124878184643,-2.554830797109,1.168336143378
));
#193 = CARTESIAN_POINT('',(5.087589330326,-2.539549460917,1.13109036415)
);
#194 = CARTESIAN_POINT('',(5.047623015583,-2.531078489541,1.096647319236
));
#195 = CARTESIAN_POINT('',(5.006565335589,-2.530079833342,1.066390008905
));
#196 = ORIENTED_EDGE('',*,*,#197,.T.);
#197 = EDGE_CURVE('',#181,#179,#198,.T.);
#198 = B_SPLINE_CURVE_WITH_KNOTS('',7,(#199,#200,#201,#202,#203,#204,
#205,#206,#207,#208,#209,#210,#211,#212,#213,#214,#215,#216,#217,
#218,#219,#220,#221,#222,#223,#224,#225,#226,#227,#228,#229,#230,
#231,#232,#233,#234,#235,#236,#237,#238,#239,#240,#241,#242,#243,
#244,#245,#246,#247,#248),.UNSPECIFIED.,.F.,.F.,(8,6,6,6,6,6,6,6,8),
(0.E+000,0.184980928217,0.297654648791,0.354534897359,0.518640521999,
0.671635771401,0.812092234317,0.92420156682,1.),.UNSPECIFIED.);
#199 = CARTESIAN_POINT('',(5.006565335589,-2.530079833342,1.066390008905
));
#200 = CARTESIAN_POINT('',(4.972564847343,-2.52925283098,1.041333470776)
);
#201 = CARTESIAN_POINT('',(4.937811442409,-2.533407144841,1.019049062432
));
#202 = CARTESIAN_POINT('',(4.903239587955,-2.542899736866,1.000345086795
));
#203 = CARTESIAN_POINT('',(4.869980814427,-2.557853626167,0.98603971833)
);
#204 = CARTESIAN_POINT('',(4.839309042291,-2.578009652491,0.976869995287
));
#205 = CARTESIAN_POINT('',(4.812380275606,-2.602577065363,0.973257625685
));
#206 = CARTESIAN_POINT('',(4.77625671727,-2.647314962732,0.976216882395)
);
#207 = CARTESIAN_POINT('',(4.764233764255,-2.665463600553,0.979360525945
));
#208 = CARTESIAN_POINT('',(4.754023059133,-2.684576833723,0.984510771554
));
#209 = CARTESIAN_POINT('',(4.745713671604,-2.704383905026,0.991589349574
));
#210 = CARTESIAN_POINT('',(4.739330650531,-2.72462205181,1.000475166269)
);
#211 = CARTESIAN_POINT('',(4.734849425346,-2.745054038655,1.011022066257
));
#212 = CARTESIAN_POINT('',(4.730887570127,-2.775781707623,1.029160739348
));
#213 = CARTESIAN_POINT('',(4.73002945964,-2.786087387447,1.035630102231)
);
#214 = CARTESIAN_POINT('',(4.729635433516,-2.796364474255,1.042464342637
));
#215 = CARTESIAN_POINT('',(4.729696842572,-2.806588845625,1.049643465885
));
#216 = CARTESIAN_POINT('',(4.730203735915,-2.816738301132,1.057147300813
));
#217 = CARTESIAN_POINT('',(4.731145320199,-2.826792541148,1.064955810975
));
#218 = CARTESIAN_POINT('',(4.736448875127,-2.86541285698,1.096400296085)
);
#219 = CARTESIAN_POINT('',(4.743911277847,-2.893136968995,1.122116255149
));
#220 = CARTESIAN_POINT('',(4.754626063804,-2.91947654182,1.149734088221)
);
#221 = CARTESIAN_POINT('',(4.768299696625,-2.944096716427,1.178800702806
));
#222 = CARTESIAN_POINT('',(4.78465161409,-2.966728935451,1.208882478237)
);
#223 = CARTESIAN_POINT('',(4.803427438849,-2.987138646134,1.239555815983
));
#224 = CARTESIAN_POINT('',(4.843934216033,-3.02182307415,1.299115124961)
);
#225 = CARTESIAN_POINT('',(4.865366606379,-3.036409028058,1.327963328109
));
#226 = CARTESIAN_POINT('',(4.888497621448,-3.048663627671,1.356573078179
));
#227 = CARTESIAN_POINT('',(4.913132256446,-3.058381133215,1.384550998335
));
#228 = CARTESIAN_POINT('',(4.939043477732,-3.0653278586,1.411431107574)
);
#229 = CARTESIAN_POINT('',(4.96594402234,-3.06925378436,1.436671076797)
);
#230 = CARTESIAN_POINT('',(5.018715185172,-3.070532976659,1.48079241973)
);
#231 = CARTESIAN_POINT('',(5.044489289192,-3.068398685728,1.500025401162
));
#232 = CARTESIAN_POINT('',(5.070444592194,-3.063332785574,1.516876235239
));
#233 = CARTESIAN_POINT('',(5.096139477746,-3.055188949023,1.530801042315
));
#234 = CARTESIAN_POINT('',(5.121015327481,-3.043926984038,1.541274896716
));
#235 = CARTESIAN_POINT('',(5.144453447412,-3.029725035564,1.547978822105
));
#236 = CARTESIAN_POINT('',(5.183053430073,-2.999657547589,1.55323950973)
);
#237 = CARTESIAN_POINT('',(5.198943654441,-2.984696430381,1.553169398883
));
#238 = CARTESIAN_POINT('',(5.213321164604,-2.968324602391,1.550682739979
));
#239 = CARTESIAN_POINT('',(5.226000679241,-2.950801657875,1.545899521268
));
#240 = CARTESIAN_POINT('',(5.236879918638,-2.932397634747,1.539017086047
));
#241 = CARTESIAN_POINT('',(5.245924607951,-2.913363525714,1.530263772402
));
#242 = CARTESIAN_POINT('',(5.258017260932,-2.880769733953,1.512826122523
));
#243 = CARTESIAN_POINT('',(5.262059142737,-2.867432467123,1.505037050912
));
#244 = CARTESIAN_POINT('',(5.265267241643,-2.853970864964,1.496560182019
));
#245 = CARTESIAN_POINT('',(5.267650504562,-2.840444884122,1.487461341211
));
#246 = CARTESIAN_POINT('',(5.26922260414,-2.826909158579,1.477803388875)
);
#247 = CARTESIAN_POINT('',(5.27,-2.813412933651,1.467644686742));
#248 = CARTESIAN_POINT('',(5.27,-2.8,1.457037564219));
#249 = SURFACE_OF_REVOLUTION('',#250,#263);
#250 = B_SPLINE_CURVE_WITH_KNOTS('',6,(#251,#252,#253,#254,#255,#256,
#257,#258,#259,#260,#261,#262),.UNSPECIFIED.,.F.,.F.,(7,5,7),(
0.E+000,0.785398163397,1.570796326795),.UNSPECIFIED.);
#251 = CARTESIAN_POINT('',(7.,-1.465853658537,4.53));
#252 = CARTESIAN_POINT('',(7.,-1.810662608321,4.53));
#253 = CARTESIAN_POINT('',(6.945837749278,-2.15547098218,4.53));
#254 = CARTESIAN_POINT('',(6.837511836813,-2.489647997529,4.53));
#255 = CARTESIAN_POINT('',(6.677810990425,-2.802544818482,4.53));
#256 = CARTESIAN_POINT('',(6.472293145829,-3.084659652617,4.53));
#257 = CARTESIAN_POINT('',(5.984659652617,-3.572293145829,4.53));
#258 = CARTESIAN_POINT('',(5.702544818482,-3.777810990425,4.53));
#259 = CARTESIAN_POINT('',(5.389647997529,-3.937511836813,4.53));
#260 = CARTESIAN_POINT('',(5.05547098218,-4.045837749278,4.53));
#261 = CARTESIAN_POINT('',(4.710662608321,-4.1,4.53));
#262 = CARTESIAN_POINT('',(4.365853658537,-4.1,4.53));
#263 = AXIS1_PLACEMENT('',#264,#265);
#264 = CARTESIAN_POINT('',(2.5,-1.465853658537,4.53));
#265 = DIRECTION('',(0.E+000,-1.,0.E+000));
#266 = ADVANCED_FACE('',(#267),#270,.F.);
#267 = FACE_BOUND('',#268,.F.);
#268 = EDGE_LOOP('',(#269));
#269 = ORIENTED_EDGE('',*,*,#64,.T.);
#270 = PLANE('',#271);
#271 = AXIS2_PLACEMENT_3D('',#272,#273,#274);
#272 = CARTESIAN_POINT('',(2.5,1.3,4.53));
#273 = DIRECTION('',(-0.E+000,-1.,-0.E+000));
#274 = DIRECTION('',(0.E+000,0.E+000,-1.));
#275 = ADVANCED_FACE('',(#276),#296,.T.);
#276 = FACE_BOUND('',#277,.T.);
#277 = EDGE_LOOP('',(#278,#279,#287,#294,#295));
#278 = ORIENTED_EDGE('',*,*,#97,.T.);
#279 = ORIENTED_EDGE('',*,*,#280,.T.);
#280 = EDGE_CURVE('',#75,#281,#283,.T.);
#281 = VERTEX_POINT('',#282);
#282 = CARTESIAN_POINT('',(0.27,0.E+000,-2.892));
#283 = LINE('',#284,#285);
#284 = CARTESIAN_POINT('',(0.27,0.E+000,4.53));
#285 = VECTOR('',#286,1.);
#286 = DIRECTION('',(-0.E+000,-0.E+000,-1.));
#287 = ORIENTED_EDGE('',*,*,#288,.T.);
#288 = EDGE_CURVE('',#281,#281,#289,.T.);
#289 = CIRCLE('',#290,0.27);
#290 = AXIS2_PLACEMENT_3D('',#291,#292,#293);
#291 = CARTESIAN_POINT('',(0.E+000,0.E+000,-2.892));
#292 = DIRECTION('',(0.E+000,0.E+000,1.));
#293 = DIRECTION('',(1.,0.E+000,0.E+000));
#294 = ORIENTED_EDGE('',*,*,#280,.F.);
#295 = ORIENTED_EDGE('',*,*,#74,.T.);
#296 = CYLINDRICAL_SURFACE('',#297,0.27);
#297 = AXIS2_PLACEMENT_3D('',#298,#299,#300);
#298 = CARTESIAN_POINT('',(0.E+000,0.E+000,4.53));
#299 = DIRECTION('',(0.E+000,0.E+000,1.));
#300 = DIRECTION('',(1.,0.E+000,0.E+000));
#301 = ADVANCED_FACE('',(#302),#305,.T.);
#302 = FACE_BOUND('',#303,.T.);
#303 = EDGE_LOOP('',(#304));
#304 = ORIENTED_EDGE('',*,*,#168,.T.);
#305 = PLANE('',#306);
#306 = AXIS2_PLACEMENT_3D('',#307,#308,#309);
#307 = CARTESIAN_POINT('',(2.5,-4.1,4.53));
#308 = DIRECTION('',(-0.E+000,-1.,-0.E+000));
#309 = DIRECTION('',(0.E+000,0.E+000,-1.));
#310 = ADVANCED_FACE('',(#311),#331,.T.);
#311 = FACE_BOUND('',#312,.T.);
#312 = EDGE_LOOP('',(#313,#314,#322,#329,#330));
#313 = ORIENTED_EDGE('',*,*,#178,.F.);
#314 = ORIENTED_EDGE('',*,*,#315,.T.);
#315 = EDGE_CURVE('',#179,#316,#318,.T.);
#316 = VERTEX_POINT('',#317);
#317 = CARTESIAN_POINT('',(5.27,-2.8,-2.892));
#318 = LINE('',#319,#320);
#319 = CARTESIAN_POINT('',(5.27,-2.8,4.53));
#320 = VECTOR('',#321,1.);
#321 = DIRECTION('',(-0.E+000,-0.E+000,-1.));
#322 = ORIENTED_EDGE('',*,*,#323,.T.);
#323 = EDGE_CURVE('',#316,#316,#324,.T.);
#324 = CIRCLE('',#325,0.27);
#325 = AXIS2_PLACEMENT_3D('',#326,#327,#328);
#326 = CARTESIAN_POINT('',(5.,-2.8,-2.892));
#327 = DIRECTION('',(-2.028963233593E-029,6.763210778644E-030,1.));
#328 = DIRECTION('',(1.,2.705284311457E-030,2.028963233593E-029));
#329 = ORIENTED_EDGE('',*,*,#315,.F.);
#330 = ORIENTED_EDGE('',*,*,#197,.F.);
#331 = CYLINDRICAL_SURFACE('',#332,0.27);
#332 = AXIS2_PLACEMENT_3D('',#333,#334,#335);
#333 = CARTESIAN_POINT('',(5.,-2.8,4.53));
#334 = DIRECTION('',(0.E+000,0.E+000,1.));
#335 = DIRECTION('',(1.,0.E+000,0.E+000));
#336 = ADVANCED_FACE('',(#337),#357,.T.);
#337 = FACE_BOUND('',#338,.F.);
#338 = EDGE_LOOP('',(#339,#348,#349,#350));
#339 = ORIENTED_EDGE('',*,*,#340,.F.);
#340 = EDGE_CURVE('',#281,#341,#343,.T.);
#341 = VERTEX_POINT('',#342);
#342 = CARTESIAN_POINT('',(0.162,0.E+000,-3.));
#343 = CIRCLE('',#344,0.108);
#344 = AXIS2_PLACEMENT_3D('',#345,#346,#347);
#345 = CARTESIAN_POINT('',(0.162,0.E+000,-2.892));
#346 = DIRECTION('',(-0.E+000,1.,0.E+000));
#347 = DIRECTION('',(1.,0.E+000,0.E+000));
#348 = ORIENTED_EDGE('',*,*,#288,.T.);
#349 = ORIENTED_EDGE('',*,*,#340,.T.);
#350 = ORIENTED_EDGE('',*,*,#351,.F.);
#351 = EDGE_CURVE('',#341,#341,#352,.T.);
#352 = CIRCLE('',#353,0.162);
#353 = AXIS2_PLACEMENT_3D('',#354,#355,#356);
#354 = CARTESIAN_POINT('',(0.E+000,0.E+000,-3.));
#355 = DIRECTION('',(0.E+000,0.E+000,1.));
#356 = DIRECTION('',(1.,0.E+000,0.E+000));
#357 = TOROIDAL_SURFACE('',#358,0.162,0.108);
#358 = AXIS2_PLACEMENT_3D('',#359,#360,#361);
#359 = CARTESIAN_POINT('',(0.E+000,0.E+000,-2.892));
#360 = DIRECTION('',(-0.E+000,-0.E+000,-1.));
#361 = DIRECTION('',(1.,0.E+000,0.E+000));
#362 = ADVANCED_FACE('',(#363),#383,.T.);
#363 = FACE_BOUND('',#364,.F.);
#364 = EDGE_LOOP('',(#365,#374,#375,#376));
#365 = ORIENTED_EDGE('',*,*,#366,.F.);
#366 = EDGE_CURVE('',#316,#367,#369,.T.);
#367 = VERTEX_POINT('',#368);
#368 = CARTESIAN_POINT('',(5.162,-2.8,-3.));
#369 = CIRCLE('',#370,0.108);
#370 = AXIS2_PLACEMENT_3D('',#371,#372,#373);
#371 = CARTESIAN_POINT('',(5.162,-2.8,-2.892));
#372 = DIRECTION('',(-2.705284311457E-030,1.,-6.763210778644E-030));
#373 = DIRECTION('',(1.,2.705284311457E-030,2.028963233593E-029));
#374 = ORIENTED_EDGE('',*,*,#323,.T.);
#375 = ORIENTED_EDGE('',*,*,#366,.T.);
#376 = ORIENTED_EDGE('',*,*,#377,.F.);
#377 = EDGE_CURVE('',#367,#367,#378,.T.);
#378 = CIRCLE('',#379,0.162);
#379 = AXIS2_PLACEMENT_3D('',#380,#381,#382);
#380 = CARTESIAN_POINT('',(5.,-2.8,-3.));
#381 = DIRECTION('',(-2.028963233593E-029,6.763210778644E-030,1.));
#382 = DIRECTION('',(1.,2.705284311457E-030,2.028963233593E-029));
#383 = TOROIDAL_SURFACE('',#384,0.162,0.108);
#384 = AXIS2_PLACEMENT_3D('',#385,#386,#387);
#385 = CARTESIAN_POINT('',(5.,-2.8,-2.892));
#386 = DIRECTION('',(2.028963233593E-029,-6.763210778644E-030,-1.));
#387 = DIRECTION('',(1.,2.705284311457E-030,2.028963233593E-029));
#388 = ADVANCED_FACE('',(#389),#392,.F.);
#389 = FACE_BOUND('',#390,.F.);
#390 = EDGE_LOOP('',(#391));
#391 = ORIENTED_EDGE('',*,*,#351,.T.);
#392 = PLANE('',#393);
#393 = AXIS2_PLACEMENT_3D('',#394,#395,#396);
#394 = CARTESIAN_POINT('',(-1.978356673234E-017,2.854531227236E-017,-3.)
);
#395 = DIRECTION('',(0.E+000,0.E+000,1.));
#396 = DIRECTION('',(1.,0.E+000,0.E+000));
#397 = ADVANCED_FACE('',(#398),#401,.F.);
#398 = FACE_BOUND('',#399,.F.);
#399 = EDGE_LOOP('',(#400));
#400 = ORIENTED_EDGE('',*,*,#377,.T.);
#401 = PLANE('',#402);
#402 = AXIS2_PLACEMENT_3D('',#403,#404,#405);
#403 = CARTESIAN_POINT('',(5.,-2.8,-3.));
#404 = DIRECTION('',(-2.028963233593E-029,6.763210778644E-030,1.));
#405 = DIRECTION('',(1.,0.E+000,2.028963233593E-029));
#406 = ( GEOMETRIC_REPRESENTATION_CONTEXT(3)
GLOBAL_UNCERTAINTY_ASSIGNED_CONTEXT((#410)) GLOBAL_UNIT_ASSIGNED_CONTEXT
((#407,#408,#409)) REPRESENTATION_CONTEXT('Context #1',
'3D Context with UNIT and UNCERTAINTY') );
#407 = ( LENGTH_UNIT() NAMED_UNIT(*) SI_UNIT(.MILLI.,.METRE.) );
#408 = ( NAMED_UNIT(*) PLANE_ANGLE_UNIT() SI_UNIT($,.RADIAN.) );
#409 = ( NAMED_UNIT(*) SI_UNIT($,.STERADIAN.) SOLID_ANGLE_UNIT() );
#410 = UNCERTAINTY_MEASURE_WITH_UNIT(LENGTH_MEASURE(1.E-007),#407,
'distance_accuracy_value','confusion accuracy');
#411 = PRODUCT_RELATED_PRODUCT_CATEGORY('part',$,(#7));
#412 = MECHANICAL_DESIGN_GEOMETRIC_PRESENTATION_REPRESENTATION('',(#413,
#421,#428,#435,#442,#450,#457,#464,#471,#478,#485),#406);
#413 = STYLED_ITEM('color',(#414),#17);
#414 = PRESENTATION_STYLE_ASSIGNMENT((#415));
#415 = SURFACE_STYLE_USAGE(.BOTH.,#416);
#416 = SURFACE_SIDE_STYLE('',(#417));
#417 = SURFACE_STYLE_FILL_AREA(#418);
#418 = FILL_AREA_STYLE('',(#419));
#419 = FILL_AREA_STYLE_COLOUR('',#420);
#420 = COLOUR_RGB('',0.136999994516,0.402000010014,0.726999998093);
#421 = STYLED_ITEM('color',(#422),#50);
#422 = PRESENTATION_STYLE_ASSIGNMENT((#423));
#423 = SURFACE_STYLE_USAGE(.BOTH.,#424);
#424 = SURFACE_SIDE_STYLE('',(#425));
#425 = SURFACE_STYLE_FILL_AREA(#426);
#426 = FILL_AREA_STYLE('',(#427));
#427 = FILL_AREA_STYLE_COLOUR('',#420);
#428 = STYLED_ITEM('color',(#429),#154);
#429 = PRESENTATION_STYLE_ASSIGNMENT((#430));
#430 = SURFACE_STYLE_USAGE(.BOTH.,#431);
#431 = SURFACE_SIDE_STYLE('',(#432));
#432 = SURFACE_STYLE_FILL_AREA(#433);
#433 = FILL_AREA_STYLE('',(#434));
#434 = FILL_AREA_STYLE_COLOUR('',#420);
#435 = STYLED_ITEM('color',(#436),#266);
#436 = PRESENTATION_STYLE_ASSIGNMENT((#437));
#437 = SURFACE_STYLE_USAGE(.BOTH.,#438);
#438 = SURFACE_SIDE_STYLE('',(#439));
#439 = SURFACE_STYLE_FILL_AREA(#440);
#440 = FILL_AREA_STYLE('',(#441));
#441 = FILL_AREA_STYLE_COLOUR('',#420);
#442 = STYLED_ITEM('color',(#443),#275);
#443 = PRESENTATION_STYLE_ASSIGNMENT((#444));
#444 = SURFACE_STYLE_USAGE(.BOTH.,#445);
#445 = SURFACE_SIDE_STYLE('',(#446));
#446 = SURFACE_STYLE_FILL_AREA(#447);
#447 = FILL_AREA_STYLE('',(#448));
#448 = FILL_AREA_STYLE_COLOUR('',#449);
#449 = COLOUR_RGB('',0.824000000954,0.819999992847,0.78100001812);
#450 = STYLED_ITEM('color',(#451),#301);
#451 = PRESENTATION_STYLE_ASSIGNMENT((#452));
#452 = SURFACE_STYLE_USAGE(.BOTH.,#453);
#453 = SURFACE_SIDE_STYLE('',(#454));
#454 = SURFACE_STYLE_FILL_AREA(#455);
#455 = FILL_AREA_STYLE('',(#456));
#456 = FILL_AREA_STYLE_COLOUR('',#420);
#457 = STYLED_ITEM('color',(#458),#310);
#458 = PRESENTATION_STYLE_ASSIGNMENT((#459));
#459 = SURFACE_STYLE_USAGE(.BOTH.,#460);
#460 = SURFACE_SIDE_STYLE('',(#461));
#461 = SURFACE_STYLE_FILL_AREA(#462);
#462 = FILL_AREA_STYLE('',(#463));
#463 = FILL_AREA_STYLE_COLOUR('',#449);
#464 = STYLED_ITEM('color',(#465),#336);
#465 = PRESENTATION_STYLE_ASSIGNMENT((#466));
#466 = SURFACE_STYLE_USAGE(.BOTH.,#467);
#467 = SURFACE_SIDE_STYLE('',(#468));
#468 = SURFACE_STYLE_FILL_AREA(#469);
#469 = FILL_AREA_STYLE('',(#470));
#470 = FILL_AREA_STYLE_COLOUR('',#449);
#471 = STYLED_ITEM('color',(#472),#362);
#472 = PRESENTATION_STYLE_ASSIGNMENT((#473));
#473 = SURFACE_STYLE_USAGE(.BOTH.,#474);
#474 = SURFACE_SIDE_STYLE('',(#475));
#475 = SURFACE_STYLE_FILL_AREA(#476);
#476 = FILL_AREA_STYLE('',(#477));
#477 = FILL_AREA_STYLE_COLOUR('',#449);
#478 = STYLED_ITEM('color',(#479),#388);
#479 = PRESENTATION_STYLE_ASSIGNMENT((#480));
#480 = SURFACE_STYLE_USAGE(.BOTH.,#481);
#481 = SURFACE_SIDE_STYLE('',(#482));
#482 = SURFACE_STYLE_FILL_AREA(#483);
#483 = FILL_AREA_STYLE('',(#484));
#484 = FILL_AREA_STYLE_COLOUR('',#449);
#485 = STYLED_ITEM('color',(#486),#397);
#486 = PRESENTATION_STYLE_ASSIGNMENT((#487));
#487 = SURFACE_STYLE_USAGE(.BOTH.,#488);
#488 = SURFACE_SIDE_STYLE('',(#489));
#489 = SURFACE_STYLE_FILL_AREA(#490);
#490 = FILL_AREA_STYLE('',(#491));
#491 = FILL_AREA_STYLE_COLOUR('',#449);
ENDSEC;
END-ISO-10303-21;
