ISO-10303-21;
HEADER;
/* RV_Disc_D9mm_W5.2mm_P5mm.step 3D STEP model for use in ECAD systems
 * Copyright (C) 2018, kicad StepUp
 * 
 * This work is licensed under the [Creative Commons CC-BY-SA 4.0 License](https://creativecommons.org/licenses/by-sa/4.0/legalcode), 
 * with the following exception:
 * To the extent that the creation of electronic designs that use 'Licensed Material' can be considered to be 'Adapted Material', 
 * then the copyright holder waives article 3 of the license with respect to these designs and any generated files which use data provided 
 * as part of the 'Licensed Material'.
 * You are free to use the library data in your own projects without the obligation to share your project files under this or any other license agreement.
 * However, if you wish to redistribute these libraries, or parts thereof (including in modified form) as a collection then the exception above does not apply. 
 * Please refer to https://github.com/KiCad/kicad-packages3D/blob/master/LICENSE.md for further clarification of the exception.
 * Disclaimer of Warranties and Limitation of Liability.
 * These libraries are provided in the hope that they will be useful, but are provided without warranty of any kind, express or implied.
 * *USE 3D CAD DATA AT YOUR OWN RISK*
 * *DO NOT RELY UPON ANY INFORMATION FOUND HERE WITHOUT INDEPENDENT VERIFICATION.*
 * 
 */

FILE_DESCRIPTION(
/* description */ ('model of RV_Disc_D9mm_W5.2mm_P5mm'),
/* implementation_level */ '2;1');

FILE_NAME(
/* name */ 'RV_Disc_D9mm_W5.2mm_P5mm.step',
/* time_stamp */ '2018-11-11T21:12:43',
/* author */ ('kicad StepUp','ksu'),
/* organization */ ('FreeCAD'),
/* preprocessor_version */ 'OCC',
/* originating_system */ 'kicad StepUp',
/* authorisation */ '');

FILE_SCHEMA(('AUTOMOTIVE_DESIGN { 1 0 10303 214 1 1 1 1 }'));
ENDSEC;

DATA;
#1 = APPLICATION_PROTOCOL_DEFINITION('international standard',
'automotive_design',2000,#2);
#2 = APPLICATION_CONTEXT(
'core data for automotive mechanical design processes');
#3 = SHAPE_DEFINITION_REPRESENTATION(#4,#10);
#4 = PRODUCT_DEFINITION_SHAPE('','',#5);
#5 = PRODUCT_DEFINITION('design','',#6,#9);
#6 = PRODUCT_DEFINITION_FORMATION('','',#7);
#7 = PRODUCT('RV_Disc_D9mm_W52mm_P5mm','RV_Disc_D9mm_W52mm_P5mm','',(#8)
);
#8 = PRODUCT_CONTEXT('',#2,'mechanical');
#9 = PRODUCT_DEFINITION_CONTEXT('part definition',#2,'design');
#10 = ADVANCED_BREP_SHAPE_REPRESENTATION('',(#11,#15),#400);
#11 = AXIS2_PLACEMENT_3D('',#12,#13,#14);
#12 = CARTESIAN_POINT('',(0.E+000,0.E+000,0.E+000));
#13 = DIRECTION('',(0.E+000,0.E+000,1.));
#14 = DIRECTION('',(1.,0.E+000,-0.E+000));
#15 = MANIFOLD_SOLID_BREP('',#16);
#16 = CLOSED_SHELL('',(#17,#50,#154,#260,#269,#295,#304,#330,#356,#382,
#391));
#17 = ADVANCED_FACE('',(#18),#45,.T.);
#18 = FACE_BOUND('',#19,.F.);
#19 = EDGE_LOOP('',(#20,#30,#37,#38));
#20 = ORIENTED_EDGE('',*,*,#21,.T.);
#21 = EDGE_CURVE('',#22,#24,#26,.T.);
#22 = VERTEX_POINT('',#23);
#23 = CARTESIAN_POINT('',(7.,-1.186585365854,4.53));
#24 = VERTEX_POINT('',#25);
#25 = CARTESIAN_POINT('',(7.,-1.313414634146,4.53));
#26 = LINE('',#27,#28);
#27 = CARTESIAN_POINT('',(7.,1.35,4.53));
#28 = VECTOR('',#29,1.);
#29 = DIRECTION('',(0.E+000,-1.,0.E+000));
#30 = ORIENTED_EDGE('',*,*,#31,.T.);
#31 = EDGE_CURVE('',#24,#24,#32,.T.);
#32 = CIRCLE('',#33,4.5);
#33 = AXIS2_PLACEMENT_3D('',#34,#35,#36);
#34 = CARTESIAN_POINT('',(2.5,-1.313414634146,4.53));
#35 = DIRECTION('',(0.E+000,-1.,0.E+000));
#36 = DIRECTION('',(1.,0.E+000,0.E+000));
#37 = ORIENTED_EDGE('',*,*,#21,.F.);
#38 = ORIENTED_EDGE('',*,*,#39,.F.);
#39 = EDGE_CURVE('',#22,#22,#40,.T.);
#40 = CIRCLE('',#41,4.5);
#41 = AXIS2_PLACEMENT_3D('',#42,#43,#44);
#42 = CARTESIAN_POINT('',(2.5,-1.186585365854,4.53));
#43 = DIRECTION('',(0.E+000,-1.,0.E+000));
#44 = DIRECTION('',(1.,0.E+000,0.E+000));
#45 = CYLINDRICAL_SURFACE('',#46,4.5);
#46 = AXIS2_PLACEMENT_3D('',#47,#48,#49);
#47 = CARTESIAN_POINT('',(2.5,1.35,4.53));
#48 = DIRECTION('',(0.E+000,1.,0.E+000));
#49 = DIRECTION('',(1.,0.E+000,0.E+000));
#50 = ADVANCED_FACE('',(#51,#71),#137,.T.);
#51 = FACE_BOUND('',#52,.F.);
#52 = EDGE_LOOP('',(#53,#54,#63,#70));
#53 = ORIENTED_EDGE('',*,*,#39,.T.);
#54 = ORIENTED_EDGE('',*,*,#55,.T.);
#55 = EDGE_CURVE('',#22,#56,#58,.T.);
#56 = VERTEX_POINT('',#57);
#57 = CARTESIAN_POINT('',(4.463414634146,1.35,4.53));
#58 = CIRCLE('',#59,2.536585365854);
#59 = AXIS2_PLACEMENT_3D('',#60,#61,#62);
#60 = CARTESIAN_POINT('',(4.463414634146,-1.186585365854,4.53));
#61 = DIRECTION('',(0.E+000,0.E+000,1.));
#62 = DIRECTION('',(1.,0.E+000,0.E+000));
#63 = ORIENTED_EDGE('',*,*,#64,.F.);
#64 = EDGE_CURVE('',#56,#56,#65,.T.);
#65 = CIRCLE('',#66,1.963414634146);
#66 = AXIS2_PLACEMENT_3D('',#67,#68,#69);
#67 = CARTESIAN_POINT('',(2.5,1.35,4.53));
#68 = DIRECTION('',(0.E+000,-1.,0.E+000));
#69 = DIRECTION('',(1.,0.E+000,0.E+000));
#70 = ORIENTED_EDGE('',*,*,#55,.F.);
#71 = FACE_BOUND('',#72,.F.);
#72 = EDGE_LOOP('',(#73,#96));
#73 = ORIENTED_EDGE('',*,*,#74,.T.);
#74 = EDGE_CURVE('',#75,#77,#79,.T.);
#75 = VERTEX_POINT('',#76);
#76 = CARTESIAN_POINT('',(0.27,0.E+000,0.964599539221));
#77 = VERTEX_POINT('',#78);
#78 = CARTESIAN_POINT('',(-0.11031871396,-0.24643413187,1.088644438888)
);
#79 = B_SPLINE_CURVE_WITH_KNOTS('',8,(#80,#81,#82,#83,#84,#85,#86,#87,
#88,#89,#90,#91,#92,#93,#94,#95),.UNSPECIFIED.,.F.,.F.,(9,7,9),(
0.E+000,0.31546224375,1.),.UNSPECIFIED.);
#80 = CARTESIAN_POINT('',(0.27,-5.551115123126E-017,0.964599539221));
#81 = CARTESIAN_POINT('',(0.27,-2.046894847152E-002,0.951821472953));
#82 = CARTESIAN_POINT('',(0.268226440545,-4.115446278317E-002,
0.940354694313));
#83 = CARTESIAN_POINT('',(0.264614145355,-6.188314185542E-002,
0.930337049785));
#84 = CARTESIAN_POINT('',(0.259114533141,-8.245614938943E-002,
0.921902985033));
#85 = CARTESIAN_POINT('',(0.251709338926,-0.102649849306,0.915173649072)
);
#86 = CARTESIAN_POINT('',(0.242422109637,-0.122222572274,0.910246335432)
);
#87 = CARTESIAN_POINT('',(0.231327473964,-0.14092751333,0.907183260319)
);
#88 = CARTESIAN_POINT('',(0.190849452527,-0.196732122612,0.90343136114)
);
#89 = CARTESIAN_POINT('',(0.155203039781,-0.229821284059,0.90970811535)
);
#90 = CARTESIAN_POINT('',(0.113035831402,-0.255219476103,0.925061505151)
);
#91 = CARTESIAN_POINT('',(6.685816273953E-002,-0.271273766868,
0.948434680507));
#92 = CARTESIAN_POINT('',(1.942149867557E-002,-0.277675517248,
0.978108245644));
#93 = CARTESIAN_POINT('',(-2.700016879516E-002,-0.274978736563,
1.012381469774));
#94 = CARTESIAN_POINT('',(-7.066420671389E-002,-0.264185870271,
1.049674618682));
#95 = CARTESIAN_POINT('',(-0.11031871396,-0.24643413187,1.088644438888)
);
#96 = ORIENTED_EDGE('',*,*,#97,.T.);
#97 = EDGE_CURVE('',#77,#75,#98,.T.);
#98 = B_SPLINE_CURVE_WITH_KNOTS('',7,(#99,#100,#101,#102,#103,#104,#105,
#106,#107,#108,#109,#110,#111,#112,#113,#114,#115,#116,#117,#118,
#119,#120,#121,#122,#123,#124,#125,#126,#127,#128,#129,#130,#131,
#132,#133,#134,#135,#136),.UNSPECIFIED.,.F.,.F.,(8,6,6,6,6,6,8),(
0.E+000,0.100844520261,0.308042733299,0.47079790038,0.632618252781,
0.786254170914,1.),.UNSPECIFIED.);
#99 = CARTESIAN_POINT('',(-0.11031871396,-0.24643413187,1.088644438888)
);
#100 = CARTESIAN_POINT('',(-0.125413280585,-0.239676897532,
1.103478378036));
#101 = CARTESIAN_POINT('',(-0.139936615808,-0.231880510544,
1.118581778481));
#102 = CARTESIAN_POINT('',(-0.153818311392,-0.223103926492,
1.133883004972));
#103 = CARTESIAN_POINT('',(-0.166995610989,-0.213407860587,
1.149314096535));
#104 = CARTESIAN_POINT('',(-0.179412141994,-0.202854099903,
1.164809772696));
#105 = CARTESIAN_POINT('',(-0.191016647394,-0.191504815609,
1.180306439715));
#106 = CARTESIAN_POINT('',(-0.223838865142,-0.154595899004,
1.227453917328));
#107 = CARTESIAN_POINT('',(-0.242274809027,-0.126687711094,1.25888660459
));
#108 = CARTESIAN_POINT('',(-0.256681136602,-9.622434391747E-002,
1.289514601173));
#109 = CARTESIAN_POINT('',(-0.266695180713,-6.375033737007E-002,
1.318786054651));
#110 = CARTESIAN_POINT('',(-0.271968136542,-2.987361591661E-002,
1.346058380913));
#111 = CARTESIAN_POINT('',(-0.27219022334,4.694719509499E-003,
1.370570261138));
#112 = CARTESIAN_POINT('',(-0.263196042955,6.613744480178E-002,
1.407849655064));
#113 = CARTESIAN_POINT('',(-0.255995513861,9.306241033036E-002,
1.422003194885));
#114 = CARTESIAN_POINT('',(-0.245457562331,0.119449036144,1.433476844472
));
#115 = CARTESIAN_POINT('',(-0.231552108207,0.144766374238,1.441784361664
));
#116 = CARTESIAN_POINT('',(-0.214390283341,0.168389628378,1.446435626862
));
#117 = CARTESIAN_POINT('',(-0.194323576556,0.189688415928,1.44711375181)
);
#118 = CARTESIAN_POINT('',(-0.149669458036,0.226567298716,1.44056585067)
);
#119 = CARTESIAN_POINT('',(-0.125093931781,0.242191716807,1.433382934815
));
#120 = CARTESIAN_POINT('',(-9.879008323167E-002,0.254556602374,
1.422285260809));
#121 = CARTESIAN_POINT('',(-7.145755973797E-002,0.263425028404,
1.407597066566));
#122 = CARTESIAN_POINT('',(-4.374997642534E-002,0.268810746208,
1.389871989722));
#123 = CARTESIAN_POINT('',(-1.620272272355E-002,0.270861081801,
1.369704056133));
#124 = CARTESIAN_POINT('',(3.636294059623E-002,0.268764184966,
1.32672022965));
#125 = CARTESIAN_POINT('',(6.145351182989E-002,0.264924472239,
1.304077714024));
#126 = CARTESIAN_POINT('',(8.57156327748E-002,0.258437896579,
1.28016779416));
#127 = CARTESIAN_POINT('',(0.108895791926,0.24949655967,1.255403786187)
);
#128 = CARTESIAN_POINT('',(0.130789082625,0.238288402444,1.230150687699)
);
#129 = CARTESIAN_POINT('',(0.151220645597,0.224985011016,1.204723602753)
);
#130 = CARTESIAN_POINT('',(0.196185414525,0.188534906847,1.144181536119)
);
#131 = CARTESIAN_POINT('',(0.219168812791,0.163595086146,1.10920481198)
);
#132 = CARTESIAN_POINT('',(0.238535169757,0.135359120798,1.0752405453));
#133 = CARTESIAN_POINT('',(0.253812601481,0.10425703633,1.043021785534)
);
#134 = CARTESIAN_POINT('',(0.264475324111,7.081989325334E-002,
1.013315611951));
#135 = CARTESIAN_POINT('',(0.27,3.575662367169E-002,0.986921179604));
#136 = CARTESIAN_POINT('',(0.27,-2.775557561563E-017,0.964599539221));
#137 = SURFACE_OF_REVOLUTION('',#138,#151);
#138 = B_SPLINE_CURVE_WITH_KNOTS('',6,(#139,#140,#141,#142,#143,#144,
#145,#146,#147,#148,#149,#150),.UNSPECIFIED.,.F.,.F.,(7,5,7),(
0.E+000,0.785398163397,1.570796326795),.UNSPECIFIED.);
#139 = CARTESIAN_POINT('',(7.,-1.186585365854,4.53));
#140 = CARTESIAN_POINT('',(7.,-0.854547117913,4.53));
#141 = CARTESIAN_POINT('',(6.947843758564,-0.522509424568,4.53));
#142 = CARTESIAN_POINT('',(6.843529916931,-0.200709335713,4.53));
#143 = CARTESIAN_POINT('',(6.689743916706,0.100598714093,4.53));
#144 = CARTESIAN_POINT('',(6.491837844132,0.372264850668,4.53));
#145 = CARTESIAN_POINT('',(6.022264850668,0.841837844132,4.53));
#146 = CARTESIAN_POINT('',(5.750598714093,1.039743916706,4.53));
#147 = CARTESIAN_POINT('',(5.449290664287,1.193529916931,4.53));
#148 = CARTESIAN_POINT('',(5.127490575432,1.297843758564,4.53));
#149 = CARTESIAN_POINT('',(4.795452882087,1.35,4.53));
#150 = CARTESIAN_POINT('',(4.463414634146,1.35,4.53));
#151 = AXIS1_PLACEMENT('',#152,#153);
#152 = CARTESIAN_POINT('',(2.5,-1.186585365854,4.53));
#153 = DIRECTION('',(0.E+000,1.,0.E+000));
#154 = ADVANCED_FACE('',(#155,#175),#243,.T.);
#155 = FACE_BOUND('',#156,.T.);
#156 = EDGE_LOOP('',(#157,#158,#167,#174));
#157 = ORIENTED_EDGE('',*,*,#31,.T.);
#158 = ORIENTED_EDGE('',*,*,#159,.T.);
#159 = EDGE_CURVE('',#24,#160,#162,.T.);
#160 = VERTEX_POINT('',#161);
#161 = CARTESIAN_POINT('',(4.463414634146,-3.85,4.53));
#162 = CIRCLE('',#163,2.536585365854);
#163 = AXIS2_PLACEMENT_3D('',#164,#165,#166);
#164 = CARTESIAN_POINT('',(4.463414634146,-1.313414634146,4.53));
#165 = DIRECTION('',(0.E+000,0.E+000,-1.));
#166 = DIRECTION('',(1.,0.E+000,0.E+000));
#167 = ORIENTED_EDGE('',*,*,#168,.F.);
#168 = EDGE_CURVE('',#160,#160,#169,.T.);
#169 = CIRCLE('',#170,1.963414634146);
#170 = AXIS2_PLACEMENT_3D('',#171,#172,#173);
#171 = CARTESIAN_POINT('',(2.5,-3.85,4.53));
#172 = DIRECTION('',(0.E+000,-1.,0.E+000));
#173 = DIRECTION('',(1.,0.E+000,0.E+000));
#174 = ORIENTED_EDGE('',*,*,#159,.F.);
#175 = FACE_BOUND('',#176,.T.);
#176 = EDGE_LOOP('',(#177,#196));
#177 = ORIENTED_EDGE('',*,*,#178,.T.);
#178 = EDGE_CURVE('',#179,#181,#183,.T.);
#179 = VERTEX_POINT('',#180);
#180 = CARTESIAN_POINT('',(5.27,-2.5,1.365812830169));
#181 = VERTEX_POINT('',#182);
#182 = CARTESIAN_POINT('',(5.027667134657,-2.231421278468,1.016743931939
));
#183 = B_SPLINE_CURVE_WITH_KNOTS('',6,(#184,#185,#186,#187,#188,#189,
#190,#191,#192,#193,#194,#195),.UNSPECIFIED.,.F.,.F.,(7,5,7),(
0.E+000,0.496640543687,1.),.UNSPECIFIED.);
#184 = CARTESIAN_POINT('',(5.27,-2.5,1.365812830169));
#185 = CARTESIAN_POINT('',(5.27,-2.466655751769,1.342357762792));
#186 = CARTESIAN_POINT('',(5.265058455314,-2.433808042813,1.316028989497
));
#187 = CARTESIAN_POINT('',(5.255451598186,-2.402222135432,1.287636221129
));
#188 = CARTESIAN_POINT('',(5.241525157764,-2.372533959574,1.257855597214
));
#189 = CARTESIAN_POINT('',(5.223643485335,-2.345307911834,1.227258471696
));
#190 = CARTESIAN_POINT('',(5.180489971099,-2.296535221912,1.165100813986
));
#191 = CARTESIAN_POINT('',(5.155133366368,-2.275084029372,1.13355011838)
);
#192 = CARTESIAN_POINT('',(5.126570790826,-2.257288210573,1.102301434396
));
#193 = CARTESIAN_POINT('',(5.095307361363,-2.243722785213,1.07194230118)
);
#194 = CARTESIAN_POINT('',(5.06203610975,-2.234961734154,1.043164486223)
);
#195 = CARTESIAN_POINT('',(5.027667134657,-2.231421278468,1.016743931939
));
#196 = ORIENTED_EDGE('',*,*,#197,.T.);
#197 = EDGE_CURVE('',#181,#179,#198,.T.);
#198 = B_SPLINE_CURVE_WITH_KNOTS('',7,(#199,#200,#201,#202,#203,#204,
#205,#206,#207,#208,#209,#210,#211,#212,#213,#214,#215,#216,#217,
#218,#219,#220,#221,#222,#223,#224,#225,#226,#227,#228,#229,#230,
#231,#232,#233,#234,#235,#236,#237,#238,#239,#240,#241,#242),
.UNSPECIFIED.,.F.,.F.,(8,6,6,6,6,6,6,8),(0.E+000,0.209230275697,
0.374815418146,0.533124581333,0.683363792933,0.81966500523,
0.931106495257,1.),.UNSPECIFIED.);
#199 = CARTESIAN_POINT('',(5.027667134657,-2.231421278468,1.016743931939
));
#200 = CARTESIAN_POINT('',(4.989184362838,-2.227457047706,0.987160967678
));
#201 = CARTESIAN_POINT('',(4.949293287736,-2.229848889799,0.960397127693
));
#202 = CARTESIAN_POINT('',(4.909308353405,-2.239185747329,0.937586576589
));
#203 = CARTESIAN_POINT('',(4.870855696607,-2.255704600811,0.919900130876
));
#204 = CARTESIAN_POINT('',(4.835795428889,-2.279057692719,0.908433308266
));
#205 = CARTESIAN_POINT('',(4.805789306069,-2.308059834754,0.903837202298
));
#206 = CARTESIAN_POINT('',(4.762816301144,-2.367023162416,0.907652709111
));
#207 = CARTESIAN_POINT('',(4.747583578687,-2.395545926282,0.913552612575
));
#208 = CARTESIAN_POINT('',(4.736563651754,-2.425732304757,0.923613101804
));
#209 = CARTESIAN_POINT('',(4.729895949956,-2.456693228649,0.937520056702
));
#210 = CARTESIAN_POINT('',(4.727447736703,-2.487651984127,0.954804779586
));
#211 = CARTESIAN_POINT('',(4.728967130039,-2.517996001792,0.974966211939
));
#212 = CARTESIAN_POINT('',(4.739136542527,-2.575213445895,1.019087884125
));
#213 = CARTESIAN_POINT('',(4.74746999196,-2.602178620845,1.042840584445)
);
#214 = CARTESIAN_POINT('',(4.758916209963,-2.627738343507,1.068369087653
));
#215 = CARTESIAN_POINT('',(4.773201228816,-2.651569398659,1.095261747645
));
#216 = CARTESIAN_POINT('',(4.790057781552,-2.673406676903,1.123116775482
));
#217 = CARTESIAN_POINT('',(4.809236207138,-2.693015940986,1.151536399435
));
#218 = CARTESIAN_POINT('',(4.850671646779,-2.726435213057,1.207217912244
));
#219 = CARTESIAN_POINT('',(4.872709375374,-2.740479853218,1.234448213371
));
#220 = CARTESIAN_POINT('',(4.896405472581,-2.752105961473,1.261448979689
));
#221 = CARTESIAN_POINT('',(4.921544532357,-2.761101407495,1.287830385587
));
#222 = CARTESIAN_POINT('',(4.94786883748,-2.767232055674,1.313134294402)
);
#223 = CARTESIAN_POINT('',(4.975052405192,-2.770260889396,1.336838969654
));
#224 = CARTESIAN_POINT('',(5.027743547755,-2.76973795539,1.377949756392)
);
#225 = CARTESIAN_POINT('',(5.053175858877,-2.766770252244,1.395738144177
));
#226 = CARTESIAN_POINT('',(5.07861787169,-2.760935246924,1.411313996604)
);
#227 = CARTESIAN_POINT('',(5.103628783487,-2.752134826095,1.424210021918
));
#228 = CARTESIAN_POINT('',(5.127690291434,-2.740392278964,1.434025970125
));
#229 = CARTESIAN_POINT('',(5.150261022991,-2.725900179886,1.440515756117
));
#230 = CARTESIAN_POINT('',(5.187739488863,-2.695263978173,1.446253972651
));
#231 = CARTESIAN_POINT('',(5.203305109978,-2.679894092996,1.446608775568
));
#232 = CARTESIAN_POINT('',(5.217328567951,-2.663136263816,1.444726752634
));
#233 = CARTESIAN_POINT('',(5.229633814579,-2.645240822678,1.440704258266
));
#234 = CARTESIAN_POINT('',(5.240118535995,-2.626470179947,1.434704622002
));
#235 = CARTESIAN_POINT('',(5.248742849277,-2.607073596919,1.426922590658
));
#236 = CARTESIAN_POINT('',(5.25968676198,-2.575033904632,1.411760708332)
);
#237 = CARTESIAN_POINT('',(5.263156798669,-2.562638416109,1.405361061979
));
#238 = CARTESIAN_POINT('',(5.265916199611,-2.550138653844,1.398399402275
));
#239 = CARTESIAN_POINT('',(5.267970163868,-2.537582399202,1.390920928379
));
#240 = CARTESIAN_POINT('',(5.269327620883,-2.525013994581,1.382969669988
));
#241 = CARTESIAN_POINT('',(5.27,-2.512474191721,1.374587447166));
#242 = CARTESIAN_POINT('',(5.27,-2.5,1.365812830169));
#243 = SURFACE_OF_REVOLUTION('',#244,#257);
#244 = B_SPLINE_CURVE_WITH_KNOTS('',6,(#245,#246,#247,#248,#249,#250,
#251,#252,#253,#254,#255,#256),.UNSPECIFIED.,.F.,.F.,(7,5,7),(
0.E+000,0.785398163397,1.570796326795),.UNSPECIFIED.);
#245 = CARTESIAN_POINT('',(7.,-1.313414634146,4.53));
#246 = CARTESIAN_POINT('',(7.,-1.645452882087,4.53));
#247 = CARTESIAN_POINT('',(6.947843758564,-1.977490575432,4.53));
#248 = CARTESIAN_POINT('',(6.843529916931,-2.299290664287,4.53));
#249 = CARTESIAN_POINT('',(6.689743916706,-2.600598714093,4.53));
#250 = CARTESIAN_POINT('',(6.491837844132,-2.872264850668,4.53));
#251 = CARTESIAN_POINT('',(6.022264850668,-3.341837844132,4.53));
#252 = CARTESIAN_POINT('',(5.750598714093,-3.539743916706,4.53));
#253 = CARTESIAN_POINT('',(5.449290664287,-3.693529916931,4.53));
#254 = CARTESIAN_POINT('',(5.127490575432,-3.797843758564,4.53));
#255 = CARTESIAN_POINT('',(4.795452882087,-3.85,4.53));
#256 = CARTESIAN_POINT('',(4.463414634146,-3.85,4.53));
#257 = AXIS1_PLACEMENT('',#258,#259);
#258 = CARTESIAN_POINT('',(2.5,-1.313414634146,4.53));
#259 = DIRECTION('',(0.E+000,-1.,0.E+000));
#260 = ADVANCED_FACE('',(#261),#264,.F.);
#261 = FACE_BOUND('',#262,.F.);
#262 = EDGE_LOOP('',(#263));
#263 = ORIENTED_EDGE('',*,*,#64,.T.);
#264 = PLANE('',#265);
#265 = AXIS2_PLACEMENT_3D('',#266,#267,#268);
#266 = CARTESIAN_POINT('',(2.5,1.35,4.53));
#267 = DIRECTION('',(-0.E+000,-1.,-0.E+000));
#268 = DIRECTION('',(0.E+000,0.E+000,-1.));
#269 = ADVANCED_FACE('',(#270),#290,.T.);
#270 = FACE_BOUND('',#271,.T.);
#271 = EDGE_LOOP('',(#272,#273,#281,#288,#289));
#272 = ORIENTED_EDGE('',*,*,#97,.T.);
#273 = ORIENTED_EDGE('',*,*,#274,.T.);
#274 = EDGE_CURVE('',#75,#275,#277,.T.);
#275 = VERTEX_POINT('',#276);
#276 = CARTESIAN_POINT('',(0.27,0.E+000,-2.892));
#277 = LINE('',#278,#279);
#278 = CARTESIAN_POINT('',(0.27,0.E+000,4.53));
#279 = VECTOR('',#280,1.);
#280 = DIRECTION('',(-0.E+000,-0.E+000,-1.));
#281 = ORIENTED_EDGE('',*,*,#282,.T.);
#282 = EDGE_CURVE('',#275,#275,#283,.T.);
#283 = CIRCLE('',#284,0.27);
#284 = AXIS2_PLACEMENT_3D('',#285,#286,#287);
#285 = CARTESIAN_POINT('',(0.E+000,0.E+000,-2.892));
#286 = DIRECTION('',(0.E+000,0.E+000,1.));
#287 = DIRECTION('',(1.,0.E+000,0.E+000));
#288 = ORIENTED_EDGE('',*,*,#274,.F.);
#289 = ORIENTED_EDGE('',*,*,#74,.T.);
#290 = CYLINDRICAL_SURFACE('',#291,0.27);
#291 = AXIS2_PLACEMENT_3D('',#292,#293,#294);
#292 = CARTESIAN_POINT('',(0.E+000,0.E+000,4.53));
#293 = DIRECTION('',(0.E+000,0.E+000,1.));
#294 = DIRECTION('',(1.,0.E+000,0.E+000));
#295 = ADVANCED_FACE('',(#296),#299,.T.);
#296 = FACE_BOUND('',#297,.T.);
#297 = EDGE_LOOP('',(#298));
#298 = ORIENTED_EDGE('',*,*,#168,.T.);
#299 = PLANE('',#300);
#300 = AXIS2_PLACEMENT_3D('',#301,#302,#303);
#301 = CARTESIAN_POINT('',(2.5,-3.85,4.53));
#302 = DIRECTION('',(-0.E+000,-1.,-0.E+000));
#303 = DIRECTION('',(0.E+000,0.E+000,-1.));
#304 = ADVANCED_FACE('',(#305),#325,.T.);
#305 = FACE_BOUND('',#306,.T.);
#306 = EDGE_LOOP('',(#307,#308,#316,#323,#324));
#307 = ORIENTED_EDGE('',*,*,#178,.F.);
#308 = ORIENTED_EDGE('',*,*,#309,.T.);
#309 = EDGE_CURVE('',#179,#310,#312,.T.);
#310 = VERTEX_POINT('',#311);
#311 = CARTESIAN_POINT('',(5.27,-2.5,-2.892));
#312 = LINE('',#313,#314);
#313 = CARTESIAN_POINT('',(5.27,-2.5,4.53));
#314 = VECTOR('',#315,1.);
#315 = DIRECTION('',(-0.E+000,-0.E+000,-1.));
#316 = ORIENTED_EDGE('',*,*,#317,.T.);
#317 = EDGE_CURVE('',#310,#310,#318,.T.);
#318 = CIRCLE('',#319,0.27);
#319 = AXIS2_PLACEMENT_3D('',#320,#321,#322);
#320 = CARTESIAN_POINT('',(5.,-2.5,-2.892));
#321 = DIRECTION('',(-2.028963233593E-029,1.758434802447E-029,1.));
#322 = DIRECTION('',(1.,7.033739209789E-030,2.028963233593E-029));
#323 = ORIENTED_EDGE('',*,*,#309,.F.);
#324 = ORIENTED_EDGE('',*,*,#197,.F.);
#325 = CYLINDRICAL_SURFACE('',#326,0.27);
#326 = AXIS2_PLACEMENT_3D('',#327,#328,#329);
#327 = CARTESIAN_POINT('',(5.,-2.5,4.53));
#328 = DIRECTION('',(0.E+000,0.E+000,1.));
#329 = DIRECTION('',(1.,0.E+000,0.E+000));
#330 = ADVANCED_FACE('',(#331),#351,.T.);
#331 = FACE_BOUND('',#332,.F.);
#332 = EDGE_LOOP('',(#333,#342,#343,#344));
#333 = ORIENTED_EDGE('',*,*,#334,.F.);
#334 = EDGE_CURVE('',#275,#335,#337,.T.);
#335 = VERTEX_POINT('',#336);
#336 = CARTESIAN_POINT('',(0.162,0.E+000,-3.));
#337 = CIRCLE('',#338,0.108);
#338 = AXIS2_PLACEMENT_3D('',#339,#340,#341);
#339 = CARTESIAN_POINT('',(0.162,0.E+000,-2.892));
#340 = DIRECTION('',(-0.E+000,1.,0.E+000));
#341 = DIRECTION('',(1.,0.E+000,0.E+000));
#342 = ORIENTED_EDGE('',*,*,#282,.T.);
#343 = ORIENTED_EDGE('',*,*,#334,.T.);
#344 = ORIENTED_EDGE('',*,*,#345,.F.);
#345 = EDGE_CURVE('',#335,#335,#346,.T.);
#346 = CIRCLE('',#347,0.162);
#347 = AXIS2_PLACEMENT_3D('',#348,#349,#350);
#348 = CARTESIAN_POINT('',(0.E+000,0.E+000,-3.));
#349 = DIRECTION('',(0.E+000,0.E+000,1.));
#350 = DIRECTION('',(1.,0.E+000,0.E+000));
#351 = TOROIDAL_SURFACE('',#352,0.162,0.108);
#352 = AXIS2_PLACEMENT_3D('',#353,#354,#355);
#353 = CARTESIAN_POINT('',(0.E+000,0.E+000,-2.892));
#354 = DIRECTION('',(-0.E+000,-0.E+000,-1.));
#355 = DIRECTION('',(1.,0.E+000,0.E+000));
#356 = ADVANCED_FACE('',(#357),#377,.T.);
#357 = FACE_BOUND('',#358,.F.);
#358 = EDGE_LOOP('',(#359,#368,#369,#370));
#359 = ORIENTED_EDGE('',*,*,#360,.F.);
#360 = EDGE_CURVE('',#310,#361,#363,.T.);
#361 = VERTEX_POINT('',#362);
#362 = CARTESIAN_POINT('',(5.162,-2.5,-3.));
#363 = CIRCLE('',#364,0.108);
#364 = AXIS2_PLACEMENT_3D('',#365,#366,#367);
#365 = CARTESIAN_POINT('',(5.162,-2.5,-2.892));
#366 = DIRECTION('',(-7.033739209789E-030,1.,-1.758434802447E-029));
#367 = DIRECTION('',(1.,7.033739209789E-030,2.028963233593E-029));
#368 = ORIENTED_EDGE('',*,*,#317,.T.);
#369 = ORIENTED_EDGE('',*,*,#360,.T.);
#370 = ORIENTED_EDGE('',*,*,#371,.F.);
#371 = EDGE_CURVE('',#361,#361,#372,.T.);
#372 = CIRCLE('',#373,0.162);
#373 = AXIS2_PLACEMENT_3D('',#374,#375,#376);
#374 = CARTESIAN_POINT('',(5.,-2.5,-3.));
#375 = DIRECTION('',(-2.028963233593E-029,1.758434802447E-029,1.));
#376 = DIRECTION('',(1.,7.033739209789E-030,2.028963233593E-029));
#377 = TOROIDAL_SURFACE('',#378,0.162,0.108);
#378 = AXIS2_PLACEMENT_3D('',#379,#380,#381);
#379 = CARTESIAN_POINT('',(5.,-2.5,-2.892));
#380 = DIRECTION('',(2.028963233593E-029,-1.758434802447E-029,-1.));
#381 = DIRECTION('',(1.,7.033739209789E-030,2.028963233593E-029));
#382 = ADVANCED_FACE('',(#383),#386,.F.);
#383 = FACE_BOUND('',#384,.F.);
#384 = EDGE_LOOP('',(#385));
#385 = ORIENTED_EDGE('',*,*,#345,.T.);
#386 = PLANE('',#387);
#387 = AXIS2_PLACEMENT_3D('',#388,#389,#390);
#388 = CARTESIAN_POINT('',(-1.978356673234E-017,2.854531227236E-017,-3.)
);
#389 = DIRECTION('',(0.E+000,0.E+000,1.));
#390 = DIRECTION('',(1.,0.E+000,0.E+000));
#391 = ADVANCED_FACE('',(#392),#395,.F.);
#392 = FACE_BOUND('',#393,.F.);
#393 = EDGE_LOOP('',(#394));
#394 = ORIENTED_EDGE('',*,*,#371,.T.);
#395 = PLANE('',#396);
#396 = AXIS2_PLACEMENT_3D('',#397,#398,#399);
#397 = CARTESIAN_POINT('',(5.,-2.5,-3.));
#398 = DIRECTION('',(-2.028963233593E-029,1.758434802447E-029,1.));
#399 = DIRECTION('',(1.,0.E+000,2.028963233593E-029));
#400 = ( GEOMETRIC_REPRESENTATION_CONTEXT(3)
GLOBAL_UNCERTAINTY_ASSIGNED_CONTEXT((#404)) GLOBAL_UNIT_ASSIGNED_CONTEXT
((#401,#402,#403)) REPRESENTATION_CONTEXT('Context #1',
'3D Context with UNIT and UNCERTAINTY') );
#401 = ( LENGTH_UNIT() NAMED_UNIT(*) SI_UNIT(.MILLI.,.METRE.) );
#402 = ( NAMED_UNIT(*) PLANE_ANGLE_UNIT() SI_UNIT($,.RADIAN.) );
#403 = ( NAMED_UNIT(*) SI_UNIT($,.STERADIAN.) SOLID_ANGLE_UNIT() );
#404 = UNCERTAINTY_MEASURE_WITH_UNIT(LENGTH_MEASURE(1.E-007),#401,
'distance_accuracy_value','confusion accuracy');
#405 = PRODUCT_RELATED_PRODUCT_CATEGORY('part',$,(#7));
#406 = MECHANICAL_DESIGN_GEOMETRIC_PRESENTATION_REPRESENTATION('',(#407,
#415,#422,#429,#436,#444,#451,#458,#465,#472,#479),#400);
#407 = STYLED_ITEM('color',(#408),#17);
#408 = PRESENTATION_STYLE_ASSIGNMENT((#409));
#409 = SURFACE_STYLE_USAGE(.BOTH.,#410);
#410 = SURFACE_SIDE_STYLE('',(#411));
#411 = SURFACE_STYLE_FILL_AREA(#412);
#412 = FILL_AREA_STYLE('',(#413));
#413 = FILL_AREA_STYLE_COLOUR('',#414);
#414 = COLOUR_RGB('',0.136999994516,0.402000010014,0.726999998093);
#415 = STYLED_ITEM('color',(#416),#50);
#416 = PRESENTATION_STYLE_ASSIGNMENT((#417));
#417 = SURFACE_STYLE_USAGE(.BOTH.,#418);
#418 = SURFACE_SIDE_STYLE('',(#419));
#419 = SURFACE_STYLE_FILL_AREA(#420);
#420 = FILL_AREA_STYLE('',(#421));
#421 = FILL_AREA_STYLE_COLOUR('',#414);
#422 = STYLED_ITEM('color',(#423),#154);
#423 = PRESENTATION_STYLE_ASSIGNMENT((#424));
#424 = SURFACE_STYLE_USAGE(.BOTH.,#425);
#425 = SURFACE_SIDE_STYLE('',(#426));
#426 = SURFACE_STYLE_FILL_AREA(#427);
#427 = FILL_AREA_STYLE('',(#428));
#428 = FILL_AREA_STYLE_COLOUR('',#414);
#429 = STYLED_ITEM('color',(#430),#260);
#430 = PRESENTATION_STYLE_ASSIGNMENT((#431));
#431 = SURFACE_STYLE_USAGE(.BOTH.,#432);
#432 = SURFACE_SIDE_STYLE('',(#433));
#433 = SURFACE_STYLE_FILL_AREA(#434);
#434 = FILL_AREA_STYLE('',(#435));
#435 = FILL_AREA_STYLE_COLOUR('',#414);
#436 = STYLED_ITEM('color',(#437),#269);
#437 = PRESENTATION_STYLE_ASSIGNMENT((#438));
#438 = SURFACE_STYLE_USAGE(.BOTH.,#439);
#439 = SURFACE_SIDE_STYLE('',(#440));
#440 = SURFACE_STYLE_FILL_AREA(#441);
#441 = FILL_AREA_STYLE('',(#442));
#442 = FILL_AREA_STYLE_COLOUR('',#443);
#443 = COLOUR_RGB('',0.824000000954,0.819999992847,0.78100001812);
#444 = STYLED_ITEM('color',(#445),#295);
#445 = PRESENTATION_STYLE_ASSIGNMENT((#446));
#446 = SURFACE_STYLE_USAGE(.BOTH.,#447);
#447 = SURFACE_SIDE_STYLE('',(#448));
#448 = SURFACE_STYLE_FILL_AREA(#449);
#449 = FILL_AREA_STYLE('',(#450));
#450 = FILL_AREA_STYLE_COLOUR('',#414);
#451 = STYLED_ITEM('color',(#452),#304);
#452 = PRESENTATION_STYLE_ASSIGNMENT((#453));
#453 = SURFACE_STYLE_USAGE(.BOTH.,#454);
#454 = SURFACE_SIDE_STYLE('',(#455));
#455 = SURFACE_STYLE_FILL_AREA(#456);
#456 = FILL_AREA_STYLE('',(#457));
#457 = FILL_AREA_STYLE_COLOUR('',#443);
#458 = STYLED_ITEM('color',(#459),#330);
#459 = PRESENTATION_STYLE_ASSIGNMENT((#460));
#460 = SURFACE_STYLE_USAGE(.BOTH.,#461);
#461 = SURFACE_SIDE_STYLE('',(#462));
#462 = SURFACE_STYLE_FILL_AREA(#463);
#463 = FILL_AREA_STYLE('',(#464));
#464 = FILL_AREA_STYLE_COLOUR('',#443);
#465 = STYLED_ITEM('color',(#466),#356);
#466 = PRESENTATION_STYLE_ASSIGNMENT((#467));
#467 = SURFACE_STYLE_USAGE(.BOTH.,#468);
#468 = SURFACE_SIDE_STYLE('',(#469));
#469 = SURFACE_STYLE_FILL_AREA(#470);
#470 = FILL_AREA_STYLE('',(#471));
#471 = FILL_AREA_STYLE_COLOUR('',#443);
#472 = STYLED_ITEM('color',(#473),#382);
#473 = PRESENTATION_STYLE_ASSIGNMENT((#474));
#474 = SURFACE_STYLE_USAGE(.BOTH.,#475);
#475 = SURFACE_SIDE_STYLE('',(#476));
#476 = SURFACE_STYLE_FILL_AREA(#477);
#477 = FILL_AREA_STYLE('',(#478));
#478 = FILL_AREA_STYLE_COLOUR('',#443);
#479 = STYLED_ITEM('color',(#480),#391);
#480 = PRESENTATION_STYLE_ASSIGNMENT((#481));
#481 = SURFACE_STYLE_USAGE(.BOTH.,#482);
#482 = SURFACE_SIDE_STYLE('',(#483));
#483 = SURFACE_STYLE_FILL_AREA(#484);
#484 = FILL_AREA_STYLE('',(#485));
#485 = FILL_AREA_STYLE_COLOUR('',#443);
ENDSEC;
END-ISO-10303-21;
