ISO-10303-21;
HEADER;
/* RV_Disc_D9mm_W4.2mm_P5mm.step 3D STEP model for use in ECAD systems
 * Copyright (C) 2018, kicad StepUp
 * 
 * This work is licensed under the [Creative Commons CC-BY-SA 4.0 License](https://creativecommons.org/licenses/by-sa/4.0/legalcode), 
 * with the following exception:
 * To the extent that the creation of electronic designs that use 'Licensed Material' can be considered to be 'Adapted Material', 
 * then the copyright holder waives article 3 of the license with respect to these designs and any generated files which use data provided 
 * as part of the 'Licensed Material'.
 * You are free to use the library data in your own projects without the obligation to share your project files under this or any other license agreement.
 * However, if you wish to redistribute these libraries, or parts thereof (including in modified form) as a collection then the exception above does not apply. 
 * Please refer to https://github.com/KiCad/kicad-packages3D/blob/master/LICENSE.md for further clarification of the exception.
 * Disclaimer of Warranties and Limitation of Liability.
 * These libraries are provided in the hope that they will be useful, but are provided without warranty of any kind, express or implied.
 * *USE 3D CAD DATA AT YOUR OWN RISK*
 * *DO NOT RELY UPON ANY INFORMATION FOUND HERE WITHOUT INDEPENDENT VERIFICATION.*
 * 
 */

FILE_DESCRIPTION(
/* description */ ('model of RV_Disc_D9mm_W4.2mm_P5mm'),
/* implementation_level */ '2;1');

FILE_NAME(
/* name */ 'RV_Disc_D9mm_W4.2mm_P5mm.step',
/* time_stamp */ '2018-11-11T21:11:23',
/* author */ ('kicad StepUp','ksu'),
/* organization */ ('FreeCAD'),
/* preprocessor_version */ 'OCC',
/* originating_system */ 'kicad StepUp',
/* authorisation */ '');

FILE_SCHEMA(('AUTOMOTIVE_DESIGN { 1 0 10303 214 1 1 1 1 }'));
ENDSEC;

DATA;
#1 = APPLICATION_PROTOCOL_DEFINITION('international standard',
'automotive_design',2000,#2);
#2 = APPLICATION_CONTEXT(
'core data for automotive mechanical design processes');
#3 = SHAPE_DEFINITION_REPRESENTATION(#4,#10);
#4 = PRODUCT_DEFINITION_SHAPE('','',#5);
#5 = PRODUCT_DEFINITION('design','',#6,#9);
#6 = PRODUCT_DEFINITION_FORMATION('','',#7);
#7 = PRODUCT('RV_Disc_D9mm_W42mm_P5mm','RV_Disc_D9mm_W42mm_P5mm','',(#8)
);
#8 = PRODUCT_CONTEXT('',#2,'mechanical');
#9 = PRODUCT_DEFINITION_CONTEXT('part definition',#2,'design');
#10 = ADVANCED_BREP_SHAPE_REPRESENTATION('',(#11,#15),#374);
#11 = AXIS2_PLACEMENT_3D('',#12,#13,#14);
#12 = CARTESIAN_POINT('',(0.E+000,0.E+000,0.E+000));
#13 = DIRECTION('',(0.E+000,0.E+000,1.));
#14 = DIRECTION('',(1.,0.E+000,-0.E+000));
#15 = MANIFOLD_SOLID_BREP('',#16);
#16 = CLOSED_SHELL('',(#17,#50,#140,#234,#243,#269,#278,#304,#330,#356,
#365));
#17 = ADVANCED_FACE('',(#18),#45,.T.);
#18 = FACE_BOUND('',#19,.F.);
#19 = EDGE_LOOP('',(#20,#30,#37,#38));
#20 = ORIENTED_EDGE('',*,*,#21,.T.);
#21 = EDGE_CURVE('',#22,#24,#26,.T.);
#22 = VERTEX_POINT('',#23);
#23 = CARTESIAN_POINT('',(7.,-0.848780487805,4.53));
#24 = VERTEX_POINT('',#25);
#25 = CARTESIAN_POINT('',(7.,-0.951219512195,4.53));
#26 = LINE('',#27,#28);
#27 = CARTESIAN_POINT('',(7.,1.2,4.53));
#28 = VECTOR('',#29,1.);
#29 = DIRECTION('',(0.E+000,-1.,0.E+000));
#30 = ORIENTED_EDGE('',*,*,#31,.T.);
#31 = EDGE_CURVE('',#24,#24,#32,.T.);
#32 = CIRCLE('',#33,4.5);
#33 = AXIS2_PLACEMENT_3D('',#34,#35,#36);
#34 = CARTESIAN_POINT('',(2.5,-0.951219512195,4.53));
#35 = DIRECTION('',(0.E+000,-1.,0.E+000));
#36 = DIRECTION('',(1.,0.E+000,0.E+000));
#37 = ORIENTED_EDGE('',*,*,#21,.F.);
#38 = ORIENTED_EDGE('',*,*,#39,.F.);
#39 = EDGE_CURVE('',#22,#22,#40,.T.);
#40 = CIRCLE('',#41,4.5);
#41 = AXIS2_PLACEMENT_3D('',#42,#43,#44);
#42 = CARTESIAN_POINT('',(2.5,-0.848780487805,4.53));
#43 = DIRECTION('',(0.E+000,-1.,0.E+000));
#44 = DIRECTION('',(1.,0.E+000,0.E+000));
#45 = CYLINDRICAL_SURFACE('',#46,4.5);
#46 = AXIS2_PLACEMENT_3D('',#47,#48,#49);
#47 = CARTESIAN_POINT('',(2.5,1.2,4.53));
#48 = DIRECTION('',(0.E+000,1.,0.E+000));
#49 = DIRECTION('',(1.,0.E+000,0.E+000));
#50 = ADVANCED_FACE('',(#51,#71),#135,.T.);
#51 = FACE_BOUND('',#52,.F.);
#52 = EDGE_LOOP('',(#53,#54,#63,#70));
#53 = ORIENTED_EDGE('',*,*,#39,.T.);
#54 = ORIENTED_EDGE('',*,*,#55,.T.);
#55 = EDGE_CURVE('',#22,#56,#58,.T.);
#56 = VERTEX_POINT('',#57);
#57 = CARTESIAN_POINT('',(4.951219512195,1.2,4.53));
#58 = CIRCLE('',#59,2.048780487805);
#59 = AXIS2_PLACEMENT_3D('',#60,#61,#62);
#60 = CARTESIAN_POINT('',(4.951219512195,-0.848780487805,4.53));
#61 = DIRECTION('',(0.E+000,0.E+000,1.));
#62 = DIRECTION('',(1.,0.E+000,0.E+000));
#63 = ORIENTED_EDGE('',*,*,#64,.F.);
#64 = EDGE_CURVE('',#56,#56,#65,.T.);
#65 = CIRCLE('',#66,2.451219512195);
#66 = AXIS2_PLACEMENT_3D('',#67,#68,#69);
#67 = CARTESIAN_POINT('',(2.5,1.2,4.53));
#68 = DIRECTION('',(0.E+000,-1.,0.E+000));
#69 = DIRECTION('',(1.,0.E+000,0.E+000));
#70 = ORIENTED_EDGE('',*,*,#55,.F.);
#71 = FACE_BOUND('',#72,.F.);
#72 = EDGE_LOOP('',(#73,#100));
#73 = ORIENTED_EDGE('',*,*,#74,.T.);
#74 = EDGE_CURVE('',#75,#77,#79,.T.);
#75 = VERTEX_POINT('',#76);
#76 = CARTESIAN_POINT('',(0.27,0.E+000,0.834843028674));
#77 = VERTEX_POINT('',#78);
#78 = CARTESIAN_POINT('',(-0.159347815829,-0.217963927269,1.024006135728
));
#79 = B_SPLINE_CURVE_WITH_KNOTS('',7,(#80,#81,#82,#83,#84,#85,#86,#87,
#88,#89,#90,#91,#92,#93,#94,#95,#96,#97,#98,#99),.UNSPECIFIED.,.F.,
.F.,(8,6,6,8),(0.E+000,0.244094880988,0.613168507776,1.),
.UNSPECIFIED.);
#80 = CARTESIAN_POINT('',(0.27,-5.551115123126E-017,0.834843028674));
#81 = CARTESIAN_POINT('',(0.27,-2.009989897198E-002,0.824156862992));
#82 = CARTESIAN_POINT('',(0.268254257608,-4.038489498432E-002,
0.814791867974));
#83 = CARTESIAN_POINT('',(0.264705107092,-6.067604663776E-002,
0.806868672758));
#84 = CARTESIAN_POINT('',(0.25931552277,-8.077100660569E-002,0.800496259
));
#85 = CARTESIAN_POINT('',(0.252082492873,-0.100445961385,0.795761674577)
);
#86 = CARTESIAN_POINT('',(0.243047832069,-0.119465421131,0.792720033933)
);
#87 = CARTESIAN_POINT('',(0.216065341345,-0.165019291484,0.78936592711)
);
#88 = CARTESIAN_POINT('',(0.195914637982,-0.190428617562,0.79124702933)
);
#89 = CARTESIAN_POINT('',(0.17218068563,-0.213019014969,0.797084327458)
);
#90 = CARTESIAN_POINT('',(0.145432710947,-0.232092329475,0.806697745029)
);
#91 = CARTESIAN_POINT('',(0.116411081608,-0.247147327457,0.819728577949)
);
#92 = CARTESIAN_POINT('',(8.59435897264E-002,-0.257918871122,
0.835699448488));
#93 = CARTESIAN_POINT('',(2.225982171383E-002,-0.271131557785,
0.873337857441));
#94 = CARTESIAN_POINT('',(-1.102783511023E-002,-0.27314908141,
0.895248091512));
#95 = CARTESIAN_POINT('',(-4.407547143805E-002,-0.270376058361,
0.919197599418));
#96 = CARTESIAN_POINT('',(-7.602348992101E-002,-0.263053218671,
0.944549561418));
#97 = CARTESIAN_POINT('',(-0.106201914859,-0.251585763909,0.970756311277
));
#98 = CARTESIAN_POINT('',(-0.13410921488,-0.236415218665,0.997367654783)
);
#99 = CARTESIAN_POINT('',(-0.159347815829,-0.217963927269,1.024006135728
));
#100 = ORIENTED_EDGE('',*,*,#101,.T.);
#101 = EDGE_CURVE('',#77,#75,#102,.T.);
#102 = B_SPLINE_CURVE_WITH_KNOTS('',7,(#103,#104,#105,#106,#107,#108,
#109,#110,#111,#112,#113,#114,#115,#116,#117,#118,#119,#120,#121,
#122,#123,#124,#125,#126,#127,#128,#129,#130,#131,#132,#133,#134),
.UNSPECIFIED.,.F.,.F.,(8,6,6,6,6,8),(0.E+000,0.278593077821,
0.452063793919,0.605389819837,0.77219366771,1.),.UNSPECIFIED.);
#103 = CARTESIAN_POINT('',(-0.159347815829,-0.217963927269,
1.024006135728));
#104 = CARTESIAN_POINT('',(-0.194225152625,-0.192466004241,1.06081797302
));
#105 = CARTESIAN_POINT('',(-0.223948156449,-0.160745200373,
1.097620268394));
#106 = CARTESIAN_POINT('',(-0.247504128946,-0.123949264552,1.13342347985
));
#107 = CARTESIAN_POINT('',(-0.264071014822,-8.327033165696E-002,
1.16730310864));
#108 = CARTESIAN_POINT('',(-0.272946787552,-4.001845748086E-002,
1.198249225396));
#109 = CARTESIAN_POINT('',(-0.273577832963,4.297269070267E-003,
1.225015386846));
#110 = CARTESIAN_POINT('',(-0.260821518325,7.505553792379E-002,
1.259302438829));
#111 = CARTESIAN_POINT('',(-0.252636420549,0.101916900619,1.270266476923
));
#112 = CARTESIAN_POINT('',(-0.24111549744,0.12803263962,1.278679290206)
);
#113 = CARTESIAN_POINT('',(-0.226280247113,0.15287475827,1.284145421382)
);
#114 = CARTESIAN_POINT('',(-0.208297317061,0.175859836558,1.286290751531
));
#115 = CARTESIAN_POINT('',(-0.187519447117,0.196417595273,1.284861695198
));
#116 = CARTESIAN_POINT('',(-0.144133808518,0.229748442726,1.27544868272)
);
#117 = CARTESIAN_POINT('',(-0.122007503398,0.243156781829,1.268242580754
));
#118 = CARTESIAN_POINT('',(-9.849240368928E-002,0.254017847414,
1.25824562414));
#119 = CARTESIAN_POINT('',(-7.404204023433E-002,0.262140799624,
1.245611464685));
#120 = CARTESIAN_POINT('',(-4.912115072887E-002,0.267464206197,
1.230631250585));
#121 = CARTESIAN_POINT('',(-2.416458862189E-002,0.270040142005,
1.213692485671));
#122 = CARTESIAN_POINT('',(2.721666432083E-002,0.269955565676,
1.175111282307));
#123 = CARTESIAN_POINT('',(5.358282876286E-002,0.266814993524,
1.153182592776));
#124 = CARTESIAN_POINT('',(7.913181739205E-002,0.260746061773,
1.129905874618));
#125 = CARTESIAN_POINT('',(0.103540625935,0.251972877297,1.105758027538)
);
#126 = CARTESIAN_POINT('',(0.126562542643,0.240725709512,1.081163224444)
);
#127 = CARTESIAN_POINT('',(0.148003757253,0.227212871015,1.056477893843)
);
#128 = CARTESIAN_POINT('',(0.194571971362,0.190311065632,0.998599553156)
);
#129 = CARTESIAN_POINT('',(0.218146515928,0.16514314903,0.965637400102)
);
#130 = CARTESIAN_POINT('',(0.237965192049,0.136597991781,0.933930734931)
);
#131 = CARTESIAN_POINT('',(0.253557504073,0.105145435516,0.904237960176)
);
#132 = CARTESIAN_POINT('',(0.264404397519,7.135729310389E-002,
0.877330244629));
#133 = CARTESIAN_POINT('',(0.27,3.598566786461E-002,0.853974906379));
#134 = CARTESIAN_POINT('',(0.27,-2.775557561563E-017,0.834843028674));
#135 = TOROIDAL_SURFACE('',#136,2.451219512195,2.048780487805);
#136 = AXIS2_PLACEMENT_3D('',#137,#138,#139);
#137 = CARTESIAN_POINT('',(2.5,-0.848780487805,4.53));
#138 = DIRECTION('',(0.E+000,1.,0.E+000));
#139 = DIRECTION('',(1.,0.E+000,0.E+000));
#140 = ADVANCED_FACE('',(#141,#161),#229,.T.);
#141 = FACE_BOUND('',#142,.T.);
#142 = EDGE_LOOP('',(#143,#144,#153,#160));
#143 = ORIENTED_EDGE('',*,*,#31,.T.);
#144 = ORIENTED_EDGE('',*,*,#145,.T.);
#145 = EDGE_CURVE('',#24,#146,#148,.T.);
#146 = VERTEX_POINT('',#147);
#147 = CARTESIAN_POINT('',(4.951219512195,-3.,4.53));
#148 = CIRCLE('',#149,2.048780487805);
#149 = AXIS2_PLACEMENT_3D('',#150,#151,#152);
#150 = CARTESIAN_POINT('',(4.951219512195,-0.951219512195,4.53));
#151 = DIRECTION('',(0.E+000,0.E+000,-1.));
#152 = DIRECTION('',(1.,0.E+000,0.E+000));
#153 = ORIENTED_EDGE('',*,*,#154,.F.);
#154 = EDGE_CURVE('',#146,#146,#155,.T.);
#155 = CIRCLE('',#156,2.451219512195);
#156 = AXIS2_PLACEMENT_3D('',#157,#158,#159);
#157 = CARTESIAN_POINT('',(2.5,-3.,4.53));
#158 = DIRECTION('',(0.E+000,-1.,0.E+000));
#159 = DIRECTION('',(1.,0.E+000,0.E+000));
#160 = ORIENTED_EDGE('',*,*,#145,.F.);
#161 = FACE_BOUND('',#162,.T.);
#162 = EDGE_LOOP('',(#163,#182));
#163 = ORIENTED_EDGE('',*,*,#164,.T.);
#164 = EDGE_CURVE('',#165,#167,#169,.T.);
#165 = VERTEX_POINT('',#166);
#166 = CARTESIAN_POINT('',(5.27,-1.8,1.22028928111));
#167 = VERTEX_POINT('',#168);
#168 = CARTESIAN_POINT('',(5.030752050148,-1.531756991868,0.911076218983
));
#169 = B_SPLINE_CURVE_WITH_KNOTS('',6,(#170,#171,#172,#173,#174,#175,
#176,#177,#178,#179,#180,#181),.UNSPECIFIED.,.F.,.F.,(7,5,7),(
0.E+000,0.528910843509,1.),.UNSPECIFIED.);
#170 = CARTESIAN_POINT('',(5.27,-1.8,1.22028928111));
#171 = CARTESIAN_POINT('',(5.27,-1.765065305738,1.199553145173));
#172 = CARTESIAN_POINT('',(5.264575827819,-1.730545919431,1.175824389658
));
#173 = CARTESIAN_POINT('',(5.253969507005,-1.69735035441,1.149851679892)
);
#174 = CARTESIAN_POINT('',(5.238540228642,-1.666265459487,1.122267050924
));
#175 = CARTESIAN_POINT('',(5.218707546552,-1.638000510994,1.093616702949
));
#176 = CARTESIAN_POINT('',(5.173841031955,-1.591163031588,1.038467840545
));
#177 = CARTESIAN_POINT('',(5.149624068866,-1.571880547059,1.012090319307
));
#178 = CARTESIAN_POINT('',(5.122685824822,-1.555844664976,0.985697346796
));
#179 = CARTESIAN_POINT('',(5.093465541696,-1.543534117476,0.959708796054
));
#180 = CARTESIAN_POINT('',(5.062566789527,-1.535404313256,0.934639637908
));
#181 = CARTESIAN_POINT('',(5.030752050148,-1.531756991868,0.911076218983
));
#182 = ORIENTED_EDGE('',*,*,#183,.T.);
#183 = EDGE_CURVE('',#167,#165,#184,.T.);
#184 = B_SPLINE_CURVE_WITH_KNOTS('',7,(#185,#186,#187,#188,#189,#190,
#191,#192,#193,#194,#195,#196,#197,#198,#199,#200,#201,#202,#203,
#204,#205,#206,#207,#208,#209,#210,#211,#212,#213,#214,#215,#216,
#217,#218,#219,#220,#221,#222,#223,#224,#225,#226,#227,#228),
.UNSPECIFIED.,.F.,.F.,(8,6,6,6,6,6,6,8),(0.E+000,0.228638385432,
0.388650196946,0.534448779203,0.672434474826,0.809810695417,
0.924114170788,1.),.UNSPECIFIED.);
#185 = CARTESIAN_POINT('',(5.030752050148,-1.531756991868,0.911076218983
));
#186 = CARTESIAN_POINT('',(4.988300608422,-1.526890252288,0.879634782565
));
#187 = CARTESIAN_POINT('',(4.94417720261,-1.529772719548,0.850735416255)
);
#188 = CARTESIAN_POINT('',(4.9002854583,-1.541144018911,0.825864651801)
);
#189 = CARTESIAN_POINT('',(4.858867282687,-1.561053932107,0.806487121836
));
#190 = CARTESIAN_POINT('',(4.822176363022,-1.588682095207,0.793900210141
));
#191 = CARTESIAN_POINT('',(4.791980765156,-1.622348392205,0.788850122048
));
#192 = CARTESIAN_POINT('',(4.753217739458,-1.686224659455,0.792871423704
));
#193 = CARTESIAN_POINT('',(4.740870509423,-1.714452371475,0.798159873699
));
#194 = CARTESIAN_POINT('',(4.732444155737,-1.743896236306,0.80704971445)
);
#195 = CARTESIAN_POINT('',(4.727996926179,-1.773817331443,0.819314617438
));
#196 = CARTESIAN_POINT('',(4.727407225517,-1.803563921689,0.834608446599
));
#197 = CARTESIAN_POINT('',(4.730449384758,-1.832612748417,0.852529234732
));
#198 = CARTESIAN_POINT('',(4.742728654647,-1.885983628346,0.891025672048
));
#199 = CARTESIAN_POINT('',(4.751391204898,-1.910496763597,0.911224046282
));
#200 = CARTESIAN_POINT('',(4.762674632227,-1.933768254035,0.932968032013
));
#201 = CARTESIAN_POINT('',(4.776374836843,-1.955541714493,0.955947401899
));
#202 = CARTESIAN_POINT('',(4.792290611396,-1.975598681204,0.979849207928
));
#203 = CARTESIAN_POINT('',(4.810230228504,-1.993740275956,1.004356008462
));
#204 = CARTESIAN_POINT('',(4.848720133373,-2.024932633008,1.052584147363
));
#205 = CARTESIAN_POINT('',(4.869068654693,-2.038195743031,1.076264258972
));
#206 = CARTESIAN_POINT('',(4.890894032619,-2.049394274982,1.099899046044
));
#207 = CARTESIAN_POINT('',(4.914025610269,-2.058346207587,1.12317654853)
);
#208 = CARTESIAN_POINT('',(4.93825293843,-2.064851979404,1.145731592185)
);
#209 = CARTESIAN_POINT('',(4.963306790492,-2.068713637908,1.167154822416
));
#210 = CARTESIAN_POINT('',(5.014274148984,-2.070820789606,1.206811960218
));
#211 = CARTESIAN_POINT('',(5.04018950055,-2.069091106795,1.225064015737)
);
#212 = CARTESIAN_POINT('',(5.066187699682,-2.064417278501,1.241316400328
));
#213 = CARTESIAN_POINT('',(5.091797125088,-2.056714924925,1.255120371228
));
#214 = CARTESIAN_POINT('',(5.116498051084,-2.046025351187,1.266123830709
));
#215 = CARTESIAN_POINT('',(5.139770835932,-2.032542074304,1.274127466373
));
#216 = CARTESIAN_POINT('',(5.178982458976,-2.003366646468,1.283271621398
));
#217 = CARTESIAN_POINT('',(5.195509253851,-1.988416284567,1.285341917381
));
#218 = CARTESIAN_POINT('',(5.210506370717,-1.971955801126,1.285317631192
));
#219 = CARTESIAN_POINT('',(5.223787245047,-1.954223118907,1.283275839274
));
#220 = CARTESIAN_POINT('',(5.235230400367,-1.935473664322,1.279350289072
));
#221 = CARTESIAN_POINT('',(5.244772486405,-1.915958478587,1.273703097364
));
#222 = CARTESIAN_POINT('',(5.257448461492,-1.882601528298,1.261718708522
));
#223 = CARTESIAN_POINT('',(5.261658724564,-1.869056185562,1.256250900983
));
#224 = CARTESIAN_POINT('',(5.265015415479,-1.855341526736,1.25014518506)
);
#225 = CARTESIAN_POINT('',(5.267519506273,-1.841520871552,1.243449947233
));
#226 = CARTESIAN_POINT('',(5.26917751861,-1.82765394377,1.236212620506)
);
#227 = CARTESIAN_POINT('',(5.27,-1.813796506912,1.228478453759));
#228 = CARTESIAN_POINT('',(5.27,-1.8,1.22028928111));
#229 = TOROIDAL_SURFACE('',#230,2.451219512195,2.048780487805);
#230 = AXIS2_PLACEMENT_3D('',#231,#232,#233);
#231 = CARTESIAN_POINT('',(2.5,-0.951219512195,4.53));
#232 = DIRECTION('',(0.E+000,-1.,0.E+000));
#233 = DIRECTION('',(1.,0.E+000,0.E+000));
#234 = ADVANCED_FACE('',(#235),#238,.F.);
#235 = FACE_BOUND('',#236,.F.);
#236 = EDGE_LOOP('',(#237));
#237 = ORIENTED_EDGE('',*,*,#64,.T.);
#238 = PLANE('',#239);
#239 = AXIS2_PLACEMENT_3D('',#240,#241,#242);
#240 = CARTESIAN_POINT('',(2.5,1.2,4.53));
#241 = DIRECTION('',(-0.E+000,-1.,-0.E+000));
#242 = DIRECTION('',(0.E+000,0.E+000,-1.));
#243 = ADVANCED_FACE('',(#244),#264,.T.);
#244 = FACE_BOUND('',#245,.T.);
#245 = EDGE_LOOP('',(#246,#247,#255,#262,#263));
#246 = ORIENTED_EDGE('',*,*,#101,.T.);
#247 = ORIENTED_EDGE('',*,*,#248,.T.);
#248 = EDGE_CURVE('',#75,#249,#251,.T.);
#249 = VERTEX_POINT('',#250);
#250 = CARTESIAN_POINT('',(0.27,0.E+000,-2.892));
#251 = LINE('',#252,#253);
#252 = CARTESIAN_POINT('',(0.27,0.E+000,4.53));
#253 = VECTOR('',#254,1.);
#254 = DIRECTION('',(-0.E+000,-0.E+000,-1.));
#255 = ORIENTED_EDGE('',*,*,#256,.T.);
#256 = EDGE_CURVE('',#249,#249,#257,.T.);
#257 = CIRCLE('',#258,0.27);
#258 = AXIS2_PLACEMENT_3D('',#259,#260,#261);
#259 = CARTESIAN_POINT('',(0.E+000,0.E+000,-2.892));
#260 = DIRECTION('',(0.E+000,0.E+000,1.));
#261 = DIRECTION('',(1.,0.E+000,0.E+000));
#262 = ORIENTED_EDGE('',*,*,#248,.F.);
#263 = ORIENTED_EDGE('',*,*,#74,.T.);
#264 = CYLINDRICAL_SURFACE('',#265,0.27);
#265 = AXIS2_PLACEMENT_3D('',#266,#267,#268);
#266 = CARTESIAN_POINT('',(0.E+000,0.E+000,4.53));
#267 = DIRECTION('',(0.E+000,0.E+000,1.));
#268 = DIRECTION('',(1.,0.E+000,0.E+000));
#269 = ADVANCED_FACE('',(#270),#273,.T.);
#270 = FACE_BOUND('',#271,.T.);
#271 = EDGE_LOOP('',(#272));
#272 = ORIENTED_EDGE('',*,*,#154,.T.);
#273 = PLANE('',#274);
#274 = AXIS2_PLACEMENT_3D('',#275,#276,#277);
#275 = CARTESIAN_POINT('',(2.5,-3.,4.53));
#276 = DIRECTION('',(-0.E+000,-1.,-0.E+000));
#277 = DIRECTION('',(0.E+000,0.E+000,-1.));
#278 = ADVANCED_FACE('',(#279),#299,.T.);
#279 = FACE_BOUND('',#280,.T.);
#280 = EDGE_LOOP('',(#281,#282,#290,#297,#298));
#281 = ORIENTED_EDGE('',*,*,#164,.F.);
#282 = ORIENTED_EDGE('',*,*,#283,.T.);
#283 = EDGE_CURVE('',#165,#284,#286,.T.);
#284 = VERTEX_POINT('',#285);
#285 = CARTESIAN_POINT('',(5.27,-1.8,-2.892));
#286 = LINE('',#287,#288);
#287 = CARTESIAN_POINT('',(5.27,-1.8,4.53));
#288 = VECTOR('',#289,1.);
#289 = DIRECTION('',(-0.E+000,-0.E+000,-1.));
#290 = ORIENTED_EDGE('',*,*,#291,.T.);
#291 = EDGE_CURVE('',#284,#284,#292,.T.);
#292 = CIRCLE('',#293,0.27);
#293 = AXIS2_PLACEMENT_3D('',#294,#295,#296);
#294 = CARTESIAN_POINT('',(5.,-1.8,-2.892));
#295 = DIRECTION('',(0.E+000,0.E+000,1.));
#296 = DIRECTION('',(1.,0.E+000,0.E+000));
#297 = ORIENTED_EDGE('',*,*,#283,.F.);
#298 = ORIENTED_EDGE('',*,*,#183,.F.);
#299 = CYLINDRICAL_SURFACE('',#300,0.27);
#300 = AXIS2_PLACEMENT_3D('',#301,#302,#303);
#301 = CARTESIAN_POINT('',(5.,-1.8,4.53));
#302 = DIRECTION('',(0.E+000,0.E+000,1.));
#303 = DIRECTION('',(1.,0.E+000,0.E+000));
#304 = ADVANCED_FACE('',(#305),#325,.T.);
#305 = FACE_BOUND('',#306,.F.);
#306 = EDGE_LOOP('',(#307,#316,#317,#318));
#307 = ORIENTED_EDGE('',*,*,#308,.F.);
#308 = EDGE_CURVE('',#249,#309,#311,.T.);
#309 = VERTEX_POINT('',#310);
#310 = CARTESIAN_POINT('',(0.162,0.E+000,-3.));
#311 = CIRCLE('',#312,0.108);
#312 = AXIS2_PLACEMENT_3D('',#313,#314,#315);
#313 = CARTESIAN_POINT('',(0.162,0.E+000,-2.892));
#314 = DIRECTION('',(-0.E+000,1.,0.E+000));
#315 = DIRECTION('',(1.,0.E+000,0.E+000));
#316 = ORIENTED_EDGE('',*,*,#256,.T.);
#317 = ORIENTED_EDGE('',*,*,#308,.T.);
#318 = ORIENTED_EDGE('',*,*,#319,.F.);
#319 = EDGE_CURVE('',#309,#309,#320,.T.);
#320 = CIRCLE('',#321,0.162);
#321 = AXIS2_PLACEMENT_3D('',#322,#323,#324);
#322 = CARTESIAN_POINT('',(0.E+000,0.E+000,-3.));
#323 = DIRECTION('',(0.E+000,0.E+000,1.));
#324 = DIRECTION('',(1.,0.E+000,0.E+000));
#325 = TOROIDAL_SURFACE('',#326,0.162,0.108);
#326 = AXIS2_PLACEMENT_3D('',#327,#328,#329);
#327 = CARTESIAN_POINT('',(0.E+000,0.E+000,-2.892));
#328 = DIRECTION('',(-0.E+000,-0.E+000,-1.));
#329 = DIRECTION('',(1.,0.E+000,0.E+000));
#330 = ADVANCED_FACE('',(#331),#351,.T.);
#331 = FACE_BOUND('',#332,.F.);
#332 = EDGE_LOOP('',(#333,#342,#343,#344));
#333 = ORIENTED_EDGE('',*,*,#334,.F.);
#334 = EDGE_CURVE('',#284,#335,#337,.T.);
#335 = VERTEX_POINT('',#336);
#336 = CARTESIAN_POINT('',(5.162,-1.8,-3.));
#337 = CIRCLE('',#338,0.108);
#338 = AXIS2_PLACEMENT_3D('',#339,#340,#341);
#339 = CARTESIAN_POINT('',(5.162,-1.8,-2.892));
#340 = DIRECTION('',(-0.E+000,1.,0.E+000));
#341 = DIRECTION('',(1.,0.E+000,0.E+000));
#342 = ORIENTED_EDGE('',*,*,#291,.T.);
#343 = ORIENTED_EDGE('',*,*,#334,.T.);
#344 = ORIENTED_EDGE('',*,*,#345,.F.);
#345 = EDGE_CURVE('',#335,#335,#346,.T.);
#346 = CIRCLE('',#347,0.162);
#347 = AXIS2_PLACEMENT_3D('',#348,#349,#350);
#348 = CARTESIAN_POINT('',(5.,-1.8,-3.));
#349 = DIRECTION('',(0.E+000,0.E+000,1.));
#350 = DIRECTION('',(1.,0.E+000,0.E+000));
#351 = TOROIDAL_SURFACE('',#352,0.162,0.108);
#352 = AXIS2_PLACEMENT_3D('',#353,#354,#355);
#353 = CARTESIAN_POINT('',(5.,-1.8,-2.892));
#354 = DIRECTION('',(-0.E+000,-0.E+000,-1.));
#355 = DIRECTION('',(1.,0.E+000,0.E+000));
#356 = ADVANCED_FACE('',(#357),#360,.F.);
#357 = FACE_BOUND('',#358,.F.);
#358 = EDGE_LOOP('',(#359));
#359 = ORIENTED_EDGE('',*,*,#319,.T.);
#360 = PLANE('',#361);
#361 = AXIS2_PLACEMENT_3D('',#362,#363,#364);
#362 = CARTESIAN_POINT('',(-1.978356673234E-017,2.854531227236E-017,-3.)
);
#363 = DIRECTION('',(0.E+000,0.E+000,1.));
#364 = DIRECTION('',(1.,0.E+000,0.E+000));
#365 = ADVANCED_FACE('',(#366),#369,.F.);
#366 = FACE_BOUND('',#367,.F.);
#367 = EDGE_LOOP('',(#368));
#368 = ORIENTED_EDGE('',*,*,#345,.T.);
#369 = PLANE('',#370);
#370 = AXIS2_PLACEMENT_3D('',#371,#372,#373);
#371 = CARTESIAN_POINT('',(5.,-1.8,-3.));
#372 = DIRECTION('',(0.E+000,0.E+000,1.));
#373 = DIRECTION('',(1.,0.E+000,0.E+000));
#374 = ( GEOMETRIC_REPRESENTATION_CONTEXT(3)
GLOBAL_UNCERTAINTY_ASSIGNED_CONTEXT((#378)) GLOBAL_UNIT_ASSIGNED_CONTEXT
((#375,#376,#377)) REPRESENTATION_CONTEXT('Context #1',
'3D Context with UNIT and UNCERTAINTY') );
#375 = ( LENGTH_UNIT() NAMED_UNIT(*) SI_UNIT(.MILLI.,.METRE.) );
#376 = ( NAMED_UNIT(*) PLANE_ANGLE_UNIT() SI_UNIT($,.RADIAN.) );
#377 = ( NAMED_UNIT(*) SI_UNIT($,.STERADIAN.) SOLID_ANGLE_UNIT() );
#378 = UNCERTAINTY_MEASURE_WITH_UNIT(LENGTH_MEASURE(1.E-007),#375,
'distance_accuracy_value','confusion accuracy');
#379 = PRODUCT_RELATED_PRODUCT_CATEGORY('part',$,(#7));
#380 = MECHANICAL_DESIGN_GEOMETRIC_PRESENTATION_REPRESENTATION('',(#381,
#389,#396,#403,#410,#418,#425,#432,#439,#446,#453),#374);
#381 = STYLED_ITEM('color',(#382),#17);
#382 = PRESENTATION_STYLE_ASSIGNMENT((#383));
#383 = SURFACE_STYLE_USAGE(.BOTH.,#384);
#384 = SURFACE_SIDE_STYLE('',(#385));
#385 = SURFACE_STYLE_FILL_AREA(#386);
#386 = FILL_AREA_STYLE('',(#387));
#387 = FILL_AREA_STYLE_COLOUR('',#388);
#388 = COLOUR_RGB('',0.136999994516,0.402000010014,0.726999998093);
#389 = STYLED_ITEM('color',(#390),#50);
#390 = PRESENTATION_STYLE_ASSIGNMENT((#391));
#391 = SURFACE_STYLE_USAGE(.BOTH.,#392);
#392 = SURFACE_SIDE_STYLE('',(#393));
#393 = SURFACE_STYLE_FILL_AREA(#394);
#394 = FILL_AREA_STYLE('',(#395));
#395 = FILL_AREA_STYLE_COLOUR('',#388);
#396 = STYLED_ITEM('color',(#397),#140);
#397 = PRESENTATION_STYLE_ASSIGNMENT((#398));
#398 = SURFACE_STYLE_USAGE(.BOTH.,#399);
#399 = SURFACE_SIDE_STYLE('',(#400));
#400 = SURFACE_STYLE_FILL_AREA(#401);
#401 = FILL_AREA_STYLE('',(#402));
#402 = FILL_AREA_STYLE_COLOUR('',#388);
#403 = STYLED_ITEM('color',(#404),#234);
#404 = PRESENTATION_STYLE_ASSIGNMENT((#405));
#405 = SURFACE_STYLE_USAGE(.BOTH.,#406);
#406 = SURFACE_SIDE_STYLE('',(#407));
#407 = SURFACE_STYLE_FILL_AREA(#408);
#408 = FILL_AREA_STYLE('',(#409));
#409 = FILL_AREA_STYLE_COLOUR('',#388);
#410 = STYLED_ITEM('color',(#411),#243);
#411 = PRESENTATION_STYLE_ASSIGNMENT((#412));
#412 = SURFACE_STYLE_USAGE(.BOTH.,#413);
#413 = SURFACE_SIDE_STYLE('',(#414));
#414 = SURFACE_STYLE_FILL_AREA(#415);
#415 = FILL_AREA_STYLE('',(#416));
#416 = FILL_AREA_STYLE_COLOUR('',#417);
#417 = COLOUR_RGB('',0.824000000954,0.819999992847,0.78100001812);
#418 = STYLED_ITEM('color',(#419),#269);
#419 = PRESENTATION_STYLE_ASSIGNMENT((#420));
#420 = SURFACE_STYLE_USAGE(.BOTH.,#421);
#421 = SURFACE_SIDE_STYLE('',(#422));
#422 = SURFACE_STYLE_FILL_AREA(#423);
#423 = FILL_AREA_STYLE('',(#424));
#424 = FILL_AREA_STYLE_COLOUR('',#388);
#425 = STYLED_ITEM('color',(#426),#278);
#426 = PRESENTATION_STYLE_ASSIGNMENT((#427));
#427 = SURFACE_STYLE_USAGE(.BOTH.,#428);
#428 = SURFACE_SIDE_STYLE('',(#429));
#429 = SURFACE_STYLE_FILL_AREA(#430);
#430 = FILL_AREA_STYLE('',(#431));
#431 = FILL_AREA_STYLE_COLOUR('',#417);
#432 = STYLED_ITEM('color',(#433),#304);
#433 = PRESENTATION_STYLE_ASSIGNMENT((#434));
#434 = SURFACE_STYLE_USAGE(.BOTH.,#435);
#435 = SURFACE_SIDE_STYLE('',(#436));
#436 = SURFACE_STYLE_FILL_AREA(#437);
#437 = FILL_AREA_STYLE('',(#438));
#438 = FILL_AREA_STYLE_COLOUR('',#417);
#439 = STYLED_ITEM('color',(#440),#330);
#440 = PRESENTATION_STYLE_ASSIGNMENT((#441));
#441 = SURFACE_STYLE_USAGE(.BOTH.,#442);
#442 = SURFACE_SIDE_STYLE('',(#443));
#443 = SURFACE_STYLE_FILL_AREA(#444);
#444 = FILL_AREA_STYLE('',(#445));
#445 = FILL_AREA_STYLE_COLOUR('',#417);
#446 = STYLED_ITEM('color',(#447),#356);
#447 = PRESENTATION_STYLE_ASSIGNMENT((#448));
#448 = SURFACE_STYLE_USAGE(.BOTH.,#449);
#449 = SURFACE_SIDE_STYLE('',(#450));
#450 = SURFACE_STYLE_FILL_AREA(#451);
#451 = FILL_AREA_STYLE('',(#452));
#452 = FILL_AREA_STYLE_COLOUR('',#417);
#453 = STYLED_ITEM('color',(#454),#365);
#454 = PRESENTATION_STYLE_ASSIGNMENT((#455));
#455 = SURFACE_STYLE_USAGE(.BOTH.,#456);
#456 = SURFACE_SIDE_STYLE('',(#457));
#457 = SURFACE_STYLE_FILL_AREA(#458);
#458 = FILL_AREA_STYLE('',(#459));
#459 = FILL_AREA_STYLE_COLOUR('',#417);
ENDSEC;
END-ISO-10303-21;
