ISO-10303-21;
HEADER;
/* RV_Disc_D21.5mm_W4.3mm_P10mm.step 3D STEP model for use in ECAD systems
 * Copyright (C) 2018, kicad StepUp
 * 
 * This work is licensed under the [Creative Commons CC-BY-SA 4.0 License](https://creativecommons.org/licenses/by-sa/4.0/legalcode), 
 * with the following exception:
 * To the extent that the creation of electronic designs that use 'Licensed Material' can be considered to be 'Adapted Material', 
 * then the copyright holder waives article 3 of the license with respect to these designs and any generated files which use data provided 
 * as part of the 'Licensed Material'.
 * You are free to use the library data in your own projects without the obligation to share your project files under this or any other license agreement.
 * However, if you wish to redistribute these libraries, or parts thereof (including in modified form) as a collection then the exception above does not apply. 
 * Please refer to https://github.com/KiCad/kicad-packages3D/blob/master/LICENSE.md for further clarification of the exception.
 * Disclaimer of Warranties and Limitation of Liability.
 * These libraries are provided in the hope that they will be useful, but are provided without warranty of any kind, express or implied.
 * *USE 3D CAD DATA AT YOUR OWN RISK*
 * *DO NOT RELY UPON ANY INFORMATION FOUND HERE WITHOUT INDEPENDENT VERIFICATION.*
 * 
 */

FILE_DESCRIPTION(
/* description */ ('model of RV_Disc_D21.5mm_W4.3mm_P10mm'),
/* implementation_level */ '2;1');

FILE_NAME(
/* name */ 'RV_Disc_D21.5mm_W4.3mm_P10mm.step',
/* time_stamp */ '2018-11-11T21:02:22',
/* author */ ('kicad StepUp','ksu'),
/* organization */ ('FreeCAD'),
/* preprocessor_version */ 'OCC',
/* originating_system */ 'kicad StepUp',
/* authorisation */ '');

FILE_SCHEMA(('AUTOMOTIVE_DESIGN { 1 0 10303 214 1 1 1 1 }'));
ENDSEC;

DATA;
#1 = APPLICATION_PROTOCOL_DEFINITION('international standard',
'automotive_design',2000,#2);
#2 = APPLICATION_CONTEXT(
'core data for automotive mechanical design processes');
#3 = SHAPE_DEFINITION_REPRESENTATION(#4,#10);
#4 = PRODUCT_DEFINITION_SHAPE('','',#5);
#5 = PRODUCT_DEFINITION('design','',#6,#9);
#6 = PRODUCT_DEFINITION_FORMATION('','',#7);
#7 = PRODUCT('RV_Disc_D215mm_W43mm_P10mm','RV_Disc_D215mm_W43mm_P10mm',
'',(#8));
#8 = PRODUCT_CONTEXT('',#2,'mechanical');
#9 = PRODUCT_DEFINITION_CONTEXT('part definition',#2,'design');
#10 = ADVANCED_BREP_SHAPE_REPRESENTATION('',(#11,#15),#398);
#11 = AXIS2_PLACEMENT_3D('',#12,#13,#14);
#12 = CARTESIAN_POINT('',(0.E+000,0.E+000,0.E+000));
#13 = DIRECTION('',(0.E+000,0.E+000,1.));
#14 = DIRECTION('',(1.,0.E+000,-0.E+000));
#15 = MANIFOLD_SOLID_BREP('',#16);
#16 = CLOSED_SHELL('',(#17,#50,#156,#258,#267,#293,#302,#328,#354,#380,
#389));
#17 = ADVANCED_FACE('',(#18),#45,.T.);
#18 = FACE_BOUND('',#19,.F.);
#19 = EDGE_LOOP('',(#20,#30,#37,#38));
#20 = ORIENTED_EDGE('',*,*,#21,.T.);
#21 = EDGE_CURVE('',#22,#24,#26,.T.);
#22 = VERTEX_POINT('',#23);
#23 = CARTESIAN_POINT('',(15.75,-0.69756097561,10.78));
#24 = VERTEX_POINT('',#25);
#25 = CARTESIAN_POINT('',(15.75,-0.80243902439,10.78));
#26 = LINE('',#27,#28);
#27 = CARTESIAN_POINT('',(15.75,1.4,10.78));
#28 = VECTOR('',#29,1.);
#29 = DIRECTION('',(0.E+000,-1.,0.E+000));
#30 = ORIENTED_EDGE('',*,*,#31,.T.);
#31 = EDGE_CURVE('',#24,#24,#32,.T.);
#32 = CIRCLE('',#33,10.75);
#33 = AXIS2_PLACEMENT_3D('',#34,#35,#36);
#34 = CARTESIAN_POINT('',(5.,-0.80243902439,10.78));
#35 = DIRECTION('',(1.137711779659E-033,-1.,-3.413135338977E-033));
#36 = DIRECTION('',(1.,1.137711779659E-033,6.659776271174E-034));
#37 = ORIENTED_EDGE('',*,*,#21,.F.);
#38 = ORIENTED_EDGE('',*,*,#39,.F.);
#39 = EDGE_CURVE('',#22,#22,#40,.T.);
#40 = CIRCLE('',#41,10.75);
#41 = AXIS2_PLACEMENT_3D('',#42,#43,#44);
#42 = CARTESIAN_POINT('',(5.,-0.69756097561,10.78));
#43 = DIRECTION('',(1.137711779659E-033,-1.,-3.413135338977E-033));
#44 = DIRECTION('',(1.,1.137711779659E-033,-6.659776271174E-034));
#45 = CYLINDRICAL_SURFACE('',#46,10.75);
#46 = AXIS2_PLACEMENT_3D('',#47,#48,#49);
#47 = CARTESIAN_POINT('',(5.,1.4,10.78));
#48 = DIRECTION('',(0.E+000,1.,0.E+000));
#49 = DIRECTION('',(1.,0.E+000,0.E+000));
#50 = ADVANCED_FACE('',(#51,#71),#151,.T.);
#51 = FACE_BOUND('',#52,.F.);
#52 = EDGE_LOOP('',(#53,#54,#63,#70));
#53 = ORIENTED_EDGE('',*,*,#39,.T.);
#54 = ORIENTED_EDGE('',*,*,#55,.T.);
#55 = EDGE_CURVE('',#22,#56,#58,.T.);
#56 = VERTEX_POINT('',#57);
#57 = CARTESIAN_POINT('',(13.65243902439,1.4,10.78));
#58 = CIRCLE('',#59,2.09756097561);
#59 = AXIS2_PLACEMENT_3D('',#60,#61,#62);
#60 = CARTESIAN_POINT('',(13.65243902439,-0.69756097561,10.78));
#61 = DIRECTION('',(6.659776271174E-034,-3.413135338977E-033,1.));
#62 = DIRECTION('',(1.,1.137711779659E-033,-6.659776271174E-034));
#63 = ORIENTED_EDGE('',*,*,#64,.F.);
#64 = EDGE_CURVE('',#56,#56,#65,.T.);
#65 = CIRCLE('',#66,8.65243902439);
#66 = AXIS2_PLACEMENT_3D('',#67,#68,#69);
#67 = CARTESIAN_POINT('',(5.,1.4,10.78));
#68 = DIRECTION('',(1.137711779659E-033,-1.,-3.413135338977E-033));
#69 = DIRECTION('',(1.,1.137711779659E-033,-6.659776271174E-034));
#70 = ORIENTED_EDGE('',*,*,#55,.F.);
#71 = FACE_BOUND('',#72,.F.);
#72 = EDGE_LOOP('',(#73,#110));
#73 = ORIENTED_EDGE('',*,*,#74,.T.);
#74 = EDGE_CURVE('',#75,#77,#79,.T.);
#75 = VERTEX_POINT('',#76);
#76 = CARTESIAN_POINT('',(0.45,0.E+000,1.172324711604));
#77 = VERTEX_POINT('',#78);
#78 = CARTESIAN_POINT('',(-0.312422040695,-0.323871067692,1.472994513447
));
#79 = B_SPLINE_CURVE_WITH_KNOTS('',8,(#80,#81,#82,#83,#84,#85,#86,#87,
#88,#89,#90,#91,#92,#93,#94,#95,#96,#97,#98,#99,#100,#101,#102,#103,
#104,#105,#106,#107,#108,#109),.UNSPECIFIED.,.F.,.F.,(9,7,7,7,9),(
0.E+000,0.173979585382,0.367687586287,0.476208028131,1.),
.UNSPECIFIED.);
#80 = CARTESIAN_POINT('',(0.45,-5.551115123126E-017,1.172324711604));
#81 = CARTESIAN_POINT('',(0.45,-2.158582724598E-002,1.163902494143));
#82 = CARTESIAN_POINT('',(0.44881663442,-4.331223471751E-002,
1.156322209511));
#83 = CARTESIAN_POINT('',(0.446422931135,-6.510286401539E-002,
1.149626985778));
#84 = CARTESIAN_POINT('',(0.442797741204,-8.687477200513E-002,
1.143854011858));
#85 = CARTESIAN_POINT('',(0.437927380062,-0.108539469034,1.139033349348)
);
#86 = CARTESIAN_POINT('',(0.431807268716,-0.130003957146,1.135186744353)
);
#87 = CARTESIAN_POINT('',(0.424443574938,-0.1511717683,1.132326439322));
#88 = CARTESIAN_POINT('',(0.406292215992,-0.195071704435,1.128369203468)
);
#89 = CARTESIAN_POINT('',(0.395209412462,-0.217712984419,1.127508680323)
);
#90 = CARTESIAN_POINT('',(0.38263152253,-0.239730644742,1.127875603414)
);
#91 = CARTESIAN_POINT('',(0.368599698232,-0.260992710957,1.129455929721)
);
#92 = CARTESIAN_POINT('',(0.35316963769,-0.281373613413,1.132220754184)
);
#93 = CARTESIAN_POINT('',(0.336410057825,-0.300755368701,1.136128678645)
);
#94 = CARTESIAN_POINT('',(0.31840116707,-0.319028761097,1.141128180794)
);
#95 = CARTESIAN_POINT('',(0.288494691742,-0.345655224257,1.150539161311)
);
#96 = CARTESIAN_POINT('',(0.277391908452,-0.354837364655,1.154242511124)
);
#97 = CARTESIAN_POINT('',(0.265940129491,-0.363623805626,1.158259816388)
);
#98 = CARTESIAN_POINT('',(0.254155492332,-0.371998341847,1.162580227222)
);
#99 = CARTESIAN_POINT('',(0.24205486876,-0.379945691229,1.167192386223)
);
#100 = CARTESIAN_POINT('',(0.229655802983,-0.387451483892,1.172084554666
));
#101 = CARTESIAN_POINT('',(0.216976449744,-0.394502251139,1.1772447387)
);
#102 = CARTESIAN_POINT('',(0.141573924915,-0.432860147583,1.208802411737
));
#103 = CARTESIAN_POINT('',(7.175962090932E-002,-0.454382161653,
1.241431412685));
#104 = CARTESIAN_POINT('',(-1.972964184138E-003,-0.462567898354,
1.27887422147));
#105 = CARTESIAN_POINT('',(-7.545541043806E-002,-0.456752856831,
1.318549402227));
#106 = CARTESIAN_POINT('',(-0.145176943253,-0.43805454547,1.358606734613
));
#107 = CARTESIAN_POINT('',(-0.208723237151,-0.408423154182,
1.398006554682));
#108 = CARTESIAN_POINT('',(-0.264752164464,-0.369855786605,1.43619824921
));
#109 = CARTESIAN_POINT('',(-0.312422040695,-0.323871067692,
1.472994513447));
#110 = ORIENTED_EDGE('',*,*,#111,.T.);
#111 = EDGE_CURVE('',#77,#75,#112,.T.);
#112 = B_SPLINE_CURVE_WITH_KNOTS('',7,(#113,#114,#115,#116,#117,#118,
#119,#120,#121,#122,#123,#124,#125,#126,#127,#128,#129,#130,#131,
#132,#133,#134,#135,#136,#137,#138,#139,#140,#141,#142,#143,#144,
#145,#146,#147,#148,#149,#150),.UNSPECIFIED.,.F.,.F.,(8,6,6,6,6,6,8)
,(0.E+000,8.273529896783E-002,0.347914870244,0.493570030593,
0.624456974888,0.773599375739,1.),.UNSPECIFIED.);
#113 = CARTESIAN_POINT('',(-0.312422040695,-0.323871067692,
1.472994513447));
#114 = CARTESIAN_POINT('',(-0.327531435385,-0.309295798724,1.48465741932
));
#115 = CARTESIAN_POINT('',(-0.341788053853,-0.293955528126,
1.496180626164));
#116 = CARTESIAN_POINT('',(-0.355156266566,-0.277907127828,
1.507552853055));
#117 = CARTESIAN_POINT('',(-0.367604171885,-0.261207882869,
1.518763933782));
#118 = CARTESIAN_POINT('',(-0.379103346632,-0.243915363191,
1.529804157282));
#119 = CARTESIAN_POINT('',(-0.38962859666,-0.226087295428,1.540663608082
));
#120 = CARTESIAN_POINT('',(-0.42969999758,-0.149108288387,1.58552379016)
);
#121 = CARTESIAN_POINT('',(-0.449982213197,-8.557769803938E-002,
1.617718237247));
#122 = CARTESIAN_POINT('',(-0.459344828393,-1.903249446018E-002,
1.647613003313));
#123 = CARTESIAN_POINT('',(-0.45731994937,4.864853927897E-002,
1.67474636522));
#124 = CARTESIAN_POINT('',(-0.443677285983,0.115453859638,1.698360215556
));
#125 = CARTESIAN_POINT('',(-0.418456947766,0.179239248163,1.71716852996)
);
#126 = CARTESIAN_POINT('',(-0.362166748853,0.269746468818,1.736146113752
));
#127 = CARTESIAN_POINT('',(-0.33886763247,0.300198592886,1.740892031012)
);
#128 = CARTESIAN_POINT('',(-0.312326899674,0.328602794147,1.743364395728
));
#129 = CARTESIAN_POINT('',(-0.282716623632,0.354510565032,1.743235468782
));
#130 = CARTESIAN_POINT('',(-0.250318566496,0.377461765028,1.740174062556
));
#131 = CARTESIAN_POINT('',(-0.215542563321,0.397031529969,1.733917538957
));
#132 = CARTESIAN_POINT('',(-0.146020154959,0.427158237883,1.715814752665
));
#133 = CARTESIAN_POINT('',(-0.111628534021,0.438427625471,1.704599112187
));
#134 = CARTESIAN_POINT('',(-7.613263724334E-002,0.446477802846,
1.69067517955));
#135 = CARTESIAN_POINT('',(-4.003455035253E-002,0.451126080663,
1.674095581197));
#136 = CARTESIAN_POINT('',(-3.940731357573E-003,0.452323790677,
1.655127096378));
#137 = CARTESIAN_POINT('',(3.148308909999E-002,0.450218977154,
1.634271892047));
#138 = CARTESIAN_POINT('',(0.104447322568,0.439469754791,1.587069182026)
);
#139 = CARTESIAN_POINT('',(0.141762205626,0.429928914109,1.560251577691)
);
#140 = CARTESIAN_POINT('',(0.177225745245,0.416979057155,1.532293046049)
);
#141 = CARTESIAN_POINT('',(0.210649445977,0.400989180486,1.503686646133)
);
#142 = CARTESIAN_POINT('',(0.241915829903,0.382267828502,1.474847235239)
);
#143 = CARTESIAN_POINT('',(0.270939658545,0.361052223533,1.446108579902)
);
#144 = CARTESIAN_POINT('',(0.338163147313,0.301770348389,1.374706540826)
);
#145 = CARTESIAN_POINT('',(0.373264225485,0.260724537503,1.332609436719)
);
#146 = CARTESIAN_POINT('',(0.402599360366,0.215043073011,1.292511747033)
);
#147 = CARTESIAN_POINT('',(0.425645862432,0.165282996273,1.255415114812)
);
#148 = CARTESIAN_POINT('',(0.441698615992,0.112133846133,1.222367196745)
);
#149 = CARTESIAN_POINT('',(0.45,5.658306668715E-002,1.194401923973));
#150 = CARTESIAN_POINT('',(0.45,-5.551115123126E-017,1.172324711604));
#151 = TOROIDAL_SURFACE('',#152,8.65243902439,2.09756097561);
#152 = AXIS2_PLACEMENT_3D('',#153,#154,#155);
#153 = CARTESIAN_POINT('',(5.,-0.69756097561,10.78));
#154 = DIRECTION('',(-1.137711779659E-033,1.,3.413135338977E-033));
#155 = DIRECTION('',(1.,1.137711779659E-033,-6.659776271174E-034));
#156 = ADVANCED_FACE('',(#157,#177),#253,.T.);
#157 = FACE_BOUND('',#158,.T.);
#158 = EDGE_LOOP('',(#159,#160,#169,#176));
#159 = ORIENTED_EDGE('',*,*,#31,.T.);
#160 = ORIENTED_EDGE('',*,*,#161,.T.);
#161 = EDGE_CURVE('',#24,#162,#164,.T.);
#162 = VERTEX_POINT('',#163);
#163 = CARTESIAN_POINT('',(13.65243902439,-2.9,10.78));
#164 = CIRCLE('',#165,2.09756097561);
#165 = AXIS2_PLACEMENT_3D('',#166,#167,#168);
#166 = CARTESIAN_POINT('',(13.65243902439,-0.80243902439,10.78));
#167 = DIRECTION('',(6.659776271174E-034,3.413135338977E-033,-1.));
#168 = DIRECTION('',(1.,1.137711779659E-033,6.659776271174E-034));
#169 = ORIENTED_EDGE('',*,*,#170,.F.);
#170 = EDGE_CURVE('',#162,#162,#171,.T.);
#171 = CIRCLE('',#172,8.65243902439);
#172 = AXIS2_PLACEMENT_3D('',#173,#174,#175);
#173 = CARTESIAN_POINT('',(5.,-2.9,10.78));
#174 = DIRECTION('',(1.137711779659E-033,-1.,-3.413135338977E-033));
#175 = DIRECTION('',(1.,1.137711779659E-033,6.659776271174E-034));
#176 = ORIENTED_EDGE('',*,*,#161,.F.);
#177 = FACE_BOUND('',#178,.T.);
#178 = EDGE_LOOP('',(#179,#203));
#179 = ORIENTED_EDGE('',*,*,#180,.T.);
#180 = EDGE_CURVE('',#181,#183,#185,.T.);
#181 = VERTEX_POINT('',#182);
#182 = CARTESIAN_POINT('',(10.45,-1.5,1.6527099067));
#183 = VERTEX_POINT('',#184);
#184 = CARTESIAN_POINT('',(9.779337070325,-1.107816533409,1.175811181425
));
#185 = B_SPLINE_CURVE_WITH_KNOTS('',6,(#186,#187,#188,#189,#190,#191,
#192,#193,#194,#195,#196,#197,#198,#199,#200,#201,#202),
.UNSPECIFIED.,.F.,.F.,(7,5,5,7),(0.E+000,0.239290482276,0.700647126697
,1.),.UNSPECIFIED.);
#186 = CARTESIAN_POINT('',(10.45,-1.5,1.6527099067));
#187 = CARTESIAN_POINT('',(10.45,-1.464112393139,1.637970543688));
#188 = CARTESIAN_POINT('',(10.446565535546,-1.428341727557,
1.622259033266));
#189 = CARTESIAN_POINT('',(10.439738604501,-1.393036037895,
1.605714434872));
#190 = CARTESIAN_POINT('',(10.429586454494,-1.358536954594,
1.588436394052));
#191 = CARTESIAN_POINT('',(10.416204752704,-1.325181486554,
1.570498764882));
#192 = CARTESIAN_POINT('',(10.367939292759,-1.231843019396,1.5162263698)
);
#193 = CARTESIAN_POINT('',(10.324656342251,-1.175934260818,
1.478300810419));
#194 = CARTESIAN_POINT('',(10.270766572989,-1.127837990848,
1.438574972794));
#195 = CARTESIAN_POINT('',(10.207564660682,-1.090018678322,
1.397354317727));
#196 = CARTESIAN_POINT('',(10.137260982032,-1.064937858597,
1.355321541005));
#197 = CARTESIAN_POINT('',(10.014874574302,-1.047623300507,
1.287483827551));
#198 = CARTESIAN_POINT('',(9.965072152381,-1.046948549223,1.261169239347
));
#199 = CARTESIAN_POINT('',(9.915327530921,-1.053035228243,1.236151923648
));
#200 = CARTESIAN_POINT('',(9.867208014334,-1.06559350537,1.213230962808)
);
#201 = CARTESIAN_POINT('',(9.821663654734,-1.084001383321,1.192959720598
));
#202 = CARTESIAN_POINT('',(9.779337070325,-1.107816533409,1.175811181425
));
#203 = ORIENTED_EDGE('',*,*,#204,.T.);
#204 = EDGE_CURVE('',#183,#181,#205,.T.);
#205 = B_SPLINE_CURVE_WITH_KNOTS('',6,(#206,#207,#208,#209,#210,#211,
#212,#213,#214,#215,#216,#217,#218,#219,#220,#221,#222,#223,#224,
#225,#226,#227,#228,#229,#230,#231,#232,#233,#234,#235,#236,#237,
#238,#239,#240,#241,#242,#243,#244,#245,#246,#247,#248,#249,#250,
#251,#252),.UNSPECIFIED.,.F.,.F.,(7,5,5,5,5,5,5,5,5,7),(0.E+000,
5.574788331007E-002,0.152970834029,0.256240544725,0.309412457503,
0.461253654601,0.605533613132,0.72822505534,0.857274016798,1.),
.UNSPECIFIED.);
#206 = CARTESIAN_POINT('',(9.779337070325,-1.107816533409,1.175811181425
));
#207 = CARTESIAN_POINT('',(9.763276644015,-1.116852969219,1.169304328733
));
#208 = CARTESIAN_POINT('',(9.747690666186,-1.126661461371,1.16325151602)
);
#209 = CARTESIAN_POINT('',(9.732623606335,-1.137209835248,1.157682369517
));
#210 = CARTESIAN_POINT('',(9.718117267186,-1.148462316472,1.15262478673)
);
#211 = CARTESIAN_POINT('',(9.704210784689,-1.160379530908,1.148104936436
));
#212 = CARTESIAN_POINT('',(9.667797797996,-1.194786169497,1.137245165074
));
#213 = CARTESIAN_POINT('',(9.646587683069,-1.218546934001,1.1320515483)
);
#214 = CARTESIAN_POINT('',(9.62750786531,-1.243968597214,1.128695160315)
);
#215 = CARTESIAN_POINT('',(9.610718749244,-1.270784847549,1.127274753774
));
#216 = CARTESIAN_POINT('',(9.596333940087,-1.298703599176,1.127844037187
));
#217 = CARTESIAN_POINT('',(9.571745735711,-1.35791277731,1.133107980895)
);
#218 = CARTESIAN_POINT('',(9.561855177065,-1.389312308101,1.138057590707
));
#219 = CARTESIAN_POINT('',(9.554809871424,-1.421241980164,1.145240528697
));
#220 = CARTESIAN_POINT('',(9.550594491963,-1.453348348651,1.154577733736
));
#221 = CARTESIAN_POINT('',(9.549133278188,-1.48531103897,1.165934962066)
);
#222 = CARTESIAN_POINT('',(9.55092474401,-1.533099994545,1.185941689926)
);
#223 = CARTESIAN_POINT('',(9.552234557986,-1.549233412146,1.193232506712
));
#224 = CARTESIAN_POINT('',(9.554230421741,-1.565221215277,1.200991562539
));
#225 = CARTESIAN_POINT('',(9.556895401166,-1.581030731726,1.209194309339
));
#226 = CARTESIAN_POINT('',(9.560211524287,-1.596632678921,1.217815023413
));
#227 = CARTESIAN_POINT('',(9.575438621307,-1.65588727149,1.252564330737)
);
#228 = CARTESIAN_POINT('',(9.591876421735,-1.697854402098,1.281488706203
));
#229 = CARTESIAN_POINT('',(9.613054912868,-1.737318955866,1.313002126482
));
#230 = CARTESIAN_POINT('',(9.638562369067,-1.773853848895,1.346465121226
));
#231 = CARTESIAN_POINT('',(9.668082527724,-1.807104936757,1.381257865145
));
#232 = CARTESIAN_POINT('',(9.733046288631,-1.864727052555,1.450418446254
));
#233 = CARTESIAN_POINT('',(9.768083385526,-1.889424078791,1.484680693862
));
#234 = CARTESIAN_POINT('',(9.80635105628,-1.910439235932,1.518991249853)
);
#235 = CARTESIAN_POINT('',(9.847693453052,-1.927288402084,1.552701138707
));
#236 = CARTESIAN_POINT('',(9.891829643356,-1.939304383587,1.584914641243
));
#237 = CARTESIAN_POINT('',(9.977584785752,-1.951199081774,1.639902290336
));
#238 = CARTESIAN_POINT('',(10.018754067961,-1.952647851987,
1.663472357863));
#239 = CARTESIAN_POINT('',(10.060559451839,-1.949443208511,
1.684191476983));
#240 = CARTESIAN_POINT('',(10.101862200452,-1.941489440988,1.70133059756
));
#241 = CARTESIAN_POINT('',(10.141764004844,-1.929079950667,
1.714754599174));
#242 = CARTESIAN_POINT('',(10.219480582954,-1.895242152721,1.73489142161
));
#243 = CARTESIAN_POINT('',(10.257068040172,-1.873385202218,
1.741218115569));
#244 = CARTESIAN_POINT('',(10.291639316417,-1.847474933036,
1.743668346485));
#245 = CARTESIAN_POINT('',(10.322654628302,-1.818154720886,
1.742679292157));
#246 = CARTESIAN_POINT('',(10.349805982923,-1.786080390222,
1.738731683387));
#247 = CARTESIAN_POINT('',(10.398491475056,-1.713989684209,1.72508409785
));
#248 = CARTESIAN_POINT('',(10.419122970927,-1.67349541967,1.71481942215)
);
#249 = CARTESIAN_POINT('',(10.434610516368,-1.631146894248,
1.702031426099));
#250 = CARTESIAN_POINT('',(10.44489422925,-1.587678506309,1.687203859049
));
#251 = CARTESIAN_POINT('',(10.45,-1.54375699875,1.670681299761));
#252 = CARTESIAN_POINT('',(10.45,-1.5,1.6527099067));
#253 = TOROIDAL_SURFACE('',#254,8.65243902439,2.09756097561);
#254 = AXIS2_PLACEMENT_3D('',#255,#256,#257);
#255 = CARTESIAN_POINT('',(5.,-0.80243902439,10.78));
#256 = DIRECTION('',(1.137711779659E-033,-1.,-3.413135338977E-033));
#257 = DIRECTION('',(1.,1.137711779659E-033,6.659776271174E-034));
#258 = ADVANCED_FACE('',(#259),#262,.F.);
#259 = FACE_BOUND('',#260,.F.);
#260 = EDGE_LOOP('',(#261));
#261 = ORIENTED_EDGE('',*,*,#64,.T.);
#262 = PLANE('',#263);
#263 = AXIS2_PLACEMENT_3D('',#264,#265,#266);
#264 = CARTESIAN_POINT('',(5.,1.4,10.78));
#265 = DIRECTION('',(1.137711779659E-033,-1.,-3.413135338977E-033));
#266 = DIRECTION('',(0.E+000,3.413135338977E-033,-1.));
#267 = ADVANCED_FACE('',(#268),#288,.T.);
#268 = FACE_BOUND('',#269,.T.);
#269 = EDGE_LOOP('',(#270,#271,#279,#286,#287));
#270 = ORIENTED_EDGE('',*,*,#111,.T.);
#271 = ORIENTED_EDGE('',*,*,#272,.T.);
#272 = EDGE_CURVE('',#75,#273,#275,.T.);
#273 = VERTEX_POINT('',#274);
#274 = CARTESIAN_POINT('',(0.45,0.E+000,-2.82));
#275 = LINE('',#276,#277);
#276 = CARTESIAN_POINT('',(0.45,0.E+000,10.78));
#277 = VECTOR('',#278,1.);
#278 = DIRECTION('',(-0.E+000,-0.E+000,-1.));
#279 = ORIENTED_EDGE('',*,*,#280,.T.);
#280 = EDGE_CURVE('',#273,#273,#281,.T.);
#281 = CIRCLE('',#282,0.45);
#282 = AXIS2_PLACEMENT_3D('',#283,#284,#285);
#283 = CARTESIAN_POINT('',(0.E+000,0.E+000,-2.82));
#284 = DIRECTION('',(0.E+000,0.E+000,1.));
#285 = DIRECTION('',(1.,0.E+000,0.E+000));
#286 = ORIENTED_EDGE('',*,*,#272,.F.);
#287 = ORIENTED_EDGE('',*,*,#74,.T.);
#288 = CYLINDRICAL_SURFACE('',#289,0.45);
#289 = AXIS2_PLACEMENT_3D('',#290,#291,#292);
#290 = CARTESIAN_POINT('',(0.E+000,0.E+000,10.78));
#291 = DIRECTION('',(0.E+000,0.E+000,1.));
#292 = DIRECTION('',(1.,0.E+000,0.E+000));
#293 = ADVANCED_FACE('',(#294),#297,.T.);
#294 = FACE_BOUND('',#295,.T.);
#295 = EDGE_LOOP('',(#296));
#296 = ORIENTED_EDGE('',*,*,#170,.T.);
#297 = PLANE('',#298);
#298 = AXIS2_PLACEMENT_3D('',#299,#300,#301);
#299 = CARTESIAN_POINT('',(5.,-2.9,10.78));
#300 = DIRECTION('',(1.137711779659E-033,-1.,-3.413135338977E-033));
#301 = DIRECTION('',(0.E+000,3.413135338977E-033,-1.));
#302 = ADVANCED_FACE('',(#303),#323,.T.);
#303 = FACE_BOUND('',#304,.T.);
#304 = EDGE_LOOP('',(#305,#306,#314,#321,#322));
#305 = ORIENTED_EDGE('',*,*,#180,.F.);
#306 = ORIENTED_EDGE('',*,*,#307,.T.);
#307 = EDGE_CURVE('',#181,#308,#310,.T.);
#308 = VERTEX_POINT('',#309);
#309 = CARTESIAN_POINT('',(10.45,-1.5,-2.82));
#310 = LINE('',#311,#312);
#311 = CARTESIAN_POINT('',(10.45,-1.5,10.78));
#312 = VECTOR('',#313,1.);
#313 = DIRECTION('',(-0.E+000,-0.E+000,-1.));
#314 = ORIENTED_EDGE('',*,*,#315,.T.);
#315 = EDGE_CURVE('',#308,#308,#316,.T.);
#316 = CIRCLE('',#317,0.45);
#317 = AXIS2_PLACEMENT_3D('',#318,#319,#320);
#318 = CARTESIAN_POINT('',(10.,-1.5,-2.82));
#319 = DIRECTION('',(-1.460853528187E-030,1.2985364695E-030,1.));
#320 = DIRECTION('',(1.,5.194145877998E-031,1.460853528187E-030));
#321 = ORIENTED_EDGE('',*,*,#307,.F.);
#322 = ORIENTED_EDGE('',*,*,#204,.F.);
#323 = CYLINDRICAL_SURFACE('',#324,0.45);
#324 = AXIS2_PLACEMENT_3D('',#325,#326,#327);
#325 = CARTESIAN_POINT('',(10.,-1.5,10.78));
#326 = DIRECTION('',(0.E+000,0.E+000,1.));
#327 = DIRECTION('',(1.,0.E+000,0.E+000));
#328 = ADVANCED_FACE('',(#329),#349,.T.);
#329 = FACE_BOUND('',#330,.F.);
#330 = EDGE_LOOP('',(#331,#340,#341,#342));
#331 = ORIENTED_EDGE('',*,*,#332,.F.);
#332 = EDGE_CURVE('',#273,#333,#335,.T.);
#333 = VERTEX_POINT('',#334);
#334 = CARTESIAN_POINT('',(0.27,0.E+000,-3.));
#335 = CIRCLE('',#336,0.18);
#336 = AXIS2_PLACEMENT_3D('',#337,#338,#339);
#337 = CARTESIAN_POINT('',(0.27,0.E+000,-2.82));
#338 = DIRECTION('',(-0.E+000,1.,0.E+000));
#339 = DIRECTION('',(1.,0.E+000,0.E+000));
#340 = ORIENTED_EDGE('',*,*,#280,.T.);
#341 = ORIENTED_EDGE('',*,*,#332,.T.);
#342 = ORIENTED_EDGE('',*,*,#343,.F.);
#343 = EDGE_CURVE('',#333,#333,#344,.T.);
#344 = CIRCLE('',#345,0.27);
#345 = AXIS2_PLACEMENT_3D('',#346,#347,#348);
#346 = CARTESIAN_POINT('',(0.E+000,0.E+000,-3.));
#347 = DIRECTION('',(0.E+000,0.E+000,1.));
#348 = DIRECTION('',(1.,0.E+000,0.E+000));
#349 = TOROIDAL_SURFACE('',#350,0.27,0.18);
#350 = AXIS2_PLACEMENT_3D('',#351,#352,#353);
#351 = CARTESIAN_POINT('',(0.E+000,0.E+000,-2.82));
#352 = DIRECTION('',(-0.E+000,-0.E+000,-1.));
#353 = DIRECTION('',(1.,0.E+000,0.E+000));
#354 = ADVANCED_FACE('',(#355),#375,.T.);
#355 = FACE_BOUND('',#356,.F.);
#356 = EDGE_LOOP('',(#357,#366,#367,#368));
#357 = ORIENTED_EDGE('',*,*,#358,.F.);
#358 = EDGE_CURVE('',#308,#359,#361,.T.);
#359 = VERTEX_POINT('',#360);
#360 = CARTESIAN_POINT('',(10.27,-1.5,-3.));
#361 = CIRCLE('',#362,0.18);
#362 = AXIS2_PLACEMENT_3D('',#363,#364,#365);
#363 = CARTESIAN_POINT('',(10.27,-1.5,-2.82));
#364 = DIRECTION('',(-5.194145877998E-031,1.,-1.2985364695E-030));
#365 = DIRECTION('',(1.,5.194145877998E-031,1.460853528187E-030));
#366 = ORIENTED_EDGE('',*,*,#315,.T.);
#367 = ORIENTED_EDGE('',*,*,#358,.T.);
#368 = ORIENTED_EDGE('',*,*,#369,.F.);
#369 = EDGE_CURVE('',#359,#359,#370,.T.);
#370 = CIRCLE('',#371,0.27);
#371 = AXIS2_PLACEMENT_3D('',#372,#373,#374);
#372 = CARTESIAN_POINT('',(10.,-1.5,-3.));
#373 = DIRECTION('',(-1.460853528187E-030,1.2985364695E-030,1.));
#374 = DIRECTION('',(1.,5.194145877998E-031,1.460853528187E-030));
#375 = TOROIDAL_SURFACE('',#376,0.27,0.18);
#376 = AXIS2_PLACEMENT_3D('',#377,#378,#379);
#377 = CARTESIAN_POINT('',(10.,-1.5,-2.82));
#378 = DIRECTION('',(1.460853528187E-030,-1.2985364695E-030,-1.));
#379 = DIRECTION('',(1.,5.194145877998E-031,1.460853528187E-030));
#380 = ADVANCED_FACE('',(#381),#384,.F.);
#381 = FACE_BOUND('',#382,.F.);
#382 = EDGE_LOOP('',(#383));
#383 = ORIENTED_EDGE('',*,*,#343,.T.);
#384 = PLANE('',#385);
#385 = AXIS2_PLACEMENT_3D('',#386,#387,#388);
#386 = CARTESIAN_POINT('',(-1.18701400394E-017,2.911085817041E-017,-3.)
);
#387 = DIRECTION('',(0.E+000,0.E+000,1.));
#388 = DIRECTION('',(1.,0.E+000,0.E+000));
#389 = ADVANCED_FACE('',(#390),#393,.F.);
#390 = FACE_BOUND('',#391,.F.);
#391 = EDGE_LOOP('',(#392));
#392 = ORIENTED_EDGE('',*,*,#369,.T.);
#393 = PLANE('',#394);
#394 = AXIS2_PLACEMENT_3D('',#395,#396,#397);
#395 = CARTESIAN_POINT('',(10.,-1.5,-3.));
#396 = DIRECTION('',(-1.460853528187E-030,1.2985364695E-030,1.));
#397 = DIRECTION('',(1.,0.E+000,1.460853528187E-030));
#398 = ( GEOMETRIC_REPRESENTATION_CONTEXT(3)
GLOBAL_UNCERTAINTY_ASSIGNED_CONTEXT((#402)) GLOBAL_UNIT_ASSIGNED_CONTEXT
((#399,#400,#401)) REPRESENTATION_CONTEXT('Context #1',
'3D Context with UNIT and UNCERTAINTY') );
#399 = ( LENGTH_UNIT() NAMED_UNIT(*) SI_UNIT(.MILLI.,.METRE.) );
#400 = ( NAMED_UNIT(*) PLANE_ANGLE_UNIT() SI_UNIT($,.RADIAN.) );
#401 = ( NAMED_UNIT(*) SI_UNIT($,.STERADIAN.) SOLID_ANGLE_UNIT() );
#402 = UNCERTAINTY_MEASURE_WITH_UNIT(LENGTH_MEASURE(1.E-007),#399,
'distance_accuracy_value','confusion accuracy');
#403 = PRODUCT_RELATED_PRODUCT_CATEGORY('part',$,(#7));
#404 = MECHANICAL_DESIGN_GEOMETRIC_PRESENTATION_REPRESENTATION('',(#405,
#413,#420,#427,#434,#442,#449,#456,#463,#470,#477),#398);
#405 = STYLED_ITEM('color',(#406),#17);
#406 = PRESENTATION_STYLE_ASSIGNMENT((#407));
#407 = SURFACE_STYLE_USAGE(.BOTH.,#408);
#408 = SURFACE_SIDE_STYLE('',(#409));
#409 = SURFACE_STYLE_FILL_AREA(#410);
#410 = FILL_AREA_STYLE('',(#411));
#411 = FILL_AREA_STYLE_COLOUR('',#412);
#412 = COLOUR_RGB('',0.136999994516,0.402000010014,0.726999998093);
#413 = STYLED_ITEM('color',(#414),#50);
#414 = PRESENTATION_STYLE_ASSIGNMENT((#415));
#415 = SURFACE_STYLE_USAGE(.BOTH.,#416);
#416 = SURFACE_SIDE_STYLE('',(#417));
#417 = SURFACE_STYLE_FILL_AREA(#418);
#418 = FILL_AREA_STYLE('',(#419));
#419 = FILL_AREA_STYLE_COLOUR('',#412);
#420 = STYLED_ITEM('color',(#421),#156);
#421 = PRESENTATION_STYLE_ASSIGNMENT((#422));
#422 = SURFACE_STYLE_USAGE(.BOTH.,#423);
#423 = SURFACE_SIDE_STYLE('',(#424));
#424 = SURFACE_STYLE_FILL_AREA(#425);
#425 = FILL_AREA_STYLE('',(#426));
#426 = FILL_AREA_STYLE_COLOUR('',#412);
#427 = STYLED_ITEM('color',(#428),#258);
#428 = PRESENTATION_STYLE_ASSIGNMENT((#429));
#429 = SURFACE_STYLE_USAGE(.BOTH.,#430);
#430 = SURFACE_SIDE_STYLE('',(#431));
#431 = SURFACE_STYLE_FILL_AREA(#432);
#432 = FILL_AREA_STYLE('',(#433));
#433 = FILL_AREA_STYLE_COLOUR('',#412);
#434 = STYLED_ITEM('color',(#435),#267);
#435 = PRESENTATION_STYLE_ASSIGNMENT((#436));
#436 = SURFACE_STYLE_USAGE(.BOTH.,#437);
#437 = SURFACE_SIDE_STYLE('',(#438));
#438 = SURFACE_STYLE_FILL_AREA(#439);
#439 = FILL_AREA_STYLE('',(#440));
#440 = FILL_AREA_STYLE_COLOUR('',#441);
#441 = COLOUR_RGB('',0.824000000954,0.819999992847,0.78100001812);
#442 = STYLED_ITEM('color',(#443),#293);
#443 = PRESENTATION_STYLE_ASSIGNMENT((#444));
#444 = SURFACE_STYLE_USAGE(.BOTH.,#445);
#445 = SURFACE_SIDE_STYLE('',(#446));
#446 = SURFACE_STYLE_FILL_AREA(#447);
#447 = FILL_AREA_STYLE('',(#448));
#448 = FILL_AREA_STYLE_COLOUR('',#412);
#449 = STYLED_ITEM('color',(#450),#302);
#450 = PRESENTATION_STYLE_ASSIGNMENT((#451));
#451 = SURFACE_STYLE_USAGE(.BOTH.,#452);
#452 = SURFACE_SIDE_STYLE('',(#453));
#453 = SURFACE_STYLE_FILL_AREA(#454);
#454 = FILL_AREA_STYLE('',(#455));
#455 = FILL_AREA_STYLE_COLOUR('',#441);
#456 = STYLED_ITEM('color',(#457),#328);
#457 = PRESENTATION_STYLE_ASSIGNMENT((#458));
#458 = SURFACE_STYLE_USAGE(.BOTH.,#459);
#459 = SURFACE_SIDE_STYLE('',(#460));
#460 = SURFACE_STYLE_FILL_AREA(#461);
#461 = FILL_AREA_STYLE('',(#462));
#462 = FILL_AREA_STYLE_COLOUR('',#441);
#463 = STYLED_ITEM('color',(#464),#354);
#464 = PRESENTATION_STYLE_ASSIGNMENT((#465));
#465 = SURFACE_STYLE_USAGE(.BOTH.,#466);
#466 = SURFACE_SIDE_STYLE('',(#467));
#467 = SURFACE_STYLE_FILL_AREA(#468);
#468 = FILL_AREA_STYLE('',(#469));
#469 = FILL_AREA_STYLE_COLOUR('',#441);
#470 = STYLED_ITEM('color',(#471),#380);
#471 = PRESENTATION_STYLE_ASSIGNMENT((#472));
#472 = SURFACE_STYLE_USAGE(.BOTH.,#473);
#473 = SURFACE_SIDE_STYLE('',(#474));
#474 = SURFACE_STYLE_FILL_AREA(#475);
#475 = FILL_AREA_STYLE('',(#476));
#476 = FILL_AREA_STYLE_COLOUR('',#441);
#477 = STYLED_ITEM('color',(#478),#389);
#478 = PRESENTATION_STYLE_ASSIGNMENT((#479));
#479 = SURFACE_STYLE_USAGE(.BOTH.,#480);
#480 = SURFACE_SIDE_STYLE('',(#481));
#481 = SURFACE_STYLE_FILL_AREA(#482);
#482 = FILL_AREA_STYLE('',(#483));
#483 = FILL_AREA_STYLE_COLOUR('',#441);
ENDSEC;
END-ISO-10303-21;
