ISO-10303-21;
HEADER;
/* RV_Disc_D12mm_W4.6mm_P7.5mm.step 3D STEP model for use in ECAD systems
 * Copyright (C) 2018, kicad StepUp
 * 
 * This work is licensed under the [Creative Commons CC-BY-SA 4.0 License](https://creativecommons.org/licenses/by-sa/4.0/legalcode), 
 * with the following exception:
 * To the extent that the creation of electronic designs that use 'Licensed Material' can be considered to be 'Adapted Material', 
 * then the copyright holder waives article 3 of the license with respect to these designs and any generated files which use data provided 
 * as part of the 'Licensed Material'.
 * You are free to use the library data in your own projects without the obligation to share your project files under this or any other license agreement.
 * However, if you wish to redistribute these libraries, or parts thereof (including in modified form) as a collection then the exception above does not apply. 
 * Please refer to https://github.com/KiCad/kicad-packages3D/blob/master/LICENSE.md for further clarification of the exception.
 * Disclaimer of Warranties and Limitation of Liability.
 * These libraries are provided in the hope that they will be useful, but are provided without warranty of any kind, express or implied.
 * *USE 3D CAD DATA AT YOUR OWN RISK*
 * *DO NOT RELY UPON ANY INFORMATION FOUND HERE WITHOUT INDEPENDENT VERIFICATION.*
 * 
 */

FILE_DESCRIPTION(
/* description */ ('model of RV_Disc_D12mm_W4.6mm_P7.5mm'),
/* implementation_level */ '2;1');

FILE_NAME(
/* name */ 'RV_Disc_D12mm_W4.6mm_P7.5mm.step',
/* time_stamp */ '2018-11-11T20:34:17',
/* author */ ('kicad StepUp','ksu'),
/* organization */ ('FreeCAD'),
/* preprocessor_version */ 'OCC',
/* originating_system */ 'kicad StepUp',
/* authorisation */ '');

FILE_SCHEMA(('AUTOMOTIVE_DESIGN { 1 0 10303 214 1 1 1 1 }'));
ENDSEC;

DATA;
#1 = APPLICATION_PROTOCOL_DEFINITION('international standard',
'automotive_design',2000,#2);
#2 = APPLICATION_CONTEXT(
'core data for automotive mechanical design processes');
#3 = SHAPE_DEFINITION_REPRESENTATION(#4,#10);
#4 = PRODUCT_DEFINITION_SHAPE('','',#5);
#5 = PRODUCT_DEFINITION('design','',#6,#9);
#6 = PRODUCT_DEFINITION_FORMATION('','',#7);
#7 = PRODUCT('RV_Disc_D12mm_W46mm_P75mm','RV_Disc_D12mm_W46mm_P75mm','',
(#8));
#8 = PRODUCT_CONTEXT('',#2,'mechanical');
#9 = PRODUCT_DEFINITION_CONTEXT('part definition',#2,'design');
#10 = ADVANCED_BREP_SHAPE_REPRESENTATION('',(#11,#15),#394);
#11 = AXIS2_PLACEMENT_3D('',#12,#13,#14);
#12 = CARTESIAN_POINT('',(0.E+000,0.E+000,0.E+000));
#13 = DIRECTION('',(0.E+000,0.E+000,1.));
#14 = DIRECTION('',(1.,0.E+000,-0.E+000));
#15 = MANIFOLD_SOLID_BREP('',#16);
#16 = CLOSED_SHELL('',(#17,#50,#149,#254,#263,#289,#298,#324,#350,#376,
#385));
#17 = ADVANCED_FACE('',(#18),#45,.T.);
#18 = FACE_BOUND('',#19,.F.);
#19 = EDGE_LOOP('',(#20,#30,#37,#38));
#20 = ORIENTED_EDGE('',*,*,#21,.T.);
#21 = EDGE_CURVE('',#22,#24,#26,.T.);
#22 = VERTEX_POINT('',#23);
#23 = CARTESIAN_POINT('',(9.75,-1.043902439024,6.03));
#24 = VERTEX_POINT('',#25);
#25 = CARTESIAN_POINT('',(9.75,-1.156097560976,6.03));
#26 = LINE('',#27,#28);
#27 = CARTESIAN_POINT('',(9.75,1.2,6.03));
#28 = VECTOR('',#29,1.);
#29 = DIRECTION('',(0.E+000,-1.,0.E+000));
#30 = ORIENTED_EDGE('',*,*,#31,.T.);
#31 = EDGE_CURVE('',#24,#24,#32,.T.);
#32 = CIRCLE('',#33,6.);
#33 = AXIS2_PLACEMENT_3D('',#34,#35,#36);
#34 = CARTESIAN_POINT('',(3.75,-1.156097560976,6.03));
#35 = DIRECTION('',(0.E+000,-1.,0.E+000));
#36 = DIRECTION('',(1.,0.E+000,0.E+000));
#37 = ORIENTED_EDGE('',*,*,#21,.F.);
#38 = ORIENTED_EDGE('',*,*,#39,.F.);
#39 = EDGE_CURVE('',#22,#22,#40,.T.);
#40 = CIRCLE('',#41,6.);
#41 = AXIS2_PLACEMENT_3D('',#42,#43,#44);
#42 = CARTESIAN_POINT('',(3.75,-1.043902439024,6.03));
#43 = DIRECTION('',(0.E+000,-1.,0.E+000));
#44 = DIRECTION('',(1.,0.E+000,0.E+000));
#45 = CYLINDRICAL_SURFACE('',#46,6.);
#46 = AXIS2_PLACEMENT_3D('',#47,#48,#49);
#47 = CARTESIAN_POINT('',(3.75,1.2,6.03));
#48 = DIRECTION('',(0.E+000,1.,0.E+000));
#49 = DIRECTION('',(1.,0.E+000,0.E+000));
#50 = ADVANCED_FACE('',(#51,#71),#144,.T.);
#51 = FACE_BOUND('',#52,.F.);
#52 = EDGE_LOOP('',(#53,#54,#63,#70));
#53 = ORIENTED_EDGE('',*,*,#39,.T.);
#54 = ORIENTED_EDGE('',*,*,#55,.T.);
#55 = EDGE_CURVE('',#22,#56,#58,.T.);
#56 = VERTEX_POINT('',#57);
#57 = CARTESIAN_POINT('',(7.506097560976,1.2,6.03));
#58 = CIRCLE('',#59,2.243902439024);
#59 = AXIS2_PLACEMENT_3D('',#60,#61,#62);
#60 = CARTESIAN_POINT('',(7.506097560976,-1.043902439024,6.03));
#61 = DIRECTION('',(0.E+000,0.E+000,1.));
#62 = DIRECTION('',(1.,0.E+000,0.E+000));
#63 = ORIENTED_EDGE('',*,*,#64,.F.);
#64 = EDGE_CURVE('',#56,#56,#65,.T.);
#65 = CIRCLE('',#66,3.756097560976);
#66 = AXIS2_PLACEMENT_3D('',#67,#68,#69);
#67 = CARTESIAN_POINT('',(3.75,1.2,6.03));
#68 = DIRECTION('',(0.E+000,-1.,0.E+000));
#69 = DIRECTION('',(1.,0.E+000,0.E+000));
#70 = ORIENTED_EDGE('',*,*,#55,.F.);
#71 = FACE_BOUND('',#72,.F.);
#72 = EDGE_LOOP('',(#73,#103));
#73 = ORIENTED_EDGE('',*,*,#74,.T.);
#74 = EDGE_CURVE('',#75,#77,#79,.T.);
#75 = VERTEX_POINT('',#76);
#76 = CARTESIAN_POINT('',(0.36,0.E+000,1.395027872864));
#77 = VERTEX_POINT('',#78);
#78 = CARTESIAN_POINT('',(-0.293713056902,-0.208164935101,1.818451254967
));
#79 = B_SPLINE_CURVE_WITH_KNOTS('',8,(#80,#81,#82,#83,#84,#85,#86,#87,
#88,#89,#90,#91,#92,#93,#94,#95,#96,#97,#98,#99,#100,#101,#102),
.UNSPECIFIED.,.F.,.F.,(9,7,7,9),(0.E+000,0.203039529205,0.390369540274
,1.),.UNSPECIFIED.);
#80 = CARTESIAN_POINT('',(0.36,-5.551115123126E-017,1.395027872864));
#81 = CARTESIAN_POINT('',(0.36,-2.241107413249E-002,1.380435542353));
#82 = CARTESIAN_POINT('',(0.358405475625,-4.513389396064E-002,
1.367281698502));
#83 = CARTESIAN_POINT('',(0.355139076873,-6.803908470814E-002,
1.355702413061));
#84 = CARTESIAN_POINT('',(0.350133174161,-9.097216547729E-002,
1.345832649162));
#85 = CARTESIAN_POINT('',(0.343340575355,-0.11375225373,1.337796398089)
);
#86 = CARTESIAN_POINT('',(0.334745152334,-0.136175601341,1.331695859505)
);
#87 = CARTESIAN_POINT('',(0.324372377062,-0.158023962223,1.32759966513)
);
#88 = CARTESIAN_POINT('',(0.30116123593,-0.19850264978,1.323620748875));
#89 = CARTESIAN_POINT('',(0.288571913625,-0.217257791031,1.32343590967)
);
#90 = CARTESIAN_POINT('',(0.274592402183,-0.235166989499,1.324995816524)
);
#91 = CARTESIAN_POINT('',(0.259312606431,-0.252070011323,1.328284067459)
);
#92 = CARTESIAN_POINT('',(0.242846341542,-0.267827185458,1.333253321638)
);
#93 = CARTESIAN_POINT('',(0.225325842758,-0.28232246465,1.339830932317)
);
#94 = CARTESIAN_POINT('',(0.206896177405,-0.295464976493,1.347924561347)
);
#95 = CARTESIAN_POINT('',(0.125270301299,-0.345342914843,1.388354206196)
);
#96 = CARTESIAN_POINT('',(5.490781201891E-002,-0.368418030856,
1.434162857461));
#97 = CARTESIAN_POINT('',(-1.819299149877E-002,-0.374296126477,
1.491152800108));
#98 = CARTESIAN_POINT('',(-8.87800267625E-002,-0.363949035717,
1.554522448248));
#99 = CARTESIAN_POINT('',(-0.153361811002,-0.339755556902,1.620993758109
));
#100 = CARTESIAN_POINT('',(-0.209769435898,-0.304398851464,
1.688057307162));
#101 = CARTESIAN_POINT('',(-0.256937924138,-0.260053293035,
1.754272984608));
#102 = CARTESIAN_POINT('',(-0.293713056902,-0.208164935101,
1.818451254967));
#103 = ORIENTED_EDGE('',*,*,#104,.T.);
#104 = EDGE_CURVE('',#77,#75,#105,.T.);
#105 = B_SPLINE_CURVE_WITH_KNOTS('',7,(#106,#107,#108,#109,#110,#111,
#112,#113,#114,#115,#116,#117,#118,#119,#120,#121,#122,#123,#124,
#125,#126,#127,#128,#129,#130,#131,#132,#133,#134,#135,#136,#137,
#138,#139,#140,#141,#142,#143),.UNSPECIFIED.,.F.,.F.,(8,6,6,6,6,6,8)
,(0.E+000,0.239069480251,0.301279442063,0.403401425389,0.552657433438,
0.739709046917,1.),.UNSPECIFIED.);
#106 = CARTESIAN_POINT('',(-0.293713056902,-0.208164935101,
1.818451254967));
#107 = CARTESIAN_POINT('',(-0.319404833863,-0.171914784012,1.86328736252
));
#108 = CARTESIAN_POINT('',(-0.339819533322,-0.13204672419,1.90693589981)
);
#109 = CARTESIAN_POINT('',(-0.354538762257,-8.923766879711E-002,
1.948855964807));
#110 = CARTESIAN_POINT('',(-0.363097953332,-4.418816304573E-002,
1.988395870621));
#111 = CARTESIAN_POINT('',(-0.365010521351,2.292538324233E-003,
2.024705965679));
#112 = CARTESIAN_POINT('',(-0.35981483717,4.921430737584E-002,
2.056644522379));
#113 = CARTESIAN_POINT('',(-0.343846855791,0.10735137982,2.089450709932)
);
#114 = CARTESIAN_POINT('',(-0.340044766385,0.119297878893,2.095822233908
));
#115 = CARTESIAN_POINT('',(-0.335732525038,0.131162826511,2.101763771963
));
#116 = CARTESIAN_POINT('',(-0.330906224149,0.142920145266,2.107245557841
));
#117 = CARTESIAN_POINT('',(-0.32556398977,0.154541521893,2.112236366049)
);
#118 = CARTESIAN_POINT('',(-0.31970669705,0.165996684997,2.116704324692)
);
#119 = CARTESIAN_POINT('',(-0.302885151658,0.195732828365,2.127041852781
));
#120 = CARTESIAN_POINT('',(-0.291053179396,0.213681819667,2.131972940464
));
#121 = CARTESIAN_POINT('',(-0.2778651693,0.230952031736,2.135267841141)
);
#122 = CARTESIAN_POINT('',(-0.263371763212,0.247384199206,2.136788668367
));
#123 = CARTESIAN_POINT('',(-0.247660973854,0.262817479847,2.136421016587
));
#124 = CARTESIAN_POINT('',(-0.230862488023,0.277102406359,2.134095630659
));
#125 = CARTESIAN_POINT('',(-0.187255347193,0.309140219494,2.123555036136
));
#126 = CARTESIAN_POINT('',(-0.15938526471,0.325465192255,2.113111855156)
);
#127 = CARTESIAN_POINT('',(-0.130079757929,0.338694705155,2.098478246936
));
#128 = CARTESIAN_POINT('',(-9.995161849569E-002,0.34866043239,
2.079947217787));
#129 = CARTESIAN_POINT('',(-6.956893974743E-002,0.355395847896,
2.058052495399));
#130 = CARTESIAN_POINT('',(-3.941201282619E-002,0.359054520373,
2.033424728506));
#131 = CARTESIAN_POINT('',(2.715544881266E-002,0.360880050181,
1.973219378062));
#132 = CARTESIAN_POINT('',(6.321429797144E-002,0.357420987376,
1.936448890247));
#133 = CARTESIAN_POINT('',(9.779848751589E-002,0.349946647965,
1.897430130866));
#134 = CARTESIAN_POINT('',(0.130595347193,0.338902590859,1.857070240808)
);
#135 = CARTESIAN_POINT('',(0.161415726791,0.324661253587,1.816079077136)
);
#136 = CARTESIAN_POINT('',(0.190129141067,0.307489559763,1.77497404901)
);
#137 = CARTESIAN_POINT('',(0.253452371986,0.25978807498,1.677359945822)
);
#138 = CARTESIAN_POINT('',(0.285860074022,0.226741564491,1.62128752037)
);
#139 = CARTESIAN_POINT('',(0.313473059586,0.188915406732,1.567095383936)
);
#140 = CARTESIAN_POINT('',(0.335661535987,0.146653763515,1.51592508151)
);
#141 = CARTESIAN_POINT('',(0.351542663403,0.100437798011,1.46913128969)
);
#142 = CARTESIAN_POINT('',(0.36,5.108450725324E-002,1.42829008999));
#143 = CARTESIAN_POINT('',(0.36,-5.551115123126E-017,1.395027872864));
#144 = TOROIDAL_SURFACE('',#145,3.756097560976,2.243902439024);
#145 = AXIS2_PLACEMENT_3D('',#146,#147,#148);
#146 = CARTESIAN_POINT('',(3.75,-1.043902439024,6.03));
#147 = DIRECTION('',(0.E+000,1.,0.E+000));
#148 = DIRECTION('',(1.,0.E+000,0.E+000));
#149 = ADVANCED_FACE('',(#150,#170),#249,.T.);
#150 = FACE_BOUND('',#151,.T.);
#151 = EDGE_LOOP('',(#152,#153,#162,#169));
#152 = ORIENTED_EDGE('',*,*,#31,.T.);
#153 = ORIENTED_EDGE('',*,*,#154,.T.);
#154 = EDGE_CURVE('',#24,#155,#157,.T.);
#155 = VERTEX_POINT('',#156);
#156 = CARTESIAN_POINT('',(7.506097560976,-3.4,6.03));
#157 = CIRCLE('',#158,2.243902439024);
#158 = AXIS2_PLACEMENT_3D('',#159,#160,#161);
#159 = CARTESIAN_POINT('',(7.506097560976,-1.156097560976,6.03));
#160 = DIRECTION('',(0.E+000,0.E+000,-1.));
#161 = DIRECTION('',(1.,0.E+000,0.E+000));
#162 = ORIENTED_EDGE('',*,*,#163,.F.);
#163 = EDGE_CURVE('',#155,#155,#164,.T.);
#164 = CIRCLE('',#165,3.756097560976);
#165 = AXIS2_PLACEMENT_3D('',#166,#167,#168);
#166 = CARTESIAN_POINT('',(3.75,-3.4,6.03));
#167 = DIRECTION('',(0.E+000,-1.,0.E+000));
#168 = DIRECTION('',(1.,0.E+000,0.E+000));
#169 = ORIENTED_EDGE('',*,*,#154,.F.);
#170 = FACE_BOUND('',#171,.T.);
#171 = EDGE_LOOP('',(#172,#202));
#172 = ORIENTED_EDGE('',*,*,#173,.T.);
#173 = EDGE_CURVE('',#174,#176,#178,.T.);
#174 = VERTEX_POINT('',#175);
#175 = CARTESIAN_POINT('',(7.86,-2.2,2.019642582097));
#176 = VERTEX_POINT('',#177);
#177 = CARTESIAN_POINT('',(7.201926972844,-1.998127588606,1.324328197564
));
#178 = B_SPLINE_CURVE_WITH_KNOTS('',8,(#179,#180,#181,#182,#183,#184,
#185,#186,#187,#188,#189,#190,#191,#192,#193,#194,#195,#196,#197,
#198,#199,#200,#201),.UNSPECIFIED.,.F.,.F.,(9,7,7,9),(0.E+000,
0.316207405812,0.740451992605,1.),.UNSPECIFIED.);
#179 = CARTESIAN_POINT('',(7.86,-2.2,2.019642582097));
#180 = CARTESIAN_POINT('',(7.86,-2.164717941984,1.993091639619));
#181 = CARTESIAN_POINT('',(7.856048255214,-2.129929130896,1.96427370714)
);
#182 = CARTESIAN_POINT('',(7.848337720024,-2.096022009308,1.933647676475
));
#183 = CARTESIAN_POINT('',(7.83705967706,-2.063345205269,1.901584529387)
);
#184 = CARTESIAN_POINT('',(7.822405351382,-2.032218873646,1.868393433035
));
#185 = CARTESIAN_POINT('',(7.804567611236,-2.002945501252,1.834343750984
));
#186 = CARTESIAN_POINT('',(7.783742755415,-1.975820175758,1.799682969771
));
#187 = CARTESIAN_POINT('',(7.728455169248,-1.918028203678,1.717648737846
));
#188 = CARTESIAN_POINT('',(7.691834038841,-1.889391590002,1.670082238452
));
#189 = CARTESIAN_POINT('',(7.650725656238,-1.865842916542,1.622432867977
));
#190 = CARTESIAN_POINT('',(7.605651462834,-1.848170442214,1.575316663557
));
#191 = CARTESIAN_POINT('',(7.55738909595,-1.837272872266,1.529599943158)
);
#192 = CARTESIAN_POINT('',(7.507062743979,-1.83401048029,1.486409136145)
);
#193 = CARTESIAN_POINT('',(7.456207463545,-1.839003375866,1.447187207587
));
#194 = CARTESIAN_POINT('',(7.376282141336,-1.860469974671,1.392818717782
));
#195 = CARTESIAN_POINT('',(7.346447810585,-1.871726745441,1.374256430518
));
#196 = CARTESIAN_POINT('',(7.317542435267,-1.886092670249,1.358120953797
));
#197 = CARTESIAN_POINT('',(7.290013340659,-1.903486832197,1.344759583716
));
#198 = CARTESIAN_POINT('',(7.264307305219,-1.923728265343,1.334492358916
));
#199 = CARTESIAN_POINT('',(7.240841498298,-1.946527785954,1.327580843382
));
#200 = CARTESIAN_POINT('',(7.219967295664,-1.971490300247,1.32418786324)
);
#201 = CARTESIAN_POINT('',(7.201926972844,-1.998127588606,1.324328197564
));
#202 = ORIENTED_EDGE('',*,*,#203,.T.);
#203 = EDGE_CURVE('',#176,#174,#204,.T.);
#204 = B_SPLINE_CURVE_WITH_KNOTS('',7,(#205,#206,#207,#208,#209,#210,
#211,#212,#213,#214,#215,#216,#217,#218,#219,#220,#221,#222,#223,
#224,#225,#226,#227,#228,#229,#230,#231,#232,#233,#234,#235,#236,
#237,#238,#239,#240,#241,#242,#243,#244,#245,#246,#247,#248),
.UNSPECIFIED.,.F.,.F.,(8,6,6,6,6,6,6,8),(0.E+000,0.209297526456,
0.417290445368,0.613522892366,0.760491824366,0.848034230611,
0.894935889463,1.),.UNSPECIFIED.);
#205 = CARTESIAN_POINT('',(7.201926972844,-1.998127588606,1.324328197564
));
#206 = CARTESIAN_POINT('',(7.177347144394,-2.034420729518,1.324519402215
));
#207 = CARTESIAN_POINT('',(7.158132964684,-2.073894836823,1.331406624561
));
#208 = CARTESIAN_POINT('',(7.144957920006,-2.115216492286,1.345037231894
));
#209 = CARTESIAN_POINT('',(7.137836241846,-2.156973583175,1.364850045785
));
#210 = CARTESIAN_POINT('',(7.13633660912,-2.198077147281,1.389964040177)
);
#211 = CARTESIAN_POINT('',(7.139907305261,-2.237770729467,1.419475957117
));
#212 = CARTESIAN_POINT('',(7.156077518733,-2.313102362823,1.485486217125
));
#213 = CARTESIAN_POINT('',(7.168624530405,-2.348780586494,1.521954450711
));
#214 = CARTESIAN_POINT('',(7.185158309603,-2.382154545021,1.561260256719
));
#215 = CARTESIAN_POINT('',(7.205230535059,-2.412933158492,1.602733018133
));
#216 = CARTESIAN_POINT('',(7.22847478451,-2.440905849262,1.64576879998)
);
#217 = CARTESIAN_POINT('',(7.254615993374,-2.465876452004,1.689804914897
));
#218 = CARTESIAN_POINT('',(7.310672247083,-2.508083349562,1.77620239552)
);
#219 = CARTESIAN_POINT('',(7.340244882565,-2.525642560547,1.818447318352
));
#220 = CARTESIAN_POINT('',(7.37203714223,-2.540105026348,1.860561677002)
);
#221 = CARTESIAN_POINT('',(7.405910941316,-2.551170968134,1.901973968509
));
#222 = CARTESIAN_POINT('',(7.441651960871,-2.558439034897,1.941910801507
));
#223 = CARTESIAN_POINT('',(7.478913391155,-2.561411121861,1.979361643601
));
#224 = CARTESIAN_POINT('',(7.545725656591,-2.558231219641,2.038525953142
));
#225 = CARTESIAN_POINT('',(7.574849363276,-2.554182906802,2.061816415312
));
#226 = CARTESIAN_POINT('',(7.604121973673,-2.547252984171,2.082486271535
));
#227 = CARTESIAN_POINT('',(7.633103778158,-2.537310851375,2.09997004114)
);
#228 = CARTESIAN_POINT('',(7.66127933123,-2.524344956201,2.113812001656)
);
#229 = CARTESIAN_POINT('',(7.688102080434,-2.508509681128,2.12375216043)
);
#230 = CARTESIAN_POINT('',(7.727963704006,-2.479237135783,2.13339942407)
);
#231 = CARTESIAN_POINT('',(7.742197267612,-2.467414321536,2.135620447822
));
#232 = CARTESIAN_POINT('',(7.755683263875,-2.454767699777,2.136461120792
));
#233 = CARTESIAN_POINT('',(7.768341569304,-2.441382376925,2.135955141865
));
#234 = CARTESIAN_POINT('',(7.780111693014,-2.427351352865,2.13416106439)
);
#235 = CARTESIAN_POINT('',(7.790951631001,-2.412769957979,2.131153372923
));
#236 = CARTESIAN_POINT('',(7.806132749061,-2.389672648176,2.124795616652
));
#237 = CARTESIAN_POINT('',(7.811155052564,-2.381482891324,2.122252560165
));
#238 = CARTESIAN_POINT('',(7.81590002885,-2.373174692282,2.119396755966)
);
#239 = CARTESIAN_POINT('',(7.820365393779,-2.364761321955,2.116241003452
));
#240 = CARTESIAN_POINT('',(7.824549994228,-2.356255528702,2.112798252681
));
#241 = CARTESIAN_POINT('',(7.828453621168,-2.347669417556,2.109081321095
));
#242 = CARTESIAN_POINT('',(7.840193133804,-2.319626121067,2.09618992513)
);
#243 = CARTESIAN_POINT('',(7.846901046583,-2.299894443608,2.085964695323
));
#244 = CARTESIAN_POINT('',(7.852209230581,-2.279943845323,2.074566424335
));
#245 = CARTESIAN_POINT('',(7.856140109676,-2.259886120948,2.062124854167
));
#246 = CARTESIAN_POINT('',(7.858725125367,-2.239820462375,2.048757643218
));
#247 = CARTESIAN_POINT('',(7.86,-2.21983360932,2.03456804421));
#248 = CARTESIAN_POINT('',(7.86,-2.2,2.019642582097));
#249 = TOROIDAL_SURFACE('',#250,3.756097560976,2.243902439024);
#250 = AXIS2_PLACEMENT_3D('',#251,#252,#253);
#251 = CARTESIAN_POINT('',(3.75,-1.156097560976,6.03));
#252 = DIRECTION('',(0.E+000,-1.,0.E+000));
#253 = DIRECTION('',(1.,0.E+000,0.E+000));
#254 = ADVANCED_FACE('',(#255),#258,.F.);
#255 = FACE_BOUND('',#256,.F.);
#256 = EDGE_LOOP('',(#257));
#257 = ORIENTED_EDGE('',*,*,#64,.T.);
#258 = PLANE('',#259);
#259 = AXIS2_PLACEMENT_3D('',#260,#261,#262);
#260 = CARTESIAN_POINT('',(3.75,1.2,6.03));
#261 = DIRECTION('',(-0.E+000,-1.,-0.E+000));
#262 = DIRECTION('',(0.E+000,0.E+000,-1.));
#263 = ADVANCED_FACE('',(#264),#284,.T.);
#264 = FACE_BOUND('',#265,.T.);
#265 = EDGE_LOOP('',(#266,#267,#275,#282,#283));
#266 = ORIENTED_EDGE('',*,*,#104,.T.);
#267 = ORIENTED_EDGE('',*,*,#268,.T.);
#268 = EDGE_CURVE('',#75,#269,#271,.T.);
#269 = VERTEX_POINT('',#270);
#270 = CARTESIAN_POINT('',(0.36,0.E+000,-2.856));
#271 = LINE('',#272,#273);
#272 = CARTESIAN_POINT('',(0.36,0.E+000,6.03));
#273 = VECTOR('',#274,1.);
#274 = DIRECTION('',(-0.E+000,-0.E+000,-1.));
#275 = ORIENTED_EDGE('',*,*,#276,.T.);
#276 = EDGE_CURVE('',#269,#269,#277,.T.);
#277 = CIRCLE('',#278,0.36);
#278 = AXIS2_PLACEMENT_3D('',#279,#280,#281);
#279 = CARTESIAN_POINT('',(0.E+000,0.E+000,-2.856));
#280 = DIRECTION('',(0.E+000,0.E+000,1.));
#281 = DIRECTION('',(1.,0.E+000,0.E+000));
#282 = ORIENTED_EDGE('',*,*,#268,.F.);
#283 = ORIENTED_EDGE('',*,*,#74,.T.);
#284 = CYLINDRICAL_SURFACE('',#285,0.36);
#285 = AXIS2_PLACEMENT_3D('',#286,#287,#288);
#286 = CARTESIAN_POINT('',(0.E+000,0.E+000,6.03));
#287 = DIRECTION('',(0.E+000,0.E+000,1.));
#288 = DIRECTION('',(1.,0.E+000,0.E+000));
#289 = ADVANCED_FACE('',(#290),#293,.T.);
#290 = FACE_BOUND('',#291,.T.);
#291 = EDGE_LOOP('',(#292));
#292 = ORIENTED_EDGE('',*,*,#163,.T.);
#293 = PLANE('',#294);
#294 = AXIS2_PLACEMENT_3D('',#295,#296,#297);
#295 = CARTESIAN_POINT('',(3.75,-3.4,6.03));
#296 = DIRECTION('',(-0.E+000,-1.,-0.E+000));
#297 = DIRECTION('',(0.E+000,0.E+000,-1.));
#298 = ADVANCED_FACE('',(#299),#319,.T.);
#299 = FACE_BOUND('',#300,.T.);
#300 = EDGE_LOOP('',(#301,#302,#310,#317,#318));
#301 = ORIENTED_EDGE('',*,*,#173,.F.);
#302 = ORIENTED_EDGE('',*,*,#303,.T.);
#303 = EDGE_CURVE('',#174,#304,#306,.T.);
#304 = VERTEX_POINT('',#305);
#305 = CARTESIAN_POINT('',(7.86,-2.2,-2.856));
#306 = LINE('',#307,#308);
#307 = CARTESIAN_POINT('',(7.86,-2.2,6.03));
#308 = VECTOR('',#309,1.);
#309 = DIRECTION('',(-0.E+000,-0.E+000,-1.));
#310 = ORIENTED_EDGE('',*,*,#311,.T.);
#311 = EDGE_CURVE('',#304,#304,#312,.T.);
#312 = CIRCLE('',#313,0.36);
#313 = AXIS2_PLACEMENT_3D('',#314,#315,#316);
#314 = CARTESIAN_POINT('',(7.5,-2.2,-2.856));
#315 = DIRECTION('',(0.E+000,0.E+000,1.));
#316 = DIRECTION('',(1.,0.E+000,0.E+000));
#317 = ORIENTED_EDGE('',*,*,#303,.F.);
#318 = ORIENTED_EDGE('',*,*,#203,.F.);
#319 = CYLINDRICAL_SURFACE('',#320,0.36);
#320 = AXIS2_PLACEMENT_3D('',#321,#322,#323);
#321 = CARTESIAN_POINT('',(7.5,-2.2,6.03));
#322 = DIRECTION('',(0.E+000,0.E+000,1.));
#323 = DIRECTION('',(1.,0.E+000,0.E+000));
#324 = ADVANCED_FACE('',(#325),#345,.T.);
#325 = FACE_BOUND('',#326,.F.);
#326 = EDGE_LOOP('',(#327,#336,#337,#338));
#327 = ORIENTED_EDGE('',*,*,#328,.F.);
#328 = EDGE_CURVE('',#269,#329,#331,.T.);
#329 = VERTEX_POINT('',#330);
#330 = CARTESIAN_POINT('',(0.216,0.E+000,-3.));
#331 = CIRCLE('',#332,0.144);
#332 = AXIS2_PLACEMENT_3D('',#333,#334,#335);
#333 = CARTESIAN_POINT('',(0.216,0.E+000,-2.856));
#334 = DIRECTION('',(-0.E+000,1.,0.E+000));
#335 = DIRECTION('',(1.,0.E+000,0.E+000));
#336 = ORIENTED_EDGE('',*,*,#276,.T.);
#337 = ORIENTED_EDGE('',*,*,#328,.T.);
#338 = ORIENTED_EDGE('',*,*,#339,.F.);
#339 = EDGE_CURVE('',#329,#329,#340,.T.);
#340 = CIRCLE('',#341,0.216);
#341 = AXIS2_PLACEMENT_3D('',#342,#343,#344);
#342 = CARTESIAN_POINT('',(0.E+000,0.E+000,-3.));
#343 = DIRECTION('',(0.E+000,0.E+000,1.));
#344 = DIRECTION('',(1.,0.E+000,0.E+000));
#345 = TOROIDAL_SURFACE('',#346,0.216,0.144);
#346 = AXIS2_PLACEMENT_3D('',#347,#348,#349);
#347 = CARTESIAN_POINT('',(0.E+000,0.E+000,-2.856));
#348 = DIRECTION('',(-0.E+000,-0.E+000,-1.));
#349 = DIRECTION('',(1.,0.E+000,0.E+000));
#350 = ADVANCED_FACE('',(#351),#371,.T.);
#351 = FACE_BOUND('',#352,.F.);
#352 = EDGE_LOOP('',(#353,#362,#363,#364));
#353 = ORIENTED_EDGE('',*,*,#354,.F.);
#354 = EDGE_CURVE('',#304,#355,#357,.T.);
#355 = VERTEX_POINT('',#356);
#356 = CARTESIAN_POINT('',(7.716,-2.2,-3.));
#357 = CIRCLE('',#358,0.144);
#358 = AXIS2_PLACEMENT_3D('',#359,#360,#361);
#359 = CARTESIAN_POINT('',(7.716,-2.2,-2.856));
#360 = DIRECTION('',(-0.E+000,1.,0.E+000));
#361 = DIRECTION('',(1.,0.E+000,0.E+000));
#362 = ORIENTED_EDGE('',*,*,#311,.T.);
#363 = ORIENTED_EDGE('',*,*,#354,.T.);
#364 = ORIENTED_EDGE('',*,*,#365,.F.);
#365 = EDGE_CURVE('',#355,#355,#366,.T.);
#366 = CIRCLE('',#367,0.216);
#367 = AXIS2_PLACEMENT_3D('',#368,#369,#370);
#368 = CARTESIAN_POINT('',(7.5,-2.2,-3.));
#369 = DIRECTION('',(0.E+000,0.E+000,1.));
#370 = DIRECTION('',(1.,0.E+000,0.E+000));
#371 = TOROIDAL_SURFACE('',#372,0.216,0.144);
#372 = AXIS2_PLACEMENT_3D('',#373,#374,#375);
#373 = CARTESIAN_POINT('',(7.5,-2.2,-2.856));
#374 = DIRECTION('',(-0.E+000,-0.E+000,-1.));
#375 = DIRECTION('',(1.,0.E+000,0.E+000));
#376 = ADVANCED_FACE('',(#377),#380,.F.);
#377 = FACE_BOUND('',#378,.F.);
#378 = EDGE_LOOP('',(#379));
#379 = ORIENTED_EDGE('',*,*,#339,.T.);
#380 = PLANE('',#381);
#381 = AXIS2_PLACEMENT_3D('',#382,#383,#384);
#382 = CARTESIAN_POINT('',(-1.483767504926E-017,1.497958850874E-017,-3.)
);
#383 = DIRECTION('',(0.E+000,0.E+000,1.));
#384 = DIRECTION('',(1.,0.E+000,0.E+000));
#385 = ADVANCED_FACE('',(#386),#389,.F.);
#386 = FACE_BOUND('',#387,.F.);
#387 = EDGE_LOOP('',(#388));
#388 = ORIENTED_EDGE('',*,*,#365,.T.);
#389 = PLANE('',#390);
#390 = AXIS2_PLACEMENT_3D('',#391,#392,#393);
#391 = CARTESIAN_POINT('',(7.5,-2.2,-3.));
#392 = DIRECTION('',(0.E+000,0.E+000,1.));
#393 = DIRECTION('',(1.,0.E+000,0.E+000));
#394 = ( GEOMETRIC_REPRESENTATION_CONTEXT(3)
GLOBAL_UNCERTAINTY_ASSIGNED_CONTEXT((#398)) GLOBAL_UNIT_ASSIGNED_CONTEXT
((#395,#396,#397)) REPRESENTATION_CONTEXT('Context #1',
'3D Context with UNIT and UNCERTAINTY') );
#395 = ( LENGTH_UNIT() NAMED_UNIT(*) SI_UNIT(.MILLI.,.METRE.) );
#396 = ( NAMED_UNIT(*) PLANE_ANGLE_UNIT() SI_UNIT($,.RADIAN.) );
#397 = ( NAMED_UNIT(*) SI_UNIT($,.STERADIAN.) SOLID_ANGLE_UNIT() );
#398 = UNCERTAINTY_MEASURE_WITH_UNIT(LENGTH_MEASURE(1.E-007),#395,
'distance_accuracy_value','confusion accuracy');
#399 = PRODUCT_RELATED_PRODUCT_CATEGORY('part',$,(#7));
#400 = MECHANICAL_DESIGN_GEOMETRIC_PRESENTATION_REPRESENTATION('',(#401,
#409,#416,#423,#430,#438,#445,#452,#459,#466,#473),#394);
#401 = STYLED_ITEM('color',(#402),#17);
#402 = PRESENTATION_STYLE_ASSIGNMENT((#403));
#403 = SURFACE_STYLE_USAGE(.BOTH.,#404);
#404 = SURFACE_SIDE_STYLE('',(#405));
#405 = SURFACE_STYLE_FILL_AREA(#406);
#406 = FILL_AREA_STYLE('',(#407));
#407 = FILL_AREA_STYLE_COLOUR('',#408);
#408 = COLOUR_RGB('',0.136999994516,0.402000010014,0.726999998093);
#409 = STYLED_ITEM('color',(#410),#50);
#410 = PRESENTATION_STYLE_ASSIGNMENT((#411));
#411 = SURFACE_STYLE_USAGE(.BOTH.,#412);
#412 = SURFACE_SIDE_STYLE('',(#413));
#413 = SURFACE_STYLE_FILL_AREA(#414);
#414 = FILL_AREA_STYLE('',(#415));
#415 = FILL_AREA_STYLE_COLOUR('',#408);
#416 = STYLED_ITEM('color',(#417),#149);
#417 = PRESENTATION_STYLE_ASSIGNMENT((#418));
#418 = SURFACE_STYLE_USAGE(.BOTH.,#419);
#419 = SURFACE_SIDE_STYLE('',(#420));
#420 = SURFACE_STYLE_FILL_AREA(#421);
#421 = FILL_AREA_STYLE('',(#422));
#422 = FILL_AREA_STYLE_COLOUR('',#408);
#423 = STYLED_ITEM('color',(#424),#254);
#424 = PRESENTATION_STYLE_ASSIGNMENT((#425));
#425 = SURFACE_STYLE_USAGE(.BOTH.,#426);
#426 = SURFACE_SIDE_STYLE('',(#427));
#427 = SURFACE_STYLE_FILL_AREA(#428);
#428 = FILL_AREA_STYLE('',(#429));
#429 = FILL_AREA_STYLE_COLOUR('',#408);
#430 = STYLED_ITEM('color',(#431),#263);
#431 = PRESENTATION_STYLE_ASSIGNMENT((#432));
#432 = SURFACE_STYLE_USAGE(.BOTH.,#433);
#433 = SURFACE_SIDE_STYLE('',(#434));
#434 = SURFACE_STYLE_FILL_AREA(#435);
#435 = FILL_AREA_STYLE('',(#436));
#436 = FILL_AREA_STYLE_COLOUR('',#437);
#437 = COLOUR_RGB('',0.824000000954,0.819999992847,0.78100001812);
#438 = STYLED_ITEM('color',(#439),#289);
#439 = PRESENTATION_STYLE_ASSIGNMENT((#440));
#440 = SURFACE_STYLE_USAGE(.BOTH.,#441);
#441 = SURFACE_SIDE_STYLE('',(#442));
#442 = SURFACE_STYLE_FILL_AREA(#443);
#443 = FILL_AREA_STYLE('',(#444));
#444 = FILL_AREA_STYLE_COLOUR('',#408);
#445 = STYLED_ITEM('color',(#446),#298);
#446 = PRESENTATION_STYLE_ASSIGNMENT((#447));
#447 = SURFACE_STYLE_USAGE(.BOTH.,#448);
#448 = SURFACE_SIDE_STYLE('',(#449));
#449 = SURFACE_STYLE_FILL_AREA(#450);
#450 = FILL_AREA_STYLE('',(#451));
#451 = FILL_AREA_STYLE_COLOUR('',#437);
#452 = STYLED_ITEM('color',(#453),#324);
#453 = PRESENTATION_STYLE_ASSIGNMENT((#454));
#454 = SURFACE_STYLE_USAGE(.BOTH.,#455);
#455 = SURFACE_SIDE_STYLE('',(#456));
#456 = SURFACE_STYLE_FILL_AREA(#457);
#457 = FILL_AREA_STYLE('',(#458));
#458 = FILL_AREA_STYLE_COLOUR('',#437);
#459 = STYLED_ITEM('color',(#460),#350);
#460 = PRESENTATION_STYLE_ASSIGNMENT((#461));
#461 = SURFACE_STYLE_USAGE(.BOTH.,#462);
#462 = SURFACE_SIDE_STYLE('',(#463));
#463 = SURFACE_STYLE_FILL_AREA(#464);
#464 = FILL_AREA_STYLE('',(#465));
#465 = FILL_AREA_STYLE_COLOUR('',#437);
#466 = STYLED_ITEM('color',(#467),#376);
#467 = PRESENTATION_STYLE_ASSIGNMENT((#468));
#468 = SURFACE_STYLE_USAGE(.BOTH.,#469);
#469 = SURFACE_SIDE_STYLE('',(#470));
#470 = SURFACE_STYLE_FILL_AREA(#471);
#471 = FILL_AREA_STYLE('',(#472));
#472 = FILL_AREA_STYLE_COLOUR('',#437);
#473 = STYLED_ITEM('color',(#474),#385);
#474 = PRESENTATION_STYLE_ASSIGNMENT((#475));
#475 = SURFACE_STYLE_USAGE(.BOTH.,#476);
#476 = SURFACE_SIDE_STYLE('',(#477));
#477 = SURFACE_STYLE_FILL_AREA(#478);
#478 = FILL_AREA_STYLE('',(#479));
#479 = FILL_AREA_STYLE_COLOUR('',#437);
ENDSEC;
END-ISO-10303-21;
