ISO-10303-21;
HEADER;
FILE_DESCRIPTION(('FreeCAD Model'),'2;1');
FILE_NAME(
'D:/KiCAD/packages3D-source/Package_TO_SOT_THT.3dshapes\\
TO-8-3_Window.step','2017-11-26T14:48:21',('kicad StepUp'),('ksu MCAD'),
  'Open CASCADE STEP processor 6.8','FreeCAD','Unknown');
FILE_SCHEMA(('AUTOMOTIVE_DESIGN_CC2 { 1 2 10303 214 -1 1 5 4 }'));
ENDSEC;
DATA;
#1 = APPLICATION_PROTOCOL_DEFINITION('committee draft',
  'automotive_design',1997,#2);
#2 = APPLICATION_CONTEXT(
  'core data for automotive mechanical design processes');
#3 = SHAPE_DEFINITION_REPRESENTATION(#4,#10);
#4 = PRODUCT_DEFINITION_SHAPE('','',#5);
#5 = PRODUCT_DEFINITION('design','',#6,#9);
#6 = PRODUCT_DEFINITION_FORMATION('','',#7);
#7 = PRODUCT('TO-8-3_Window','TO-8-3_Window','',(#8));
#8 = MECHANICAL_CONTEXT('',#2,'mechanical');
#9 = PRODUCT_DEFINITION_CONTEXT('part definition',#2,'design');
#10 = ADVANCED_BREP_SHAPE_REPRESENTATION('',(#11,#15),#457);
#11 = AXIS2_PLACEMENT_3D('',#12,#13,#14);
#12 = CARTESIAN_POINT('',(0.E+000,0.E+000,0.E+000));
#13 = DIRECTION('',(0.E+000,0.E+000,1.));
#14 = DIRECTION('',(1.,0.E+000,-0.E+000));
#15 = BREP_WITH_VOIDS('',#16,(#404));
#16 = CLOSED_SHELL('',(#17,#45,#75,#100,#125,#134,#164,#189,#214,#290,
    #315,#327,#352,#377,#386,#395));
#17 = ADVANCED_FACE('',(#18,#29),#40,.T.);
#18 = FACE_BOUND('',#19,.T.);
#19 = EDGE_LOOP('',(#20));
#20 = ORIENTED_EDGE('',*,*,#21,.T.);
#21 = EDGE_CURVE('',#22,#22,#24,.T.);
#22 = VERTEX_POINT('',#23);
#23 = CARTESIAN_POINT('',(-2.95,8.792966355031E-015,13.2));
#24 = CIRCLE('',#25,6.5);
#25 = AXIS2_PLACEMENT_3D('',#26,#27,#28);
#26 = CARTESIAN_POINT('',(3.55,5.861977570021E-015,13.2));
#27 = DIRECTION('',(0.E+000,4.440892098501E-016,1.));
#28 = DIRECTION('',(-1.,4.5092135154E-016,-2.002493067099E-031));
#29 = FACE_BOUND('',#30,.T.);
#30 = EDGE_LOOP('',(#31));
#31 = ORIENTED_EDGE('',*,*,#32,.F.);
#32 = EDGE_CURVE('',#33,#33,#35,.T.);
#33 = VERTEX_POINT('',#34);
#34 = CARTESIAN_POINT('',(-1.95,8.792966355031E-015,13.2));
#35 = CIRCLE('',#36,5.5);
#36 = AXIS2_PLACEMENT_3D('',#37,#38,#39);
#37 = CARTESIAN_POINT('',(3.55,5.861977570021E-015,13.2));
#38 = DIRECTION('',(-4.379057701015E-047,4.440892098501E-016,1.));
#39 = DIRECTION('',(-1.,5.329070518201E-016,-2.366582715663E-031));
#40 = PLANE('',#41);
#41 = AXIS2_PLACEMENT_3D('',#42,#43,#44);
#42 = CARTESIAN_POINT('',(3.55,5.861977570021E-015,13.2));
#43 = DIRECTION('',(0.E+000,4.440892098501E-016,1.));
#44 = DIRECTION('',(-1.,4.5092135154E-016,-2.002493067099E-031));
#45 = ADVANCED_FACE('',(#46),#66,.F.);
#46 = FACE_BOUND('',#47,.F.);
#47 = EDGE_LOOP('',(#48,#49,#58,#65));
#48 = ORIENTED_EDGE('',*,*,#21,.T.);
#49 = ORIENTED_EDGE('',*,*,#50,.T.);
#50 = EDGE_CURVE('',#22,#51,#53,.T.);
#51 = VERTEX_POINT('',#52);
#52 = CARTESIAN_POINT('',(-3.05,8.726352973554E-015,13.1));
#53 = CIRCLE('',#54,9.999999999914E-002);
#54 = AXIS2_PLACEMENT_3D('',#55,#56,#57);
#55 = CARTESIAN_POINT('',(-2.950000000001,8.726352973554E-015,13.1));
#56 = DIRECTION('',(0.E+000,-1.,6.661338147751E-016));
#57 = DIRECTION('',(1.,0.E+000,0.E+000));
#58 = ORIENTED_EDGE('',*,*,#59,.F.);
#59 = EDGE_CURVE('',#51,#51,#60,.T.);
#60 = CIRCLE('',#61,6.6);
#61 = AXIS2_PLACEMENT_3D('',#62,#63,#64);
#62 = CARTESIAN_POINT('',(3.55,5.817568649036E-015,13.1));
#63 = DIRECTION('',(0.E+000,4.440892098501E-016,1.));
#64 = DIRECTION('',(-1.,4.407248976542E-016,-1.957211715605E-031));
#65 = ORIENTED_EDGE('',*,*,#50,.F.);
#66 = SURFACE_OF_REVOLUTION('',#67,#72);
#67 = CIRCLE('',#68,9.999999999914E-002);
#68 = AXIS2_PLACEMENT_3D('',#69,#70,#71);
#69 = CARTESIAN_POINT('',(-2.950000000001,8.726352973554E-015,13.1));
#70 = DIRECTION('',(0.E+000,-1.,6.661338147751E-016));
#71 = DIRECTION('',(1.,0.E+000,0.E+000));
#72 = AXIS1_PLACEMENT('',#73,#74);
#73 = CARTESIAN_POINT('',(3.55,1.13272413671E-015,2.550668));
#74 = DIRECTION('',(0.E+000,4.440892098501E-016,1.));
#75 = ADVANCED_FACE('',(#76),#95,.F.);
#76 = FACE_BOUND('',#77,.T.);
#77 = EDGE_LOOP('',(#78,#86,#87,#88));
#78 = ORIENTED_EDGE('',*,*,#79,.F.);
#79 = EDGE_CURVE('',#33,#80,#82,.T.);
#80 = VERTEX_POINT('',#81);
#81 = CARTESIAN_POINT('',(-1.95,8.626432901337E-015,12.95));
#82 = LINE('',#83,#84);
#83 = CARTESIAN_POINT('',(-1.95,8.792966355031E-015,13.2));
#84 = VECTOR('',#85,1.);
#85 = DIRECTION('',(0.E+000,-6.661338147751E-016,-1.));
#86 = ORIENTED_EDGE('',*,*,#32,.T.);
#87 = ORIENTED_EDGE('',*,*,#79,.T.);
#88 = ORIENTED_EDGE('',*,*,#89,.F.);
#89 = EDGE_CURVE('',#80,#80,#90,.T.);
#90 = CIRCLE('',#91,5.5);
#91 = AXIS2_PLACEMENT_3D('',#92,#93,#94);
#92 = CARTESIAN_POINT('',(3.55,5.750955267558E-015,12.95));
#93 = DIRECTION('',(0.E+000,4.440892098501E-016,1.));
#94 = DIRECTION('',(-1.,5.228141152326E-016,-2.321761073321E-031));
#95 = CYLINDRICAL_SURFACE('',#96,5.5);
#96 = AXIS2_PLACEMENT_3D('',#97,#98,#99);
#97 = CARTESIAN_POINT('',(3.55,5.861977570021E-015,13.2));
#98 = DIRECTION('',(0.E+000,-4.440892098501E-016,-1.));
#99 = DIRECTION('',(-1.,5.329070518201E-016,-2.366582715663E-031));
#100 = ADVANCED_FACE('',(#101),#120,.T.);
#101 = FACE_BOUND('',#102,.T.);
#102 = EDGE_LOOP('',(#103,#112,#118,#119));
#103 = ORIENTED_EDGE('',*,*,#104,.T.);
#104 = EDGE_CURVE('',#105,#105,#107,.T.);
#105 = VERTEX_POINT('',#106);
#106 = CARTESIAN_POINT('',(-3.05,3.807198143637E-015,5.715365380337));
#107 = CIRCLE('',#108,6.6);
#108 = AXIS2_PLACEMENT_3D('',#109,#110,#111);
#109 = CARTESIAN_POINT('',(3.55,2.538132095758E-015,5.715365380337));
#110 = DIRECTION('',(0.E+000,4.440892098501E-016,1.));
#111 = DIRECTION('',(-1.,1.922827345271E-016,-8.539068764396E-032));
#112 = ORIENTED_EDGE('',*,*,#113,.T.);
#113 = EDGE_CURVE('',#105,#51,#114,.T.);
#114 = LINE('',#115,#116);
#115 = CARTESIAN_POINT('',(-3.05,3.807198143637E-015,5.715365380337));
#116 = VECTOR('',#117,1.);
#117 = DIRECTION('',(0.E+000,6.661338147751E-016,1.));
#118 = ORIENTED_EDGE('',*,*,#59,.F.);
#119 = ORIENTED_EDGE('',*,*,#113,.F.);
#120 = CYLINDRICAL_SURFACE('',#121,6.6);
#121 = AXIS2_PLACEMENT_3D('',#122,#123,#124);
#122 = CARTESIAN_POINT('',(3.55,2.538132095758E-015,5.715365380337));
#123 = DIRECTION('',(0.E+000,4.440892098501E-016,1.));
#124 = DIRECTION('',(-1.,1.922827345271E-016,-8.539068764396E-032));
#125 = ADVANCED_FACE('',(#126),#129,.T.);
#126 = FACE_BOUND('',#127,.F.);
#127 = EDGE_LOOP('',(#128));
#128 = ORIENTED_EDGE('',*,*,#89,.F.);
#129 = PLANE('',#130);
#130 = AXIS2_PLACEMENT_3D('',#131,#132,#133);
#131 = CARTESIAN_POINT('',(3.55,5.750955267558E-015,12.95));
#132 = DIRECTION('',(0.E+000,4.440892098501E-016,1.));
#133 = DIRECTION('',(-1.,5.228141152326E-016,-2.321761073321E-031));
#134 = ADVANCED_FACE('',(#135),#155,.T.);
#135 = FACE_BOUND('',#136,.T.);
#136 = EDGE_LOOP('',(#137,#146,#153,#154));
#137 = ORIENTED_EDGE('',*,*,#138,.T.);
#138 = EDGE_CURVE('',#139,#139,#141,.T.);
#139 = VERTEX_POINT('',#140);
#140 = CARTESIAN_POINT('',(-3.265332172576,3.663750163064E-015,
    5.500021289717));
#141 = CIRCLE('',#142,6.815332172576);
#142 = AXIS2_PLACEMENT_3D('',#143,#144,#145);
#143 = CARTESIAN_POINT('',(3.55,2.442500108709E-015,5.500021289717));
#144 = DIRECTION('',(0.E+000,4.440892098501E-016,1.));
#145 = DIRECTION('',(-1.,1.791915673998E-016,-7.957704157839E-032));
#146 = ORIENTED_EDGE('',*,*,#147,.T.);
#147 = EDGE_CURVE('',#139,#105,#148,.T.);
#148 = CIRCLE('',#149,0.215344090949);
#149 = AXIS2_PLACEMENT_3D('',#150,#151,#152);
#150 = CARTESIAN_POINT('',(-3.265344090949,3.807198143637E-015,
    5.715365380337));
#151 = DIRECTION('',(0.E+000,-1.,6.661338147751E-016));
#152 = DIRECTION('',(1.,0.E+000,0.E+000));
#153 = ORIENTED_EDGE('',*,*,#104,.F.);
#154 = ORIENTED_EDGE('',*,*,#147,.F.);
#155 = SURFACE_OF_REVOLUTION('',#156,#161);
#156 = CIRCLE('',#157,0.215344090949);
#157 = AXIS2_PLACEMENT_3D('',#158,#159,#160);
#158 = CARTESIAN_POINT('',(-3.265344090949,3.807198143637E-015,
    5.715365380337));
#159 = DIRECTION('',(0.E+000,-1.,6.661338147751E-016));
#160 = DIRECTION('',(1.,0.E+000,0.E+000));
#161 = AXIS1_PLACEMENT('',#162,#163);
#162 = CARTESIAN_POINT('',(3.55,1.13272413671E-015,2.550668));
#163 = DIRECTION('',(0.E+000,4.440892098501E-016,1.));
#164 = ADVANCED_FACE('',(#165),#184,.T.);
#165 = FACE_BOUND('',#166,.T.);
#166 = EDGE_LOOP('',(#167,#176,#182,#183));
#167 = ORIENTED_EDGE('',*,*,#168,.T.);
#168 = EDGE_CURVE('',#169,#169,#171,.T.);
#169 = VERTEX_POINT('',#170);
#170 = CARTESIAN_POINT('',(-3.65,3.663735981263E-015,5.5));
#171 = CIRCLE('',#172,7.2);
#172 = AXIS2_PLACEMENT_3D('',#173,#174,#175);
#173 = CARTESIAN_POINT('',(3.55,2.442490654175E-015,5.5));
#174 = DIRECTION('',(-1.094764425254E-047,4.440892098501E-016,1.));
#175 = DIRECTION('',(-1.,1.6961740654E-016,-7.532526004715E-032));
#176 = ORIENTED_EDGE('',*,*,#177,.T.);
#177 = EDGE_CURVE('',#169,#139,#178,.T.);
#178 = LINE('',#179,#180);
#179 = CARTESIAN_POINT('',(-3.65,3.663735981263E-015,5.5));
#180 = VECTOR('',#181,1.);
#181 = DIRECTION('',(0.999999998468,3.686765436337E-020,
    5.534571815097E-005));
#182 = ORIENTED_EDGE('',*,*,#138,.F.);
#183 = ORIENTED_EDGE('',*,*,#177,.F.);
#184 = CONICAL_SURFACE('',#185,7.2,1.570740981077);
#185 = AXIS2_PLACEMENT_3D('',#186,#187,#188);
#186 = CARTESIAN_POINT('',(3.55,2.442490654175E-015,5.5));
#187 = DIRECTION('',(0.E+000,-4.440892098501E-016,-1.));
#188 = DIRECTION('',(-1.,1.6961740654E-016,-7.532526004715E-032));
#189 = ADVANCED_FACE('',(#190),#209,.T.);
#190 = FACE_BOUND('',#191,.T.);
#191 = EDGE_LOOP('',(#192,#201,#207,#208));
#192 = ORIENTED_EDGE('',*,*,#193,.T.);
#193 = EDGE_CURVE('',#194,#194,#196,.T.);
#194 = VERTEX_POINT('',#195);
#195 = CARTESIAN_POINT('',(-3.65,3.330669073875E-015,5.));
#196 = CIRCLE('',#197,7.2);
#197 = AXIS2_PLACEMENT_3D('',#198,#199,#200);
#198 = CARTESIAN_POINT('',(3.55,2.22044604925E-015,5.));
#199 = DIRECTION('',(0.E+000,4.440892098501E-016,1.));
#200 = DIRECTION('',(-1.,1.54197642309E-016,-6.847750913377E-032));
#201 = ORIENTED_EDGE('',*,*,#202,.T.);
#202 = EDGE_CURVE('',#194,#169,#203,.T.);
#203 = LINE('',#204,#205);
#204 = CARTESIAN_POINT('',(-3.65,3.330669073875E-015,5.));
#205 = VECTOR('',#206,1.);
#206 = DIRECTION('',(0.E+000,6.661338147751E-016,1.));
#207 = ORIENTED_EDGE('',*,*,#168,.F.);
#208 = ORIENTED_EDGE('',*,*,#202,.F.);
#209 = CYLINDRICAL_SURFACE('',#210,7.2);
#210 = AXIS2_PLACEMENT_3D('',#211,#212,#213);
#211 = CARTESIAN_POINT('',(3.55,2.22044604925E-015,5.));
#212 = DIRECTION('',(0.E+000,4.440892098501E-016,1.));
#213 = DIRECTION('',(-1.,1.54197642309E-016,-6.847750913377E-032));
#214 = ADVANCED_FACE('',(#215,#218,#229,#263,#274),#285,.F.);
#215 = FACE_BOUND('',#216,.T.);
#216 = EDGE_LOOP('',(#217));
#217 = ORIENTED_EDGE('',*,*,#193,.F.);
#218 = FACE_BOUND('',#219,.T.);
#219 = EDGE_LOOP('',(#220));
#220 = ORIENTED_EDGE('',*,*,#221,.T.);
#221 = EDGE_CURVE('',#222,#222,#224,.T.);
#222 = VERTEX_POINT('',#223);
#223 = CARTESIAN_POINT('',(0.24,0.E+000,5.));
#224 = CIRCLE('',#225,0.24);
#225 = AXIS2_PLACEMENT_3D('',#226,#227,#228);
#226 = CARTESIAN_POINT('',(0.E+000,0.E+000,5.));
#227 = DIRECTION('',(0.E+000,0.E+000,1.));
#228 = DIRECTION('',(1.,0.E+000,0.E+000));
#229 = FACE_BOUND('',#230,.T.);
#230 = EDGE_LOOP('',(#231,#241,#249,#257));
#231 = ORIENTED_EDGE('',*,*,#232,.F.);
#232 = EDGE_CURVE('',#233,#235,#237,.T.);
#233 = VERTEX_POINT('',#234);
#234 = CARTESIAN_POINT('',(2.23594408409,-0.30405591591,5.));
#235 = VERTEX_POINT('',#236);
#236 = CARTESIAN_POINT('',(-1.794564568675,3.726452736852,5.));
#237 = LINE('',#238,#239);
#238 = CARTESIAN_POINT('',(2.23594408409,-0.30405591591,5.));
#239 = VECTOR('',#240,1.);
#240 = DIRECTION('',(-0.707106781187,0.707106781186,0.E+000));
#241 = ORIENTED_EDGE('',*,*,#242,.T.);
#242 = EDGE_CURVE('',#233,#243,#245,.T.);
#243 = VERTEX_POINT('',#244);
#244 = CARTESIAN_POINT('',(2.84405591591,0.30405591591,5.));
#245 = LINE('',#246,#247);
#246 = CARTESIAN_POINT('',(2.23594408409,-0.30405591591,5.));
#247 = VECTOR('',#248,1.);
#248 = DIRECTION('',(0.707106781186,0.707106781187,0.E+000));
#249 = ORIENTED_EDGE('',*,*,#250,.T.);
#250 = EDGE_CURVE('',#243,#251,#253,.T.);
#251 = VERTEX_POINT('',#252);
#252 = CARTESIAN_POINT('',(-1.186452736855,4.334564568672,5.));
#253 = LINE('',#254,#255);
#254 = CARTESIAN_POINT('',(2.84405591591,0.30405591591,5.));
#255 = VECTOR('',#256,1.);
#256 = DIRECTION('',(-0.707106781187,0.707106781186,0.E+000));
#257 = ORIENTED_EDGE('',*,*,#258,.F.);
#258 = EDGE_CURVE('',#235,#251,#259,.T.);
#259 = LINE('',#260,#261);
#260 = CARTESIAN_POINT('',(-1.794564568675,3.726452736852,5.));
#261 = VECTOR('',#262,1.);
#262 = DIRECTION('',(0.707106781186,0.707106781187,0.E+000));
#263 = FACE_BOUND('',#264,.T.);
#264 = EDGE_LOOP('',(#265));
#265 = ORIENTED_EDGE('',*,*,#266,.T.);
#266 = EDGE_CURVE('',#267,#267,#269,.T.);
#267 = VERTEX_POINT('',#268);
#268 = CARTESIAN_POINT('',(3.79,-3.55,5.));
#269 = CIRCLE('',#270,0.24);
#270 = AXIS2_PLACEMENT_3D('',#271,#272,#273);
#271 = CARTESIAN_POINT('',(3.55,-3.55,5.));
#272 = DIRECTION('',(0.E+000,0.E+000,1.));
#273 = DIRECTION('',(1.,0.E+000,0.E+000));
#274 = FACE_BOUND('',#275,.T.);
#275 = EDGE_LOOP('',(#276));
#276 = ORIENTED_EDGE('',*,*,#277,.T.);
#277 = EDGE_CURVE('',#278,#278,#280,.T.);
#278 = VERTEX_POINT('',#279);
#279 = CARTESIAN_POINT('',(7.34,0.E+000,5.));
#280 = CIRCLE('',#281,0.24);
#281 = AXIS2_PLACEMENT_3D('',#282,#283,#284);
#282 = CARTESIAN_POINT('',(7.1,0.E+000,5.));
#283 = DIRECTION('',(0.E+000,0.E+000,1.));
#284 = DIRECTION('',(1.,0.E+000,0.E+000));
#285 = PLANE('',#286);
#286 = AXIS2_PLACEMENT_3D('',#287,#288,#289);
#287 = CARTESIAN_POINT('',(3.55,2.22044604925E-015,5.));
#288 = DIRECTION('',(0.E+000,4.440892098501E-016,1.));
#289 = DIRECTION('',(-1.,1.54197642309E-016,-6.847750913377E-032));
#290 = ADVANCED_FACE('',(#291),#310,.T.);
#291 = FACE_BOUND('',#292,.T.);
#292 = EDGE_LOOP('',(#293,#294,#302,#309));
#293 = ORIENTED_EDGE('',*,*,#221,.F.);
#294 = ORIENTED_EDGE('',*,*,#295,.T.);
#295 = EDGE_CURVE('',#222,#296,#298,.T.);
#296 = VERTEX_POINT('',#297);
#297 = CARTESIAN_POINT('',(0.24,0.E+000,-5.));
#298 = LINE('',#299,#300);
#299 = CARTESIAN_POINT('',(0.24,0.E+000,5.));
#300 = VECTOR('',#301,1.);
#301 = DIRECTION('',(-0.E+000,-0.E+000,-1.));
#302 = ORIENTED_EDGE('',*,*,#303,.T.);
#303 = EDGE_CURVE('',#296,#296,#304,.T.);
#304 = CIRCLE('',#305,0.24);
#305 = AXIS2_PLACEMENT_3D('',#306,#307,#308);
#306 = CARTESIAN_POINT('',(0.E+000,0.E+000,-5.));
#307 = DIRECTION('',(0.E+000,0.E+000,1.));
#308 = DIRECTION('',(1.,0.E+000,0.E+000));
#309 = ORIENTED_EDGE('',*,*,#295,.F.);
#310 = CYLINDRICAL_SURFACE('',#311,0.24);
#311 = AXIS2_PLACEMENT_3D('',#312,#313,#314);
#312 = CARTESIAN_POINT('',(0.E+000,0.E+000,5.));
#313 = DIRECTION('',(0.E+000,0.E+000,1.));
#314 = DIRECTION('',(1.,0.E+000,0.E+000));
#315 = ADVANCED_FACE('',(#316),#322,.T.);
#316 = FACE_BOUND('',#317,.T.);
#317 = EDGE_LOOP('',(#318,#319,#320,#321));
#318 = ORIENTED_EDGE('',*,*,#242,.F.);
#319 = ORIENTED_EDGE('',*,*,#232,.T.);
#320 = ORIENTED_EDGE('',*,*,#258,.T.);
#321 = ORIENTED_EDGE('',*,*,#250,.F.);
#322 = PLANE('',#323);
#323 = AXIS2_PLACEMENT_3D('',#324,#325,#326);
#324 = CARTESIAN_POINT('',(2.23594408409,-0.30405591591,5.));
#325 = DIRECTION('',(0.E+000,0.E+000,-1.));
#326 = DIRECTION('',(-1.,0.E+000,0.E+000));
#327 = ADVANCED_FACE('',(#328),#347,.T.);
#328 = FACE_BOUND('',#329,.T.);
#329 = EDGE_LOOP('',(#330,#331,#339,#346));
#330 = ORIENTED_EDGE('',*,*,#266,.F.);
#331 = ORIENTED_EDGE('',*,*,#332,.T.);
#332 = EDGE_CURVE('',#267,#333,#335,.T.);
#333 = VERTEX_POINT('',#334);
#334 = CARTESIAN_POINT('',(3.79,-3.55,-5.));
#335 = LINE('',#336,#337);
#336 = CARTESIAN_POINT('',(3.79,-3.55,5.));
#337 = VECTOR('',#338,1.);
#338 = DIRECTION('',(-0.E+000,-0.E+000,-1.));
#339 = ORIENTED_EDGE('',*,*,#340,.T.);
#340 = EDGE_CURVE('',#333,#333,#341,.T.);
#341 = CIRCLE('',#342,0.24);
#342 = AXIS2_PLACEMENT_3D('',#343,#344,#345);
#343 = CARTESIAN_POINT('',(3.55,-3.55,-5.));
#344 = DIRECTION('',(0.E+000,0.E+000,1.));
#345 = DIRECTION('',(1.,0.E+000,0.E+000));
#346 = ORIENTED_EDGE('',*,*,#332,.F.);
#347 = CYLINDRICAL_SURFACE('',#348,0.24);
#348 = AXIS2_PLACEMENT_3D('',#349,#350,#351);
#349 = CARTESIAN_POINT('',(3.55,-3.55,5.));
#350 = DIRECTION('',(0.E+000,0.E+000,1.));
#351 = DIRECTION('',(1.,0.E+000,0.E+000));
#352 = ADVANCED_FACE('',(#353),#372,.T.);
#353 = FACE_BOUND('',#354,.T.);
#354 = EDGE_LOOP('',(#355,#356,#364,#371));
#355 = ORIENTED_EDGE('',*,*,#277,.F.);
#356 = ORIENTED_EDGE('',*,*,#357,.T.);
#357 = EDGE_CURVE('',#278,#358,#360,.T.);
#358 = VERTEX_POINT('',#359);
#359 = CARTESIAN_POINT('',(7.34,0.E+000,-5.));
#360 = LINE('',#361,#362);
#361 = CARTESIAN_POINT('',(7.34,0.E+000,5.));
#362 = VECTOR('',#363,1.);
#363 = DIRECTION('',(-0.E+000,-0.E+000,-1.));
#364 = ORIENTED_EDGE('',*,*,#365,.T.);
#365 = EDGE_CURVE('',#358,#358,#366,.T.);
#366 = CIRCLE('',#367,0.24);
#367 = AXIS2_PLACEMENT_3D('',#368,#369,#370);
#368 = CARTESIAN_POINT('',(7.1,0.E+000,-5.));
#369 = DIRECTION('',(0.E+000,0.E+000,1.));
#370 = DIRECTION('',(1.,0.E+000,0.E+000));
#371 = ORIENTED_EDGE('',*,*,#357,.F.);
#372 = CYLINDRICAL_SURFACE('',#373,0.24);
#373 = AXIS2_PLACEMENT_3D('',#374,#375,#376);
#374 = CARTESIAN_POINT('',(7.1,0.E+000,5.));
#375 = DIRECTION('',(0.E+000,0.E+000,1.));
#376 = DIRECTION('',(1.,0.E+000,0.E+000));
#377 = ADVANCED_FACE('',(#378),#381,.T.);
#378 = FACE_BOUND('',#379,.F.);
#379 = EDGE_LOOP('',(#380));
#380 = ORIENTED_EDGE('',*,*,#303,.T.);
#381 = PLANE('',#382);
#382 = AXIS2_PLACEMENT_3D('',#383,#384,#385);
#383 = CARTESIAN_POINT('',(0.24,0.E+000,-5.));
#384 = DIRECTION('',(0.E+000,0.E+000,-1.));
#385 = DIRECTION('',(-1.,0.E+000,0.E+000));
#386 = ADVANCED_FACE('',(#387),#390,.T.);
#387 = FACE_BOUND('',#388,.F.);
#388 = EDGE_LOOP('',(#389));
#389 = ORIENTED_EDGE('',*,*,#340,.T.);
#390 = PLANE('',#391);
#391 = AXIS2_PLACEMENT_3D('',#392,#393,#394);
#392 = CARTESIAN_POINT('',(3.79,-3.55,-5.));
#393 = DIRECTION('',(0.E+000,0.E+000,-1.));
#394 = DIRECTION('',(-1.,0.E+000,0.E+000));
#395 = ADVANCED_FACE('',(#396),#399,.T.);
#396 = FACE_BOUND('',#397,.F.);
#397 = EDGE_LOOP('',(#398));
#398 = ORIENTED_EDGE('',*,*,#365,.T.);
#399 = PLANE('',#400);
#400 = AXIS2_PLACEMENT_3D('',#401,#402,#403);
#401 = CARTESIAN_POINT('',(7.34,0.E+000,-5.));
#402 = DIRECTION('',(0.E+000,0.E+000,-1.));
#403 = DIRECTION('',(-1.,0.E+000,0.E+000));
#404 = ORIENTED_CLOSED_SHELL('',*,#405,.F.);
#405 = CLOSED_SHELL('',(#406,#423,#448));
#406 = ADVANCED_FACE('',(#407),#418,.F.);
#407 = FACE_BOUND('',#408,.F.);
#408 = EDGE_LOOP('',(#409));
#409 = ORIENTED_EDGE('',*,*,#410,.T.);
#410 = EDGE_CURVE('',#411,#411,#413,.T.);
#411 = VERTEX_POINT('',#412);
#412 = CARTESIAN_POINT('',(-1.95,3.830269434957E-015,5.75));
#413 = CIRCLE('',#414,5.5);
#414 = AXIS2_PLACEMENT_3D('',#415,#416,#417);
#415 = CARTESIAN_POINT('',(3.55,2.553512956638E-015,5.75));
#416 = DIRECTION('',(0.E+000,4.440892098501E-016,1.));
#417 = DIRECTION('',(-1.,2.321375415125E-016,-1.030897773868E-031));
#418 = PLANE('',#419);
#419 = AXIS2_PLACEMENT_3D('',#420,#421,#422);
#420 = CARTESIAN_POINT('',(3.55,2.553512956638E-015,5.75));
#421 = DIRECTION('',(0.E+000,4.440892098501E-016,1.));
#422 = DIRECTION('',(-1.,2.321375415125E-016,-1.030897773868E-031));
#423 = ADVANCED_FACE('',(#424),#443,.T.);
#424 = FACE_BOUND('',#425,.F.);
#425 = EDGE_LOOP('',(#426,#435,#441,#442));
#426 = ORIENTED_EDGE('',*,*,#427,.T.);
#427 = EDGE_CURVE('',#428,#428,#430,.T.);
#428 = VERTEX_POINT('',#429);
#429 = CARTESIAN_POINT('',(-1.95,8.459899447644E-015,12.7));
#430 = CIRCLE('',#431,5.5);
#431 = AXIS2_PLACEMENT_3D('',#432,#433,#434);
#432 = CARTESIAN_POINT('',(3.55,5.639932965096E-015,12.7));
#433 = DIRECTION('',(0.E+000,4.440892098501E-016,1.));
#434 = DIRECTION('',(-1.,5.127211786451E-016,-2.276939430979E-031));
#435 = ORIENTED_EDGE('',*,*,#436,.T.);
#436 = EDGE_CURVE('',#428,#411,#437,.T.);
#437 = LINE('',#438,#439);
#438 = CARTESIAN_POINT('',(-1.95,8.792966355031E-015,13.2));
#439 = VECTOR('',#440,1.);
#440 = DIRECTION('',(0.E+000,-6.661338147751E-016,-1.));
#441 = ORIENTED_EDGE('',*,*,#410,.F.);
#442 = ORIENTED_EDGE('',*,*,#436,.F.);
#443 = CYLINDRICAL_SURFACE('',#444,5.5);
#444 = AXIS2_PLACEMENT_3D('',#445,#446,#447);
#445 = CARTESIAN_POINT('',(3.55,5.861977570021E-015,13.2));
#446 = DIRECTION('',(0.E+000,-4.440892098501E-016,-1.));
#447 = DIRECTION('',(-1.,5.329070518201E-016,-2.366582715663E-031));
#448 = ADVANCED_FACE('',(#449),#452,.T.);
#449 = FACE_BOUND('',#450,.T.);
#450 = EDGE_LOOP('',(#451));
#451 = ORIENTED_EDGE('',*,*,#427,.T.);
#452 = PLANE('',#453);
#453 = AXIS2_PLACEMENT_3D('',#454,#455,#456);
#454 = CARTESIAN_POINT('',(3.55,5.639932965096E-015,12.7));
#455 = DIRECTION('',(0.E+000,4.440892098501E-016,1.));
#456 = DIRECTION('',(-1.,5.127211786451E-016,-2.276939430979E-031));
#457 = ( GEOMETRIC_REPRESENTATION_CONTEXT(3) 
GLOBAL_UNCERTAINTY_ASSIGNED_CONTEXT((#461)) GLOBAL_UNIT_ASSIGNED_CONTEXT
((#458,#459,#460)) REPRESENTATION_CONTEXT('Context #1',
  '3D Context with UNIT and UNCERTAINTY') );
#458 = ( LENGTH_UNIT() NAMED_UNIT(*) SI_UNIT(.MILLI.,.METRE.) );
#459 = ( NAMED_UNIT(*) PLANE_ANGLE_UNIT() SI_UNIT($,.RADIAN.) );
#460 = ( NAMED_UNIT(*) SI_UNIT($,.STERADIAN.) SOLID_ANGLE_UNIT() );
#461 = UNCERTAINTY_MEASURE_WITH_UNIT(LENGTH_MEASURE(1.E-007),#458,
  'distance_accuracy_value','confusion accuracy');
#462 = PRODUCT_TYPE('part',$,(#7));
#463 = MECHANICAL_DESIGN_GEOMETRIC_PRESENTATION_REPRESENTATION('',(#464,
    #472,#479,#486,#493,#501,#508,#515,#522,#529,#537,#544,#551,#558,
    #565,#572,#579,#586,#593),#457);
#464 = STYLED_ITEM('color',(#465),#17);
#465 = PRESENTATION_STYLE_ASSIGNMENT((#466));
#466 = SURFACE_STYLE_USAGE(.BOTH.,#467);
#467 = SURFACE_SIDE_STYLE('',(#468));
#468 = SURFACE_STYLE_FILL_AREA(#469);
#469 = FILL_AREA_STYLE('',(#470));
#470 = FILL_AREA_STYLE_COLOUR('',#471);
#471 = COLOUR_RGB('',0.40000000596,0.40000000596,0.40000000596);
#472 = STYLED_ITEM('color',(#473),#45);
#473 = PRESENTATION_STYLE_ASSIGNMENT((#474));
#474 = SURFACE_STYLE_USAGE(.BOTH.,#475);
#475 = SURFACE_SIDE_STYLE('',(#476));
#476 = SURFACE_STYLE_FILL_AREA(#477);
#477 = FILL_AREA_STYLE('',(#478));
#478 = FILL_AREA_STYLE_COLOUR('',#471);
#479 = STYLED_ITEM('color',(#480),#75);
#480 = PRESENTATION_STYLE_ASSIGNMENT((#481));
#481 = SURFACE_STYLE_USAGE(.BOTH.,#482);
#482 = SURFACE_SIDE_STYLE('',(#483));
#483 = SURFACE_STYLE_FILL_AREA(#484);
#484 = FILL_AREA_STYLE('',(#485));
#485 = FILL_AREA_STYLE_COLOUR('',#471);
#486 = STYLED_ITEM('color',(#487),#100);
#487 = PRESENTATION_STYLE_ASSIGNMENT((#488));
#488 = SURFACE_STYLE_USAGE(.BOTH.,#489);
#489 = SURFACE_SIDE_STYLE('',(#490));
#490 = SURFACE_STYLE_FILL_AREA(#491);
#491 = FILL_AREA_STYLE('',(#492));
#492 = FILL_AREA_STYLE_COLOUR('',#471);
#493 = STYLED_ITEM('color',(#494),#125);
#494 = PRESENTATION_STYLE_ASSIGNMENT((#495));
#495 = SURFACE_STYLE_USAGE(.BOTH.,#496);
#496 = SURFACE_SIDE_STYLE('',(#497));
#497 = SURFACE_STYLE_FILL_AREA(#498);
#498 = FILL_AREA_STYLE('',(#499));
#499 = FILL_AREA_STYLE_COLOUR('',#500);
#500 = COLOUR_RGB('',0.E+000,0.631244003773,0.748015999794);
#501 = STYLED_ITEM('color',(#502),#134);
#502 = PRESENTATION_STYLE_ASSIGNMENT((#503));
#503 = SURFACE_STYLE_USAGE(.BOTH.,#504);
#504 = SURFACE_SIDE_STYLE('',(#505));
#505 = SURFACE_STYLE_FILL_AREA(#506);
#506 = FILL_AREA_STYLE('',(#507));
#507 = FILL_AREA_STYLE_COLOUR('',#471);
#508 = STYLED_ITEM('color',(#509),#164);
#509 = PRESENTATION_STYLE_ASSIGNMENT((#510));
#510 = SURFACE_STYLE_USAGE(.BOTH.,#511);
#511 = SURFACE_SIDE_STYLE('',(#512));
#512 = SURFACE_STYLE_FILL_AREA(#513);
#513 = FILL_AREA_STYLE('',(#514));
#514 = FILL_AREA_STYLE_COLOUR('',#471);
#515 = STYLED_ITEM('color',(#516),#189);
#516 = PRESENTATION_STYLE_ASSIGNMENT((#517));
#517 = SURFACE_STYLE_USAGE(.BOTH.,#518);
#518 = SURFACE_SIDE_STYLE('',(#519));
#519 = SURFACE_STYLE_FILL_AREA(#520);
#520 = FILL_AREA_STYLE('',(#521));
#521 = FILL_AREA_STYLE_COLOUR('',#471);
#522 = STYLED_ITEM('color',(#523),#214);
#523 = PRESENTATION_STYLE_ASSIGNMENT((#524));
#524 = SURFACE_STYLE_USAGE(.BOTH.,#525);
#525 = SURFACE_SIDE_STYLE('',(#526));
#526 = SURFACE_STYLE_FILL_AREA(#527);
#527 = FILL_AREA_STYLE('',(#528));
#528 = FILL_AREA_STYLE_COLOUR('',#471);
#529 = STYLED_ITEM('color',(#530),#290);
#530 = PRESENTATION_STYLE_ASSIGNMENT((#531));
#531 = SURFACE_STYLE_USAGE(.BOTH.,#532);
#532 = SURFACE_SIDE_STYLE('',(#533));
#533 = SURFACE_STYLE_FILL_AREA(#534);
#534 = FILL_AREA_STYLE('',(#535));
#535 = FILL_AREA_STYLE_COLOUR('',#536);
#536 = COLOUR_RGB('',0.85900002718,0.737999975681,0.495999991894);
#537 = STYLED_ITEM('color',(#538),#315);
#538 = PRESENTATION_STYLE_ASSIGNMENT((#539));
#539 = SURFACE_STYLE_USAGE(.BOTH.,#540);
#540 = SURFACE_SIDE_STYLE('',(#541));
#541 = SURFACE_STYLE_FILL_AREA(#542);
#542 = FILL_AREA_STYLE('',(#543));
#543 = FILL_AREA_STYLE_COLOUR('',#471);
#544 = STYLED_ITEM('color',(#545),#327);
#545 = PRESENTATION_STYLE_ASSIGNMENT((#546));
#546 = SURFACE_STYLE_USAGE(.BOTH.,#547);
#547 = SURFACE_SIDE_STYLE('',(#548));
#548 = SURFACE_STYLE_FILL_AREA(#549);
#549 = FILL_AREA_STYLE('',(#550));
#550 = FILL_AREA_STYLE_COLOUR('',#536);
#551 = STYLED_ITEM('color',(#552),#352);
#552 = PRESENTATION_STYLE_ASSIGNMENT((#553));
#553 = SURFACE_STYLE_USAGE(.BOTH.,#554);
#554 = SURFACE_SIDE_STYLE('',(#555));
#555 = SURFACE_STYLE_FILL_AREA(#556);
#556 = FILL_AREA_STYLE('',(#557));
#557 = FILL_AREA_STYLE_COLOUR('',#536);
#558 = STYLED_ITEM('color',(#559),#377);
#559 = PRESENTATION_STYLE_ASSIGNMENT((#560));
#560 = SURFACE_STYLE_USAGE(.BOTH.,#561);
#561 = SURFACE_SIDE_STYLE('',(#562));
#562 = SURFACE_STYLE_FILL_AREA(#563);
#563 = FILL_AREA_STYLE('',(#564));
#564 = FILL_AREA_STYLE_COLOUR('',#536);
#565 = STYLED_ITEM('color',(#566),#386);
#566 = PRESENTATION_STYLE_ASSIGNMENT((#567));
#567 = SURFACE_STYLE_USAGE(.BOTH.,#568);
#568 = SURFACE_SIDE_STYLE('',(#569));
#569 = SURFACE_STYLE_FILL_AREA(#570);
#570 = FILL_AREA_STYLE('',(#571));
#571 = FILL_AREA_STYLE_COLOUR('',#536);
#572 = STYLED_ITEM('color',(#573),#395);
#573 = PRESENTATION_STYLE_ASSIGNMENT((#574));
#574 = SURFACE_STYLE_USAGE(.BOTH.,#575);
#575 = SURFACE_SIDE_STYLE('',(#576));
#576 = SURFACE_STYLE_FILL_AREA(#577);
#577 = FILL_AREA_STYLE('',(#578));
#578 = FILL_AREA_STYLE_COLOUR('',#536);
#579 = STYLED_ITEM('color',(#580),#406);
#580 = PRESENTATION_STYLE_ASSIGNMENT((#581));
#581 = SURFACE_STYLE_USAGE(.BOTH.,#582);
#582 = SURFACE_SIDE_STYLE('',(#583));
#583 = SURFACE_STYLE_FILL_AREA(#584);
#584 = FILL_AREA_STYLE('',(#585));
#585 = FILL_AREA_STYLE_COLOUR('',#471);
#586 = STYLED_ITEM('color',(#587),#423);
#587 = PRESENTATION_STYLE_ASSIGNMENT((#588));
#588 = SURFACE_STYLE_USAGE(.BOTH.,#589);
#589 = SURFACE_SIDE_STYLE('',(#590));
#590 = SURFACE_STYLE_FILL_AREA(#591);
#591 = FILL_AREA_STYLE('',(#592));
#592 = FILL_AREA_STYLE_COLOUR('',#471);
#593 = STYLED_ITEM('color',(#594),#448);
#594 = PRESENTATION_STYLE_ASSIGNMENT((#595));
#595 = SURFACE_STYLE_USAGE(.BOTH.,#596);
#596 = SURFACE_SIDE_STYLE('',(#597));
#597 = SURFACE_STYLE_FILL_AREA(#598);
#598 = FILL_AREA_STYLE('',(#599));
#599 = FILL_AREA_STYLE_COLOUR('',#500);
ENDSEC;
END-ISO-10303-21;
