ISO-10303-21;
HEADER;
FILE_DESCRIPTION(('FreeCAD Model'),'2;1');
FILE_NAME(
  'D:/KiCAD/packages3D-source/Package_TO_SOT_THT.3dshapes\\TO-39-3.step'
  ,'2017-11-26T14:56:39',('kicad StepUp'),('ksu MCAD'),
  'Open CASCADE STEP processor 6.8','FreeCAD','Unknown');
FILE_SCHEMA(('AUTOMOTIVE_DESIGN_CC2 { 1 2 10303 214 -1 1 5 4 }'));
ENDSEC;
DATA;
#1 = APPLICATION_PROTOCOL_DEFINITION('committee draft',
  'automotive_design',1997,#2);
#2 = APPLICATION_CONTEXT(
  'core data for automotive mechanical design processes');
#3 = SHAPE_DEFINITION_REPRESENTATION(#4,#10);
#4 = PRODUCT_DEFINITION_SHAPE('','',#5);
#5 = PRODUCT_DEFINITION('design','',#6,#9);
#6 = PRODUCT_DEFINITION_FORMATION('','',#7);
#7 = PRODUCT('TO-39-3','TO-39-3','',(#8));
#8 = MECHANICAL_CONTEXT('',#2,'mechanical');
#9 = PRODUCT_DEFINITION_CONTEXT('part definition',#2,'design');
#10 = ADVANCED_BREP_SHAPE_REPRESENTATION('',(#11,#15),#512);
#11 = AXIS2_PLACEMENT_3D('',#12,#13,#14);
#12 = CARTESIAN_POINT('',(0.E+000,0.E+000,0.E+000));
#13 = DIRECTION('',(0.E+000,0.E+000,1.));
#14 = DIRECTION('',(1.,0.E+000,-0.E+000));
#15 = MANIFOLD_SOLID_BREP('',#16);
#16 = CLOSED_SHELL('',(#17,#34,#64,#89,#119,#162,#194,#225,#250,#315,
    #339,#363,#380,#398,#423,#448,#473,#485,#494,#503));
#17 = ADVANCED_FACE('',(#18),#29,.T.);
#18 = FACE_BOUND('',#19,.T.);
#19 = EDGE_LOOP('',(#20));
#20 = ORIENTED_EDGE('',*,*,#21,.T.);
#21 = EDGE_CURVE('',#22,#22,#24,.T.);
#22 = VERTEX_POINT('',#23);
#23 = CARTESIAN_POINT('',(-1.475229517853,7.660538869914E-015,11.5));
#24 = CIRCLE('',#25,4.015229517853);
#25 = AXIS2_PLACEMENT_3D('',#26,#27,#28);
#26 = CARTESIAN_POINT('',(2.54,5.107025913276E-015,11.5));
#27 = DIRECTION('',(0.E+000,4.440892098501E-016,1.));
#28 = DIRECTION('',(-1.,6.359569098813E-016,-2.824216016079E-031));
#29 = PLANE('',#30);
#30 = AXIS2_PLACEMENT_3D('',#31,#32,#33);
#31 = CARTESIAN_POINT('',(2.54,5.107025913276E-015,11.5));
#32 = DIRECTION('',(0.E+000,4.440892098501E-016,1.));
#33 = DIRECTION('',(-1.,6.359569098813E-016,-2.824216016079E-031));
#34 = ADVANCED_FACE('',(#35),#55,.F.);
#35 = FACE_BOUND('',#36,.F.);
#36 = EDGE_LOOP('',(#37,#38,#47,#54));
#37 = ORIENTED_EDGE('',*,*,#21,.T.);
#38 = ORIENTED_EDGE('',*,*,#39,.T.);
#39 = EDGE_CURVE('',#22,#40,#42,.T.);
#40 = VERTEX_POINT('',#41);
#41 = CARTESIAN_POINT('',(-1.71,7.504150313044E-015,11.265229517853));
#42 = CIRCLE('',#43,0.234770482147);
#43 = AXIS2_PLACEMENT_3D('',#44,#45,#46);
#44 = CARTESIAN_POINT('',(-1.475229517853,7.504150313044E-015,
    11.265229517853));
#45 = DIRECTION('',(0.E+000,-1.,6.661338147751E-016));
#46 = DIRECTION('',(1.,0.E+000,0.E+000));
#47 = ORIENTED_EDGE('',*,*,#48,.F.);
#48 = EDGE_CURVE('',#40,#40,#49,.T.);
#49 = CIRCLE('',#50,4.25);
#50 = AXIS2_PLACEMENT_3D('',#51,#52,#53);
#51 = CARTESIAN_POINT('',(2.54,5.002766875363E-015,11.265229517852));
#52 = DIRECTION('',(0.E+000,4.440892098501E-016,1.));
#53 = DIRECTION('',(-1.,5.885608088662E-016,-2.613735045581E-031));
#54 = ORIENTED_EDGE('',*,*,#39,.F.);
#55 = SURFACE_OF_REVOLUTION('',#56,#61);
#56 = CIRCLE('',#57,0.234770482147);
#57 = AXIS2_PLACEMENT_3D('',#58,#59,#60);
#58 = CARTESIAN_POINT('',(-1.475229517853,7.504150313044E-015,
    11.265229517853));
#59 = DIRECTION('',(0.E+000,-1.,6.661338147751E-016));
#60 = DIRECTION('',(1.,0.E+000,0.E+000));
#61 = AXIS1_PLACEMENT('',#62,#63);
#62 = CARTESIAN_POINT('',(2.54,1.13272413671E-015,2.550668));
#63 = DIRECTION('',(0.E+000,4.440892098501E-016,1.));
#64 = ADVANCED_FACE('',(#65),#84,.T.);
#65 = FACE_BOUND('',#66,.T.);
#66 = EDGE_LOOP('',(#67,#76,#82,#83));
#67 = ORIENTED_EDGE('',*,*,#68,.T.);
#68 = EDGE_CURVE('',#69,#69,#71,.T.);
#69 = VERTEX_POINT('',#70);
#70 = CARTESIAN_POINT('',(-1.71,3.74300631775E-015,5.619000619288));
#71 = CIRCLE('',#72,4.25);
#72 = AXIS2_PLACEMENT_3D('',#73,#74,#75);
#73 = CARTESIAN_POINT('',(2.54,2.495337545167E-015,5.619000619288));
#74 = DIRECTION('',(0.E+000,4.440892098501E-016,1.));
#75 = DIRECTION('',(-1.,2.935691229608E-016,-1.30370879852E-031));
#76 = ORIENTED_EDGE('',*,*,#77,.T.);
#77 = EDGE_CURVE('',#69,#40,#78,.T.);
#78 = LINE('',#79,#80);
#79 = CARTESIAN_POINT('',(-1.71,3.74300631775E-015,5.619000619288));
#80 = VECTOR('',#81,1.);
#81 = DIRECTION('',(0.E+000,6.661338147751E-016,1.));
#82 = ORIENTED_EDGE('',*,*,#48,.F.);
#83 = ORIENTED_EDGE('',*,*,#77,.F.);
#84 = CYLINDRICAL_SURFACE('',#85,4.25);
#85 = AXIS2_PLACEMENT_3D('',#86,#87,#88);
#86 = CARTESIAN_POINT('',(2.54,2.495337545167E-015,5.619000619288));
#87 = DIRECTION('',(0.E+000,4.440892098501E-016,1.));
#88 = DIRECTION('',(-1.,2.935691229608E-016,-1.30370879852E-031));
#89 = ADVANCED_FACE('',(#90),#110,.T.);
#90 = FACE_BOUND('',#91,.T.);
#91 = EDGE_LOOP('',(#92,#101,#108,#109));
#92 = ORIENTED_EDGE('',*,*,#93,.T.);
#93 = EDGE_CURVE('',#94,#94,#96,.T.);
#94 = VERTEX_POINT('',#95);
#95 = CARTESIAN_POINT('',(-1.825121878113,3.66565663252E-015,
    5.502883281428));
#96 = CIRCLE('',#97,4.365121878113);
#97 = AXIS2_PLACEMENT_3D('',#98,#99,#100);
#98 = CARTESIAN_POINT('',(2.54,2.443771088347E-015,5.502883281428));
#99 = DIRECTION('',(0.E+000,4.440892098501E-016,1.));
#100 = DIRECTION('',(-1.,2.799201438796E-016,-1.243095155166E-031));
#101 = ORIENTED_EDGE('',*,*,#102,.T.);
#102 = EDGE_CURVE('',#94,#69,#103,.T.);
#103 = CIRCLE('',#104,0.116121641734);
#104 = AXIS2_PLACEMENT_3D('',#105,#106,#107);
#105 = CARTESIAN_POINT('',(-1.826121641734,3.74300631775E-015,
    5.619000619288));
#106 = DIRECTION('',(0.E+000,-1.,6.661338147751E-016));
#107 = DIRECTION('',(1.,0.E+000,0.E+000));
#108 = ORIENTED_EDGE('',*,*,#68,.F.);
#109 = ORIENTED_EDGE('',*,*,#102,.F.);
#110 = SURFACE_OF_REVOLUTION('',#111,#116);
#111 = CIRCLE('',#112,0.116121641734);
#112 = AXIS2_PLACEMENT_3D('',#113,#114,#115);
#113 = CARTESIAN_POINT('',(-1.826121641734,3.74300631775E-015,
    5.619000619288));
#114 = DIRECTION('',(0.E+000,-1.,6.661338147751E-016));
#115 = DIRECTION('',(1.,0.E+000,0.E+000));
#116 = AXIS1_PLACEMENT('',#117,#118);
#117 = CARTESIAN_POINT('',(2.54,1.13272413671E-015,2.550668));
#118 = DIRECTION('',(0.E+000,4.440892098501E-016,1.));
#119 = ADVANCED_FACE('',(#120),#157,.T.);
#120 = FACE_BOUND('',#121,.T.);
#121 = EDGE_LOOP('',(#122,#130,#139,#148,#155,#156));
#122 = ORIENTED_EDGE('',*,*,#123,.F.);
#123 = EDGE_CURVE('',#124,#94,#126,.T.);
#124 = VERTEX_POINT('',#125);
#125 = CARTESIAN_POINT('',(-2.16,3.663735981263E-015,5.5));
#126 = LINE('',#127,#128);
#127 = CARTESIAN_POINT('',(-2.16,3.663735981263E-015,5.5));
#128 = VECTOR('',#129,1.);
#129 = DIRECTION('',(0.999962936504,5.735161377654E-018,
    8.609623547771E-003));
#130 = ORIENTED_EDGE('',*,*,#131,.T.);
#131 = EDGE_CURVE('',#124,#132,#134,.T.);
#132 = VERTEX_POINT('',#133);
#133 = CARTESIAN_POINT('',(-0.465407786869,3.613519618686,5.5));
#134 = CIRCLE('',#135,4.7);
#135 = AXIS2_PLACEMENT_3D('',#136,#137,#138);
#136 = CARTESIAN_POINT('',(2.54,2.442490654175E-015,5.5));
#137 = DIRECTION('',(-2.189528850508E-047,4.440892098501E-016,1.));
#138 = DIRECTION('',(-1.,2.598394312952E-016,-1.153918877318E-031));
#139 = ORIENTED_EDGE('',*,*,#140,.T.);
#140 = EDGE_CURVE('',#132,#141,#143,.T.);
#141 = VERTEX_POINT('',#142);
#142 = CARTESIAN_POINT('',(-1.073519618688,3.005407786866,5.5));
#143 = CIRCLE('',#144,4.7);
#144 = AXIS2_PLACEMENT_3D('',#145,#146,#147);
#145 = CARTESIAN_POINT('',(2.54,2.442490654175E-015,5.5));
#146 = DIRECTION('',(-2.189528850508E-047,4.440892098501E-016,1.));
#147 = DIRECTION('',(-1.,2.598394312952E-016,-1.153918877318E-031));
#148 = ORIENTED_EDGE('',*,*,#149,.T.);
#149 = EDGE_CURVE('',#141,#124,#150,.T.);
#150 = CIRCLE('',#151,4.7);
#151 = AXIS2_PLACEMENT_3D('',#152,#153,#154);
#152 = CARTESIAN_POINT('',(2.54,2.442490654175E-015,5.5));
#153 = DIRECTION('',(-2.189528850508E-047,4.440892098501E-016,1.));
#154 = DIRECTION('',(-1.,2.598394312952E-016,-1.153918877318E-031));
#155 = ORIENTED_EDGE('',*,*,#123,.T.);
#156 = ORIENTED_EDGE('',*,*,#93,.F.);
#157 = CONICAL_SURFACE('',#158,4.7,1.562186596878);
#158 = AXIS2_PLACEMENT_3D('',#159,#160,#161);
#159 = CARTESIAN_POINT('',(2.54,2.442490654175E-015,5.5));
#160 = DIRECTION('',(0.E+000,-4.440892098501E-016,-1.));
#161 = DIRECTION('',(-1.,2.598394312952E-016,-1.153918877318E-031));
#162 = ADVANCED_FACE('',(#163),#189,.T.);
#163 = FACE_BOUND('',#164,.T.);
#164 = EDGE_LOOP('',(#165,#176,#182,#183));
#165 = ORIENTED_EDGE('',*,*,#166,.T.);
#166 = EDGE_CURVE('',#167,#169,#171,.T.);
#167 = VERTEX_POINT('',#168);
#168 = CARTESIAN_POINT('',(-1.073519618688,3.005407786866,5.));
#169 = VERTEX_POINT('',#170);
#170 = CARTESIAN_POINT('',(-2.16,3.330669073875E-015,5.));
#171 = CIRCLE('',#172,4.7);
#172 = AXIS2_PLACEMENT_3D('',#173,#174,#175);
#173 = CARTESIAN_POINT('',(2.54,2.22044604925E-015,5.));
#174 = DIRECTION('',(0.E+000,4.440892098501E-016,1.));
#175 = DIRECTION('',(-1.,2.362176648139E-016,-1.049017161198E-031));
#176 = ORIENTED_EDGE('',*,*,#177,.T.);
#177 = EDGE_CURVE('',#169,#124,#178,.T.);
#178 = LINE('',#179,#180);
#179 = CARTESIAN_POINT('',(-2.16,3.330669073875E-015,5.));
#180 = VECTOR('',#181,1.);
#181 = DIRECTION('',(0.E+000,6.661338147751E-016,1.));
#182 = ORIENTED_EDGE('',*,*,#149,.F.);
#183 = ORIENTED_EDGE('',*,*,#184,.F.);
#184 = EDGE_CURVE('',#167,#141,#185,.T.);
#185 = LINE('',#186,#187);
#186 = CARTESIAN_POINT('',(-1.073519618688,3.005407786866,5.));
#187 = VECTOR('',#188,1.);
#188 = DIRECTION('',(0.E+000,4.440892098501E-016,1.));
#189 = CYLINDRICAL_SURFACE('',#190,4.7);
#190 = AXIS2_PLACEMENT_3D('',#191,#192,#193);
#191 = CARTESIAN_POINT('',(2.54,2.22044604925E-015,5.));
#192 = DIRECTION('',(0.E+000,4.440892098501E-016,1.));
#193 = DIRECTION('',(-1.,2.362176648139E-016,-1.049017161198E-031));
#194 = ADVANCED_FACE('',(#195),#220,.F.);
#195 = FACE_BOUND('',#196,.F.);
#196 = EDGE_LOOP('',(#197,#198,#206,#214));
#197 = ORIENTED_EDGE('',*,*,#140,.T.);
#198 = ORIENTED_EDGE('',*,*,#199,.T.);
#199 = EDGE_CURVE('',#141,#200,#202,.T.);
#200 = VERTEX_POINT('',#201);
#201 = CARTESIAN_POINT('',(-1.794564568675,3.726452736852,5.5));
#202 = LINE('',#203,#204);
#203 = CARTESIAN_POINT('',(2.23594408409,-0.30405591591,5.5));
#204 = VECTOR('',#205,1.);
#205 = DIRECTION('',(-0.707106781187,0.707106781186,0.E+000));
#206 = ORIENTED_EDGE('',*,*,#207,.T.);
#207 = EDGE_CURVE('',#200,#208,#210,.T.);
#208 = VERTEX_POINT('',#209);
#209 = CARTESIAN_POINT('',(-1.186452736855,4.334564568672,5.5));
#210 = LINE('',#211,#212);
#211 = CARTESIAN_POINT('',(-1.794564568675,3.726452736852,5.5));
#212 = VECTOR('',#213,1.);
#213 = DIRECTION('',(0.707106781187,0.707106781187,0.E+000));
#214 = ORIENTED_EDGE('',*,*,#215,.F.);
#215 = EDGE_CURVE('',#132,#208,#216,.T.);
#216 = LINE('',#217,#218);
#217 = CARTESIAN_POINT('',(2.84405591591,0.30405591591,5.5));
#218 = VECTOR('',#219,1.);
#219 = DIRECTION('',(-0.707106781187,0.707106781186,0.E+000));
#220 = PLANE('',#221);
#221 = AXIS2_PLACEMENT_3D('',#222,#223,#224);
#222 = CARTESIAN_POINT('',(2.23594408409,-0.30405591591,5.5));
#223 = DIRECTION('',(0.E+000,0.E+000,-1.));
#224 = DIRECTION('',(-1.,0.E+000,0.E+000));
#225 = ADVANCED_FACE('',(#226),#245,.T.);
#226 = FACE_BOUND('',#227,.T.);
#227 = EDGE_LOOP('',(#228,#229,#238,#244));
#228 = ORIENTED_EDGE('',*,*,#177,.F.);
#229 = ORIENTED_EDGE('',*,*,#230,.T.);
#230 = EDGE_CURVE('',#169,#231,#233,.T.);
#231 = VERTEX_POINT('',#232);
#232 = CARTESIAN_POINT('',(-0.465407786869,3.613519618686,5.));
#233 = CIRCLE('',#234,4.7);
#234 = AXIS2_PLACEMENT_3D('',#235,#236,#237);
#235 = CARTESIAN_POINT('',(2.54,2.22044604925E-015,5.));
#236 = DIRECTION('',(0.E+000,4.440892098501E-016,1.));
#237 = DIRECTION('',(-1.,2.362176648139E-016,-1.049017161198E-031));
#238 = ORIENTED_EDGE('',*,*,#239,.T.);
#239 = EDGE_CURVE('',#231,#132,#240,.T.);
#240 = LINE('',#241,#242);
#241 = CARTESIAN_POINT('',(-0.465407786869,3.613519618686,5.));
#242 = VECTOR('',#243,1.);
#243 = DIRECTION('',(0.E+000,4.440892098501E-016,1.));
#244 = ORIENTED_EDGE('',*,*,#131,.F.);
#245 = CYLINDRICAL_SURFACE('',#246,4.7);
#246 = AXIS2_PLACEMENT_3D('',#247,#248,#249);
#247 = CARTESIAN_POINT('',(2.54,2.22044604925E-015,5.));
#248 = DIRECTION('',(0.E+000,4.440892098501E-016,1.));
#249 = DIRECTION('',(-1.,2.362176648139E-016,-1.049017161198E-031));
#250 = ADVANCED_FACE('',(#251,#277,#288,#299),#310,.F.);
#251 = FACE_BOUND('',#252,.T.);
#252 = EDGE_LOOP('',(#253,#254,#255,#263,#271));
#253 = ORIENTED_EDGE('',*,*,#230,.F.);
#254 = ORIENTED_EDGE('',*,*,#166,.F.);
#255 = ORIENTED_EDGE('',*,*,#256,.F.);
#256 = EDGE_CURVE('',#257,#167,#259,.T.);
#257 = VERTEX_POINT('',#258);
#258 = CARTESIAN_POINT('',(2.23594408409,-0.30405591591,5.));
#259 = LINE('',#260,#261);
#260 = CARTESIAN_POINT('',(2.23594408409,-0.30405591591,5.));
#261 = VECTOR('',#262,1.);
#262 = DIRECTION('',(-0.707106781187,0.707106781186,0.E+000));
#263 = ORIENTED_EDGE('',*,*,#264,.T.);
#264 = EDGE_CURVE('',#257,#265,#267,.T.);
#265 = VERTEX_POINT('',#266);
#266 = CARTESIAN_POINT('',(2.84405591591,0.30405591591,5.));
#267 = LINE('',#268,#269);
#268 = CARTESIAN_POINT('',(2.23594408409,-0.30405591591,5.));
#269 = VECTOR('',#270,1.);
#270 = DIRECTION('',(0.707106781187,0.707106781187,0.E+000));
#271 = ORIENTED_EDGE('',*,*,#272,.T.);
#272 = EDGE_CURVE('',#265,#231,#273,.T.);
#273 = LINE('',#274,#275);
#274 = CARTESIAN_POINT('',(2.84405591591,0.30405591591,5.));
#275 = VECTOR('',#276,1.);
#276 = DIRECTION('',(-0.707106781187,0.707106781186,0.E+000));
#277 = FACE_BOUND('',#278,.T.);
#278 = EDGE_LOOP('',(#279));
#279 = ORIENTED_EDGE('',*,*,#280,.T.);
#280 = EDGE_CURVE('',#281,#281,#283,.T.);
#281 = VERTEX_POINT('',#282);
#282 = CARTESIAN_POINT('',(2.78,-2.54,5.));
#283 = CIRCLE('',#284,0.24);
#284 = AXIS2_PLACEMENT_3D('',#285,#286,#287);
#285 = CARTESIAN_POINT('',(2.54,-2.54,5.));
#286 = DIRECTION('',(0.E+000,0.E+000,1.));
#287 = DIRECTION('',(1.,0.E+000,0.E+000));
#288 = FACE_BOUND('',#289,.T.);
#289 = EDGE_LOOP('',(#290));
#290 = ORIENTED_EDGE('',*,*,#291,.T.);
#291 = EDGE_CURVE('',#292,#292,#294,.T.);
#292 = VERTEX_POINT('',#293);
#293 = CARTESIAN_POINT('',(0.24,0.E+000,5.));
#294 = CIRCLE('',#295,0.24);
#295 = AXIS2_PLACEMENT_3D('',#296,#297,#298);
#296 = CARTESIAN_POINT('',(0.E+000,0.E+000,5.));
#297 = DIRECTION('',(0.E+000,0.E+000,1.));
#298 = DIRECTION('',(1.,0.E+000,0.E+000));
#299 = FACE_BOUND('',#300,.T.);
#300 = EDGE_LOOP('',(#301));
#301 = ORIENTED_EDGE('',*,*,#302,.T.);
#302 = EDGE_CURVE('',#303,#303,#305,.T.);
#303 = VERTEX_POINT('',#304);
#304 = CARTESIAN_POINT('',(5.32,0.E+000,5.));
#305 = CIRCLE('',#306,0.24);
#306 = AXIS2_PLACEMENT_3D('',#307,#308,#309);
#307 = CARTESIAN_POINT('',(5.08,0.E+000,5.));
#308 = DIRECTION('',(0.E+000,0.E+000,1.));
#309 = DIRECTION('',(1.,0.E+000,0.E+000));
#310 = PLANE('',#311);
#311 = AXIS2_PLACEMENT_3D('',#312,#313,#314);
#312 = CARTESIAN_POINT('',(2.54,2.22044604925E-015,5.));
#313 = DIRECTION('',(0.E+000,4.440892098501E-016,1.));
#314 = DIRECTION('',(-1.,2.362176648139E-016,-1.049017161198E-031));
#315 = ADVANCED_FACE('',(#316),#334,.T.);
#316 = FACE_BOUND('',#317,.T.);
#317 = EDGE_LOOP('',(#318,#326,#327,#328));
#318 = ORIENTED_EDGE('',*,*,#319,.F.);
#319 = EDGE_CURVE('',#167,#320,#322,.T.);
#320 = VERTEX_POINT('',#321);
#321 = CARTESIAN_POINT('',(-1.794564568675,3.726452736852,5.));
#322 = LINE('',#323,#324);
#323 = CARTESIAN_POINT('',(2.23594408409,-0.30405591591,5.));
#324 = VECTOR('',#325,1.);
#325 = DIRECTION('',(-0.707106781187,0.707106781186,0.E+000));
#326 = ORIENTED_EDGE('',*,*,#184,.T.);
#327 = ORIENTED_EDGE('',*,*,#199,.T.);
#328 = ORIENTED_EDGE('',*,*,#329,.F.);
#329 = EDGE_CURVE('',#320,#200,#330,.T.);
#330 = LINE('',#331,#332);
#331 = CARTESIAN_POINT('',(-1.794564568675,3.726452736852,5.));
#332 = VECTOR('',#333,1.);
#333 = DIRECTION('',(0.E+000,0.E+000,1.));
#334 = PLANE('',#335);
#335 = AXIS2_PLACEMENT_3D('',#336,#337,#338);
#336 = CARTESIAN_POINT('',(2.23594408409,-0.30405591591,5.));
#337 = DIRECTION('',(-0.707106781186,-0.707106781187,0.E+000));
#338 = DIRECTION('',(-0.707106781187,0.707106781186,0.E+000));
#339 = ADVANCED_FACE('',(#340),#358,.F.);
#340 = FACE_BOUND('',#341,.F.);
#341 = EDGE_LOOP('',(#342,#350,#351,#352));
#342 = ORIENTED_EDGE('',*,*,#343,.F.);
#343 = EDGE_CURVE('',#231,#344,#346,.T.);
#344 = VERTEX_POINT('',#345);
#345 = CARTESIAN_POINT('',(-1.186452736855,4.334564568672,5.));
#346 = LINE('',#347,#348);
#347 = CARTESIAN_POINT('',(2.84405591591,0.30405591591,5.));
#348 = VECTOR('',#349,1.);
#349 = DIRECTION('',(-0.707106781187,0.707106781186,0.E+000));
#350 = ORIENTED_EDGE('',*,*,#239,.T.);
#351 = ORIENTED_EDGE('',*,*,#215,.T.);
#352 = ORIENTED_EDGE('',*,*,#353,.F.);
#353 = EDGE_CURVE('',#344,#208,#354,.T.);
#354 = LINE('',#355,#356);
#355 = CARTESIAN_POINT('',(-1.186452736855,4.334564568672,5.));
#356 = VECTOR('',#357,1.);
#357 = DIRECTION('',(0.E+000,0.E+000,1.));
#358 = PLANE('',#359);
#359 = AXIS2_PLACEMENT_3D('',#360,#361,#362);
#360 = CARTESIAN_POINT('',(2.84405591591,0.30405591591,5.));
#361 = DIRECTION('',(-0.707106781186,-0.707106781187,0.E+000));
#362 = DIRECTION('',(-0.707106781187,0.707106781186,0.E+000));
#363 = ADVANCED_FACE('',(#364),#375,.T.);
#364 = FACE_BOUND('',#365,.T.);
#365 = EDGE_LOOP('',(#366,#367,#368,#369));
#366 = ORIENTED_EDGE('',*,*,#329,.T.);
#367 = ORIENTED_EDGE('',*,*,#207,.T.);
#368 = ORIENTED_EDGE('',*,*,#353,.F.);
#369 = ORIENTED_EDGE('',*,*,#370,.F.);
#370 = EDGE_CURVE('',#320,#344,#371,.T.);
#371 = LINE('',#372,#373);
#372 = CARTESIAN_POINT('',(-1.794564568675,3.726452736852,5.));
#373 = VECTOR('',#374,1.);
#374 = DIRECTION('',(0.707106781187,0.707106781187,0.E+000));
#375 = PLANE('',#376);
#376 = AXIS2_PLACEMENT_3D('',#377,#378,#379);
#377 = CARTESIAN_POINT('',(-1.794564568675,3.726452736852,5.));
#378 = DIRECTION('',(-0.707106781187,0.707106781187,0.E+000));
#379 = DIRECTION('',(0.707106781187,0.707106781187,0.E+000));
#380 = ADVANCED_FACE('',(#381),#393,.T.);
#381 = FACE_BOUND('',#382,.T.);
#382 = EDGE_LOOP('',(#383,#384,#385,#392));
#383 = ORIENTED_EDGE('',*,*,#264,.F.);
#384 = ORIENTED_EDGE('',*,*,#256,.T.);
#385 = ORIENTED_EDGE('',*,*,#386,.F.);
#386 = EDGE_CURVE('',#231,#167,#387,.T.);
#387 = CIRCLE('',#388,4.7);
#388 = AXIS2_PLACEMENT_3D('',#389,#390,#391);
#389 = CARTESIAN_POINT('',(2.54,2.22044604925E-015,5.));
#390 = DIRECTION('',(0.E+000,4.440892098501E-016,1.));
#391 = DIRECTION('',(-1.,2.362176648139E-016,-1.049017161198E-031));
#392 = ORIENTED_EDGE('',*,*,#272,.F.);
#393 = PLANE('',#394);
#394 = AXIS2_PLACEMENT_3D('',#395,#396,#397);
#395 = CARTESIAN_POINT('',(2.23594408409,-0.30405591591,5.));
#396 = DIRECTION('',(0.E+000,0.E+000,-1.));
#397 = DIRECTION('',(-1.,0.E+000,0.E+000));
#398 = ADVANCED_FACE('',(#399),#418,.T.);
#399 = FACE_BOUND('',#400,.T.);
#400 = EDGE_LOOP('',(#401,#402,#410,#417));
#401 = ORIENTED_EDGE('',*,*,#280,.F.);
#402 = ORIENTED_EDGE('',*,*,#403,.T.);
#403 = EDGE_CURVE('',#281,#404,#406,.T.);
#404 = VERTEX_POINT('',#405);
#405 = CARTESIAN_POINT('',(2.78,-2.54,-5.));
#406 = LINE('',#407,#408);
#407 = CARTESIAN_POINT('',(2.78,-2.54,5.));
#408 = VECTOR('',#409,1.);
#409 = DIRECTION('',(-0.E+000,-0.E+000,-1.));
#410 = ORIENTED_EDGE('',*,*,#411,.T.);
#411 = EDGE_CURVE('',#404,#404,#412,.T.);
#412 = CIRCLE('',#413,0.24);
#413 = AXIS2_PLACEMENT_3D('',#414,#415,#416);
#414 = CARTESIAN_POINT('',(2.54,-2.54,-5.));
#415 = DIRECTION('',(0.E+000,0.E+000,1.));
#416 = DIRECTION('',(1.,0.E+000,0.E+000));
#417 = ORIENTED_EDGE('',*,*,#403,.F.);
#418 = CYLINDRICAL_SURFACE('',#419,0.24);
#419 = AXIS2_PLACEMENT_3D('',#420,#421,#422);
#420 = CARTESIAN_POINT('',(2.54,-2.54,5.));
#421 = DIRECTION('',(0.E+000,0.E+000,1.));
#422 = DIRECTION('',(1.,0.E+000,0.E+000));
#423 = ADVANCED_FACE('',(#424),#443,.T.);
#424 = FACE_BOUND('',#425,.T.);
#425 = EDGE_LOOP('',(#426,#427,#435,#442));
#426 = ORIENTED_EDGE('',*,*,#291,.F.);
#427 = ORIENTED_EDGE('',*,*,#428,.T.);
#428 = EDGE_CURVE('',#292,#429,#431,.T.);
#429 = VERTEX_POINT('',#430);
#430 = CARTESIAN_POINT('',(0.24,0.E+000,-5.));
#431 = LINE('',#432,#433);
#432 = CARTESIAN_POINT('',(0.24,0.E+000,5.));
#433 = VECTOR('',#434,1.);
#434 = DIRECTION('',(-0.E+000,-0.E+000,-1.));
#435 = ORIENTED_EDGE('',*,*,#436,.T.);
#436 = EDGE_CURVE('',#429,#429,#437,.T.);
#437 = CIRCLE('',#438,0.24);
#438 = AXIS2_PLACEMENT_3D('',#439,#440,#441);
#439 = CARTESIAN_POINT('',(0.E+000,0.E+000,-5.));
#440 = DIRECTION('',(0.E+000,0.E+000,1.));
#441 = DIRECTION('',(1.,0.E+000,0.E+000));
#442 = ORIENTED_EDGE('',*,*,#428,.F.);
#443 = CYLINDRICAL_SURFACE('',#444,0.24);
#444 = AXIS2_PLACEMENT_3D('',#445,#446,#447);
#445 = CARTESIAN_POINT('',(0.E+000,0.E+000,5.));
#446 = DIRECTION('',(0.E+000,0.E+000,1.));
#447 = DIRECTION('',(1.,0.E+000,0.E+000));
#448 = ADVANCED_FACE('',(#449),#468,.T.);
#449 = FACE_BOUND('',#450,.T.);
#450 = EDGE_LOOP('',(#451,#452,#460,#467));
#451 = ORIENTED_EDGE('',*,*,#302,.F.);
#452 = ORIENTED_EDGE('',*,*,#453,.T.);
#453 = EDGE_CURVE('',#303,#454,#456,.T.);
#454 = VERTEX_POINT('',#455);
#455 = CARTESIAN_POINT('',(5.32,0.E+000,-5.));
#456 = LINE('',#457,#458);
#457 = CARTESIAN_POINT('',(5.32,0.E+000,5.));
#458 = VECTOR('',#459,1.);
#459 = DIRECTION('',(-0.E+000,-0.E+000,-1.));
#460 = ORIENTED_EDGE('',*,*,#461,.T.);
#461 = EDGE_CURVE('',#454,#454,#462,.T.);
#462 = CIRCLE('',#463,0.24);
#463 = AXIS2_PLACEMENT_3D('',#464,#465,#466);
#464 = CARTESIAN_POINT('',(5.08,0.E+000,-5.));
#465 = DIRECTION('',(0.E+000,0.E+000,1.));
#466 = DIRECTION('',(1.,0.E+000,0.E+000));
#467 = ORIENTED_EDGE('',*,*,#453,.F.);
#468 = CYLINDRICAL_SURFACE('',#469,0.24);
#469 = AXIS2_PLACEMENT_3D('',#470,#471,#472);
#470 = CARTESIAN_POINT('',(5.08,0.E+000,5.));
#471 = DIRECTION('',(0.E+000,0.E+000,1.));
#472 = DIRECTION('',(1.,0.E+000,0.E+000));
#473 = ADVANCED_FACE('',(#474),#480,.T.);
#474 = FACE_BOUND('',#475,.T.);
#475 = EDGE_LOOP('',(#476,#477,#478,#479));
#476 = ORIENTED_EDGE('',*,*,#386,.T.);
#477 = ORIENTED_EDGE('',*,*,#319,.T.);
#478 = ORIENTED_EDGE('',*,*,#370,.T.);
#479 = ORIENTED_EDGE('',*,*,#343,.F.);
#480 = PLANE('',#481);
#481 = AXIS2_PLACEMENT_3D('',#482,#483,#484);
#482 = CARTESIAN_POINT('',(2.23594408409,-0.30405591591,5.));
#483 = DIRECTION('',(0.E+000,0.E+000,-1.));
#484 = DIRECTION('',(-1.,0.E+000,0.E+000));
#485 = ADVANCED_FACE('',(#486),#489,.T.);
#486 = FACE_BOUND('',#487,.F.);
#487 = EDGE_LOOP('',(#488));
#488 = ORIENTED_EDGE('',*,*,#411,.T.);
#489 = PLANE('',#490);
#490 = AXIS2_PLACEMENT_3D('',#491,#492,#493);
#491 = CARTESIAN_POINT('',(2.78,-2.54,-5.));
#492 = DIRECTION('',(0.E+000,0.E+000,-1.));
#493 = DIRECTION('',(-1.,0.E+000,0.E+000));
#494 = ADVANCED_FACE('',(#495),#498,.T.);
#495 = FACE_BOUND('',#496,.F.);
#496 = EDGE_LOOP('',(#497));
#497 = ORIENTED_EDGE('',*,*,#436,.T.);
#498 = PLANE('',#499);
#499 = AXIS2_PLACEMENT_3D('',#500,#501,#502);
#500 = CARTESIAN_POINT('',(0.24,0.E+000,-5.));
#501 = DIRECTION('',(0.E+000,0.E+000,-1.));
#502 = DIRECTION('',(-1.,0.E+000,0.E+000));
#503 = ADVANCED_FACE('',(#504),#507,.T.);
#504 = FACE_BOUND('',#505,.F.);
#505 = EDGE_LOOP('',(#506));
#506 = ORIENTED_EDGE('',*,*,#461,.T.);
#507 = PLANE('',#508);
#508 = AXIS2_PLACEMENT_3D('',#509,#510,#511);
#509 = CARTESIAN_POINT('',(5.32,0.E+000,-5.));
#510 = DIRECTION('',(0.E+000,0.E+000,-1.));
#511 = DIRECTION('',(-1.,0.E+000,0.E+000));
#512 = ( GEOMETRIC_REPRESENTATION_CONTEXT(3) 
GLOBAL_UNCERTAINTY_ASSIGNED_CONTEXT((#516)) GLOBAL_UNIT_ASSIGNED_CONTEXT
((#513,#514,#515)) REPRESENTATION_CONTEXT('Context #1',
  '3D Context with UNIT and UNCERTAINTY') );
#513 = ( LENGTH_UNIT() NAMED_UNIT(*) SI_UNIT(.MILLI.,.METRE.) );
#514 = ( NAMED_UNIT(*) PLANE_ANGLE_UNIT() SI_UNIT($,.RADIAN.) );
#515 = ( NAMED_UNIT(*) SI_UNIT($,.STERADIAN.) SOLID_ANGLE_UNIT() );
#516 = UNCERTAINTY_MEASURE_WITH_UNIT(LENGTH_MEASURE(1.E-007),#513,
  'distance_accuracy_value','confusion accuracy');
#517 = PRODUCT_TYPE('part',$,(#7));
#518 = MECHANICAL_DESIGN_GEOMETRIC_PRESENTATION_REPRESENTATION('',(#519,
    #527,#534,#541,#548,#555,#562,#569,#576,#583,#590,#597,#604,#611,
    #619,#626,#633,#640,#647,#654),#512);
#519 = STYLED_ITEM('color',(#520),#17);
#520 = PRESENTATION_STYLE_ASSIGNMENT((#521));
#521 = SURFACE_STYLE_USAGE(.BOTH.,#522);
#522 = SURFACE_SIDE_STYLE('',(#523));
#523 = SURFACE_STYLE_FILL_AREA(#524);
#524 = FILL_AREA_STYLE('',(#525));
#525 = FILL_AREA_STYLE_COLOUR('',#526);
#526 = COLOUR_RGB('',0.40000000596,0.40000000596,0.40000000596);
#527 = STYLED_ITEM('color',(#528),#34);
#528 = PRESENTATION_STYLE_ASSIGNMENT((#529));
#529 = SURFACE_STYLE_USAGE(.BOTH.,#530);
#530 = SURFACE_SIDE_STYLE('',(#531));
#531 = SURFACE_STYLE_FILL_AREA(#532);
#532 = FILL_AREA_STYLE('',(#533));
#533 = FILL_AREA_STYLE_COLOUR('',#526);
#534 = STYLED_ITEM('color',(#535),#64);
#535 = PRESENTATION_STYLE_ASSIGNMENT((#536));
#536 = SURFACE_STYLE_USAGE(.BOTH.,#537);
#537 = SURFACE_SIDE_STYLE('',(#538));
#538 = SURFACE_STYLE_FILL_AREA(#539);
#539 = FILL_AREA_STYLE('',(#540));
#540 = FILL_AREA_STYLE_COLOUR('',#526);
#541 = STYLED_ITEM('color',(#542),#89);
#542 = PRESENTATION_STYLE_ASSIGNMENT((#543));
#543 = SURFACE_STYLE_USAGE(.BOTH.,#544);
#544 = SURFACE_SIDE_STYLE('',(#545));
#545 = SURFACE_STYLE_FILL_AREA(#546);
#546 = FILL_AREA_STYLE('',(#547));
#547 = FILL_AREA_STYLE_COLOUR('',#526);
#548 = STYLED_ITEM('color',(#549),#119);
#549 = PRESENTATION_STYLE_ASSIGNMENT((#550));
#550 = SURFACE_STYLE_USAGE(.BOTH.,#551);
#551 = SURFACE_SIDE_STYLE('',(#552));
#552 = SURFACE_STYLE_FILL_AREA(#553);
#553 = FILL_AREA_STYLE('',(#554));
#554 = FILL_AREA_STYLE_COLOUR('',#526);
#555 = STYLED_ITEM('color',(#556),#162);
#556 = PRESENTATION_STYLE_ASSIGNMENT((#557));
#557 = SURFACE_STYLE_USAGE(.BOTH.,#558);
#558 = SURFACE_SIDE_STYLE('',(#559));
#559 = SURFACE_STYLE_FILL_AREA(#560);
#560 = FILL_AREA_STYLE('',(#561));
#561 = FILL_AREA_STYLE_COLOUR('',#526);
#562 = STYLED_ITEM('color',(#563),#194);
#563 = PRESENTATION_STYLE_ASSIGNMENT((#564));
#564 = SURFACE_STYLE_USAGE(.BOTH.,#565);
#565 = SURFACE_SIDE_STYLE('',(#566));
#566 = SURFACE_STYLE_FILL_AREA(#567);
#567 = FILL_AREA_STYLE('',(#568));
#568 = FILL_AREA_STYLE_COLOUR('',#526);
#569 = STYLED_ITEM('color',(#570),#225);
#570 = PRESENTATION_STYLE_ASSIGNMENT((#571));
#571 = SURFACE_STYLE_USAGE(.BOTH.,#572);
#572 = SURFACE_SIDE_STYLE('',(#573));
#573 = SURFACE_STYLE_FILL_AREA(#574);
#574 = FILL_AREA_STYLE('',(#575));
#575 = FILL_AREA_STYLE_COLOUR('',#526);
#576 = STYLED_ITEM('color',(#577),#250);
#577 = PRESENTATION_STYLE_ASSIGNMENT((#578));
#578 = SURFACE_STYLE_USAGE(.BOTH.,#579);
#579 = SURFACE_SIDE_STYLE('',(#580));
#580 = SURFACE_STYLE_FILL_AREA(#581);
#581 = FILL_AREA_STYLE('',(#582));
#582 = FILL_AREA_STYLE_COLOUR('',#526);
#583 = STYLED_ITEM('color',(#584),#315);
#584 = PRESENTATION_STYLE_ASSIGNMENT((#585));
#585 = SURFACE_STYLE_USAGE(.BOTH.,#586);
#586 = SURFACE_SIDE_STYLE('',(#587));
#587 = SURFACE_STYLE_FILL_AREA(#588);
#588 = FILL_AREA_STYLE('',(#589));
#589 = FILL_AREA_STYLE_COLOUR('',#526);
#590 = STYLED_ITEM('color',(#591),#339);
#591 = PRESENTATION_STYLE_ASSIGNMENT((#592));
#592 = SURFACE_STYLE_USAGE(.BOTH.,#593);
#593 = SURFACE_SIDE_STYLE('',(#594));
#594 = SURFACE_STYLE_FILL_AREA(#595);
#595 = FILL_AREA_STYLE('',(#596));
#596 = FILL_AREA_STYLE_COLOUR('',#526);
#597 = STYLED_ITEM('color',(#598),#363);
#598 = PRESENTATION_STYLE_ASSIGNMENT((#599));
#599 = SURFACE_STYLE_USAGE(.BOTH.,#600);
#600 = SURFACE_SIDE_STYLE('',(#601));
#601 = SURFACE_STYLE_FILL_AREA(#602);
#602 = FILL_AREA_STYLE('',(#603));
#603 = FILL_AREA_STYLE_COLOUR('',#526);
#604 = STYLED_ITEM('color',(#605),#380);
#605 = PRESENTATION_STYLE_ASSIGNMENT((#606));
#606 = SURFACE_STYLE_USAGE(.BOTH.,#607);
#607 = SURFACE_SIDE_STYLE('',(#608));
#608 = SURFACE_STYLE_FILL_AREA(#609);
#609 = FILL_AREA_STYLE('',(#610));
#610 = FILL_AREA_STYLE_COLOUR('',#526);
#611 = STYLED_ITEM('color',(#612),#398);
#612 = PRESENTATION_STYLE_ASSIGNMENT((#613));
#613 = SURFACE_STYLE_USAGE(.BOTH.,#614);
#614 = SURFACE_SIDE_STYLE('',(#615));
#615 = SURFACE_STYLE_FILL_AREA(#616);
#616 = FILL_AREA_STYLE('',(#617));
#617 = FILL_AREA_STYLE_COLOUR('',#618);
#618 = COLOUR_RGB('',0.85900002718,0.737999975681,0.495999991894);
#619 = STYLED_ITEM('color',(#620),#423);
#620 = PRESENTATION_STYLE_ASSIGNMENT((#621));
#621 = SURFACE_STYLE_USAGE(.BOTH.,#622);
#622 = SURFACE_SIDE_STYLE('',(#623));
#623 = SURFACE_STYLE_FILL_AREA(#624);
#624 = FILL_AREA_STYLE('',(#625));
#625 = FILL_AREA_STYLE_COLOUR('',#618);
#626 = STYLED_ITEM('color',(#627),#448);
#627 = PRESENTATION_STYLE_ASSIGNMENT((#628));
#628 = SURFACE_STYLE_USAGE(.BOTH.,#629);
#629 = SURFACE_SIDE_STYLE('',(#630));
#630 = SURFACE_STYLE_FILL_AREA(#631);
#631 = FILL_AREA_STYLE('',(#632));
#632 = FILL_AREA_STYLE_COLOUR('',#618);
#633 = STYLED_ITEM('color',(#634),#473);
#634 = PRESENTATION_STYLE_ASSIGNMENT((#635));
#635 = SURFACE_STYLE_USAGE(.BOTH.,#636);
#636 = SURFACE_SIDE_STYLE('',(#637));
#637 = SURFACE_STYLE_FILL_AREA(#638);
#638 = FILL_AREA_STYLE('',(#639));
#639 = FILL_AREA_STYLE_COLOUR('',#526);
#640 = STYLED_ITEM('color',(#641),#485);
#641 = PRESENTATION_STYLE_ASSIGNMENT((#642));
#642 = SURFACE_STYLE_USAGE(.BOTH.,#643);
#643 = SURFACE_SIDE_STYLE('',(#644));
#644 = SURFACE_STYLE_FILL_AREA(#645);
#645 = FILL_AREA_STYLE('',(#646));
#646 = FILL_AREA_STYLE_COLOUR('',#618);
#647 = STYLED_ITEM('color',(#648),#494);
#648 = PRESENTATION_STYLE_ASSIGNMENT((#649));
#649 = SURFACE_STYLE_USAGE(.BOTH.,#650);
#650 = SURFACE_SIDE_STYLE('',(#651));
#651 = SURFACE_STYLE_FILL_AREA(#652);
#652 = FILL_AREA_STYLE('',(#653));
#653 = FILL_AREA_STYLE_COLOUR('',#618);
#654 = STYLED_ITEM('color',(#655),#503);
#655 = PRESENTATION_STYLE_ASSIGNMENT((#656));
#656 = SURFACE_STYLE_USAGE(.BOTH.,#657);
#657 = SURFACE_SIDE_STYLE('',(#658));
#658 = SURFACE_STYLE_FILL_AREA(#659);
#659 = FILL_AREA_STYLE('',(#660));
#660 = FILL_AREA_STYLE_COLOUR('',#618);
ENDSEC;
END-ISO-10303-21;
