ISO-10303-21;
HEADER;
FILE_DESCRIPTION(('FreeCAD Model'),'2;1');
FILE_NAME(
  'D:/KiCAD/packages3D-source/Package_TO_SOT_THT.3dshapes\\TO-18-3.step'
  ,'2017-11-26T14:53:10',('kicad StepUp'),('ksu MCAD'),
  'Open CASCADE STEP processor 6.8','FreeCAD','Unknown');
FILE_SCHEMA(('AUTOMOTIVE_DESIGN_CC2 { 1 2 10303 214 -1 1 5 4 }'));
ENDSEC;
DATA;
#1 = APPLICATION_PROTOCOL_DEFINITION('committee draft',
  'automotive_design',1997,#2);
#2 = APPLICATION_CONTEXT(
  'core data for automotive mechanical design processes');
#3 = SHAPE_DEFINITION_REPRESENTATION(#4,#10);
#4 = PRODUCT_DEFINITION_SHAPE('','',#5);
#5 = PRODUCT_DEFINITION('design','',#6,#9);
#6 = PRODUCT_DEFINITION_FORMATION('','',#7);
#7 = PRODUCT('TO-18-3','TO-18-3','',(#8));
#8 = MECHANICAL_CONTEXT('',#2,'mechanical');
#9 = PRODUCT_DEFINITION_CONTEXT('part definition',#2,'design');
#10 = ADVANCED_BREP_SHAPE_REPRESENTATION('',(#11,#15),#512);
#11 = AXIS2_PLACEMENT_3D('',#12,#13,#14);
#12 = CARTESIAN_POINT('',(0.E+000,0.E+000,0.E+000));
#13 = DIRECTION('',(0.E+000,0.E+000,1.));
#14 = DIRECTION('',(1.,0.E+000,-0.E+000));
#15 = MANIFOLD_SOLID_BREP('',#16);
#16 = CLOSED_SHELL('',(#17,#34,#59,#134,#166,#191,#209,#234,#259,#292,
    #323,#354,#371,#380,#389,#419,#436,#448,#473,#503));
#17 = ADVANCED_FACE('',(#18),#29,.T.);
#18 = FACE_BOUND('',#19,.F.);
#19 = EDGE_LOOP('',(#20));
#20 = ORIENTED_EDGE('',*,*,#21,.T.);
#21 = EDGE_CURVE('',#22,#22,#24,.T.);
#22 = VERTEX_POINT('',#23);
#23 = CARTESIAN_POINT('',(1.51,-1.27,-5.));
#24 = CIRCLE('',#25,0.24);
#25 = AXIS2_PLACEMENT_3D('',#26,#27,#28);
#26 = CARTESIAN_POINT('',(1.27,-1.27,-5.));
#27 = DIRECTION('',(0.E+000,0.E+000,1.));
#28 = DIRECTION('',(1.,0.E+000,0.E+000));
#29 = PLANE('',#30);
#30 = AXIS2_PLACEMENT_3D('',#31,#32,#33);
#31 = CARTESIAN_POINT('',(1.51,-1.27,-5.));
#32 = DIRECTION('',(0.E+000,0.E+000,-1.));
#33 = DIRECTION('',(-1.,0.E+000,0.E+000));
#34 = ADVANCED_FACE('',(#35),#54,.T.);
#35 = FACE_BOUND('',#36,.T.);
#36 = EDGE_LOOP('',(#37,#46,#52,#53));
#37 = ORIENTED_EDGE('',*,*,#38,.F.);
#38 = EDGE_CURVE('',#39,#39,#41,.T.);
#39 = VERTEX_POINT('',#40);
#40 = CARTESIAN_POINT('',(1.51,-1.27,5.));
#41 = CIRCLE('',#42,0.24);
#42 = AXIS2_PLACEMENT_3D('',#43,#44,#45);
#43 = CARTESIAN_POINT('',(1.27,-1.27,5.));
#44 = DIRECTION('',(0.E+000,0.E+000,1.));
#45 = DIRECTION('',(1.,0.E+000,0.E+000));
#46 = ORIENTED_EDGE('',*,*,#47,.T.);
#47 = EDGE_CURVE('',#39,#22,#48,.T.);
#48 = LINE('',#49,#50);
#49 = CARTESIAN_POINT('',(1.51,-1.27,5.));
#50 = VECTOR('',#51,1.);
#51 = DIRECTION('',(-0.E+000,-0.E+000,-1.));
#52 = ORIENTED_EDGE('',*,*,#21,.T.);
#53 = ORIENTED_EDGE('',*,*,#47,.F.);
#54 = CYLINDRICAL_SURFACE('',#55,0.24);
#55 = AXIS2_PLACEMENT_3D('',#56,#57,#58);
#56 = CARTESIAN_POINT('',(1.27,-1.27,5.));
#57 = DIRECTION('',(0.E+000,0.E+000,1.));
#58 = DIRECTION('',(1.,0.E+000,0.E+000));
#59 = ADVANCED_FACE('',(#60,#104,#107,#118),#129,.F.);
#60 = FACE_BOUND('',#61,.T.);
#61 = EDGE_LOOP('',(#62,#73,#82,#90,#98));
#62 = ORIENTED_EDGE('',*,*,#63,.F.);
#63 = EDGE_CURVE('',#64,#66,#68,.T.);
#64 = VERTEX_POINT('',#65);
#65 = CARTESIAN_POINT('',(-1.65,1.665334536938E-015,5.));
#66 = VERTEX_POINT('',#67);
#67 = CARTESIAN_POINT('',(-0.472244288731,2.343285052738,5.));
#68 = CIRCLE('',#69,2.92);
#69 = AXIS2_PLACEMENT_3D('',#70,#71,#72);
#70 = CARTESIAN_POINT('',(1.27,1.665334536938E-015,5.));
#71 = DIRECTION('',(0.E+000,3.330669073875E-016,1.));
#72 = DIRECTION('',(-1.,0.E+000,0.E+000));
#73 = ORIENTED_EDGE('',*,*,#74,.F.);
#74 = EDGE_CURVE('',#75,#64,#77,.T.);
#75 = VERTEX_POINT('',#76);
#76 = CARTESIAN_POINT('',(-1.073285052739,1.742244288729,5.));
#77 = CIRCLE('',#78,2.92);
#78 = AXIS2_PLACEMENT_3D('',#79,#80,#81);
#79 = CARTESIAN_POINT('',(1.27,1.665334536938E-015,5.));
#80 = DIRECTION('',(0.E+000,3.330669073875E-016,1.));
#81 = DIRECTION('',(-1.,0.E+000,0.E+000));
#82 = ORIENTED_EDGE('',*,*,#83,.F.);
#83 = EDGE_CURVE('',#84,#75,#86,.T.);
#84 = VERTEX_POINT('',#85);
#85 = CARTESIAN_POINT('',(0.969479617996,-0.300520382004,5.));
#86 = LINE('',#87,#88);
#87 = CARTESIAN_POINT('',(0.969479617996,-0.300520382004,5.));
#88 = VECTOR('',#89,1.);
#89 = DIRECTION('',(-0.707106781187,0.707106781186,0.E+000));
#90 = ORIENTED_EDGE('',*,*,#91,.T.);
#91 = EDGE_CURVE('',#84,#92,#94,.T.);
#92 = VERTEX_POINT('',#93);
#93 = CARTESIAN_POINT('',(1.570520382004,0.300520382004,5.));
#94 = LINE('',#95,#96);
#95 = CARTESIAN_POINT('',(0.969479617996,-0.300520382004,5.));
#96 = VECTOR('',#97,1.);
#97 = DIRECTION('',(0.707106781186,0.707106781187,0.E+000));
#98 = ORIENTED_EDGE('',*,*,#99,.T.);
#99 = EDGE_CURVE('',#92,#66,#100,.T.);
#100 = LINE('',#101,#102);
#101 = CARTESIAN_POINT('',(1.570520382004,0.300520382004,5.));
#102 = VECTOR('',#103,1.);
#103 = DIRECTION('',(-0.707106781187,0.707106781186,0.E+000));
#104 = FACE_BOUND('',#105,.T.);
#105 = EDGE_LOOP('',(#106));
#106 = ORIENTED_EDGE('',*,*,#38,.T.);
#107 = FACE_BOUND('',#108,.T.);
#108 = EDGE_LOOP('',(#109));
#109 = ORIENTED_EDGE('',*,*,#110,.T.);
#110 = EDGE_CURVE('',#111,#111,#113,.T.);
#111 = VERTEX_POINT('',#112);
#112 = CARTESIAN_POINT('',(2.78,0.E+000,5.));
#113 = CIRCLE('',#114,0.24);
#114 = AXIS2_PLACEMENT_3D('',#115,#116,#117);
#115 = CARTESIAN_POINT('',(2.54,0.E+000,5.));
#116 = DIRECTION('',(0.E+000,0.E+000,1.));
#117 = DIRECTION('',(1.,0.E+000,0.E+000));
#118 = FACE_BOUND('',#119,.T.);
#119 = EDGE_LOOP('',(#120));
#120 = ORIENTED_EDGE('',*,*,#121,.T.);
#121 = EDGE_CURVE('',#122,#122,#124,.T.);
#122 = VERTEX_POINT('',#123);
#123 = CARTESIAN_POINT('',(0.24,0.E+000,5.));
#124 = CIRCLE('',#125,0.24);
#125 = AXIS2_PLACEMENT_3D('',#126,#127,#128);
#126 = CARTESIAN_POINT('',(0.E+000,0.E+000,5.));
#127 = DIRECTION('',(0.E+000,0.E+000,1.));
#128 = DIRECTION('',(1.,0.E+000,0.E+000));
#129 = PLANE('',#130);
#130 = AXIS2_PLACEMENT_3D('',#131,#132,#133);
#131 = CARTESIAN_POINT('',(1.27,1.665334536938E-015,5.));
#132 = DIRECTION('',(0.E+000,3.330669073875E-016,1.));
#133 = DIRECTION('',(-1.,0.E+000,0.E+000));
#134 = ADVANCED_FACE('',(#135),#161,.T.);
#135 = FACE_BOUND('',#136,.T.);
#136 = EDGE_LOOP('',(#137,#145,#146,#154));
#137 = ORIENTED_EDGE('',*,*,#138,.F.);
#138 = EDGE_CURVE('',#64,#139,#141,.T.);
#139 = VERTEX_POINT('',#140);
#140 = CARTESIAN_POINT('',(-1.65,1.831867990632E-015,5.5));
#141 = LINE('',#142,#143);
#142 = CARTESIAN_POINT('',(-1.65,1.665334536938E-015,5.));
#143 = VECTOR('',#144,1.);
#144 = DIRECTION('',(0.E+000,3.330669073875E-016,1.));
#145 = ORIENTED_EDGE('',*,*,#63,.T.);
#146 = ORIENTED_EDGE('',*,*,#147,.T.);
#147 = EDGE_CURVE('',#66,#148,#150,.T.);
#148 = VERTEX_POINT('',#149);
#149 = CARTESIAN_POINT('',(-0.472244288731,2.343285052738,5.5));
#150 = LINE('',#151,#152);
#151 = CARTESIAN_POINT('',(-0.472244288731,2.343285052738,5.));
#152 = VECTOR('',#153,1.);
#153 = DIRECTION('',(0.E+000,3.330669073875E-016,1.));
#154 = ORIENTED_EDGE('',*,*,#155,.F.);
#155 = EDGE_CURVE('',#139,#148,#156,.T.);
#156 = CIRCLE('',#157,2.92);
#157 = AXIS2_PLACEMENT_3D('',#158,#159,#160);
#158 = CARTESIAN_POINT('',(1.27,1.831867990632E-015,5.5));
#159 = DIRECTION('',(0.E+000,3.330669073875E-016,1.));
#160 = DIRECTION('',(-1.,0.E+000,0.E+000));
#161 = CYLINDRICAL_SURFACE('',#162,2.92);
#162 = AXIS2_PLACEMENT_3D('',#163,#164,#165);
#163 = CARTESIAN_POINT('',(1.27,1.665334536938E-015,5.));
#164 = DIRECTION('',(0.E+000,3.330669073875E-016,1.));
#165 = DIRECTION('',(-1.,0.E+000,0.E+000));
#166 = ADVANCED_FACE('',(#167),#186,.T.);
#167 = FACE_BOUND('',#168,.T.);
#168 = EDGE_LOOP('',(#169,#170,#171,#180));
#169 = ORIENTED_EDGE('',*,*,#74,.T.);
#170 = ORIENTED_EDGE('',*,*,#138,.T.);
#171 = ORIENTED_EDGE('',*,*,#172,.F.);
#172 = EDGE_CURVE('',#173,#139,#175,.T.);
#173 = VERTEX_POINT('',#174);
#174 = CARTESIAN_POINT('',(-1.073285052739,1.742244288729,5.5));
#175 = CIRCLE('',#176,2.92);
#176 = AXIS2_PLACEMENT_3D('',#177,#178,#179);
#177 = CARTESIAN_POINT('',(1.27,1.831867990632E-015,5.5));
#178 = DIRECTION('',(0.E+000,3.330669073875E-016,1.));
#179 = DIRECTION('',(-1.,0.E+000,0.E+000));
#180 = ORIENTED_EDGE('',*,*,#181,.F.);
#181 = EDGE_CURVE('',#75,#173,#182,.T.);
#182 = LINE('',#183,#184);
#183 = CARTESIAN_POINT('',(-1.073285052739,1.742244288729,5.));
#184 = VECTOR('',#185,1.);
#185 = DIRECTION('',(0.E+000,3.330669073875E-016,1.));
#186 = CYLINDRICAL_SURFACE('',#187,2.92);
#187 = AXIS2_PLACEMENT_3D('',#188,#189,#190);
#188 = CARTESIAN_POINT('',(1.27,1.665334536938E-015,5.));
#189 = DIRECTION('',(0.E+000,3.330669073875E-016,1.));
#190 = DIRECTION('',(-1.,0.E+000,0.E+000));
#191 = ADVANCED_FACE('',(#192),#204,.F.);
#192 = FACE_BOUND('',#193,.T.);
#193 = EDGE_LOOP('',(#194,#201,#202,#203));
#194 = ORIENTED_EDGE('',*,*,#195,.F.);
#195 = EDGE_CURVE('',#66,#75,#196,.T.);
#196 = CIRCLE('',#197,2.92);
#197 = AXIS2_PLACEMENT_3D('',#198,#199,#200);
#198 = CARTESIAN_POINT('',(1.27,1.665334536938E-015,5.));
#199 = DIRECTION('',(0.E+000,3.330669073875E-016,1.));
#200 = DIRECTION('',(-1.,0.E+000,0.E+000));
#201 = ORIENTED_EDGE('',*,*,#99,.F.);
#202 = ORIENTED_EDGE('',*,*,#91,.F.);
#203 = ORIENTED_EDGE('',*,*,#83,.T.);
#204 = PLANE('',#205);
#205 = AXIS2_PLACEMENT_3D('',#206,#207,#208);
#206 = CARTESIAN_POINT('',(1.27,1.665334536938E-015,5.));
#207 = DIRECTION('',(0.E+000,3.330669073875E-016,1.));
#208 = DIRECTION('',(-1.,0.E+000,0.E+000));
#209 = ADVANCED_FACE('',(#210),#229,.T.);
#210 = FACE_BOUND('',#211,.T.);
#211 = EDGE_LOOP('',(#212,#213,#221,#228));
#212 = ORIENTED_EDGE('',*,*,#110,.F.);
#213 = ORIENTED_EDGE('',*,*,#214,.T.);
#214 = EDGE_CURVE('',#111,#215,#217,.T.);
#215 = VERTEX_POINT('',#216);
#216 = CARTESIAN_POINT('',(2.78,0.E+000,-5.));
#217 = LINE('',#218,#219);
#218 = CARTESIAN_POINT('',(2.78,0.E+000,5.));
#219 = VECTOR('',#220,1.);
#220 = DIRECTION('',(-0.E+000,-0.E+000,-1.));
#221 = ORIENTED_EDGE('',*,*,#222,.T.);
#222 = EDGE_CURVE('',#215,#215,#223,.T.);
#223 = CIRCLE('',#224,0.24);
#224 = AXIS2_PLACEMENT_3D('',#225,#226,#227);
#225 = CARTESIAN_POINT('',(2.54,0.E+000,-5.));
#226 = DIRECTION('',(0.E+000,0.E+000,1.));
#227 = DIRECTION('',(1.,0.E+000,0.E+000));
#228 = ORIENTED_EDGE('',*,*,#214,.F.);
#229 = CYLINDRICAL_SURFACE('',#230,0.24);
#230 = AXIS2_PLACEMENT_3D('',#231,#232,#233);
#231 = CARTESIAN_POINT('',(2.54,0.E+000,5.));
#232 = DIRECTION('',(0.E+000,0.E+000,1.));
#233 = DIRECTION('',(1.,0.E+000,0.E+000));
#234 = ADVANCED_FACE('',(#235),#254,.T.);
#235 = FACE_BOUND('',#236,.T.);
#236 = EDGE_LOOP('',(#237,#238,#246,#253));
#237 = ORIENTED_EDGE('',*,*,#121,.F.);
#238 = ORIENTED_EDGE('',*,*,#239,.T.);
#239 = EDGE_CURVE('',#122,#240,#242,.T.);
#240 = VERTEX_POINT('',#241);
#241 = CARTESIAN_POINT('',(0.24,0.E+000,-5.));
#242 = LINE('',#243,#244);
#243 = CARTESIAN_POINT('',(0.24,0.E+000,5.));
#244 = VECTOR('',#245,1.);
#245 = DIRECTION('',(-0.E+000,-0.E+000,-1.));
#246 = ORIENTED_EDGE('',*,*,#247,.T.);
#247 = EDGE_CURVE('',#240,#240,#248,.T.);
#248 = CIRCLE('',#249,0.24);
#249 = AXIS2_PLACEMENT_3D('',#250,#251,#252);
#250 = CARTESIAN_POINT('',(0.E+000,0.E+000,-5.));
#251 = DIRECTION('',(0.E+000,0.E+000,1.));
#252 = DIRECTION('',(1.,0.E+000,0.E+000));
#253 = ORIENTED_EDGE('',*,*,#239,.F.);
#254 = CYLINDRICAL_SURFACE('',#255,0.24);
#255 = AXIS2_PLACEMENT_3D('',#256,#257,#258);
#256 = CARTESIAN_POINT('',(0.E+000,0.E+000,5.));
#257 = DIRECTION('',(0.E+000,0.E+000,1.));
#258 = DIRECTION('',(1.,0.E+000,0.E+000));
#259 = ADVANCED_FACE('',(#260),#287,.T.);
#260 = FACE_BOUND('',#261,.T.);
#261 = EDGE_LOOP('',(#262,#270,#271,#278,#279,#280));
#262 = ORIENTED_EDGE('',*,*,#263,.F.);
#263 = EDGE_CURVE('',#139,#264,#266,.T.);
#264 = VERTEX_POINT('',#265);
#265 = CARTESIAN_POINT('',(-1.311932044094,1.832794432884E-015,
    5.502781549988));
#266 = LINE('',#267,#268);
#267 = CARTESIAN_POINT('',(-1.65,1.831867990632E-015,5.5));
#268 = VECTOR('',#269,1.);
#269 = DIRECTION('',(0.999966153507,2.74030969004E-018,
    8.227505132629E-003));
#270 = ORIENTED_EDGE('',*,*,#155,.T.);
#271 = ORIENTED_EDGE('',*,*,#272,.T.);
#272 = EDGE_CURVE('',#148,#173,#273,.T.);
#273 = CIRCLE('',#274,2.92);
#274 = AXIS2_PLACEMENT_3D('',#275,#276,#277);
#275 = CARTESIAN_POINT('',(1.27,1.831867990632E-015,5.5));
#276 = DIRECTION('',(0.E+000,3.330669073875E-016,1.));
#277 = DIRECTION('',(-1.,0.E+000,0.E+000));
#278 = ORIENTED_EDGE('',*,*,#172,.T.);
#279 = ORIENTED_EDGE('',*,*,#263,.T.);
#280 = ORIENTED_EDGE('',*,*,#281,.F.);
#281 = EDGE_CURVE('',#264,#264,#282,.T.);
#282 = CIRCLE('',#283,2.581932044094);
#283 = AXIS2_PLACEMENT_3D('',#284,#285,#286);
#284 = CARTESIAN_POINT('',(1.27,1.832794432884E-015,5.502781549988));
#285 = DIRECTION('',(0.E+000,3.330669073875E-016,1.));
#286 = DIRECTION('',(-1.,0.E+000,0.E+000));
#287 = CONICAL_SURFACE('',#288,2.92,1.562568728837);
#288 = AXIS2_PLACEMENT_3D('',#289,#290,#291);
#289 = CARTESIAN_POINT('',(1.27,1.831867990632E-015,5.5));
#290 = DIRECTION('',(0.E+000,-3.330669073875E-016,-1.));
#291 = DIRECTION('',(-1.,0.E+000,0.E+000));
#292 = ADVANCED_FACE('',(#293),#318,.F.);
#293 = FACE_BOUND('',#294,.F.);
#294 = EDGE_LOOP('',(#295,#303,#304,#312));
#295 = ORIENTED_EDGE('',*,*,#296,.F.);
#296 = EDGE_CURVE('',#66,#297,#299,.T.);
#297 = VERTEX_POINT('',#298);
#298 = CARTESIAN_POINT('',(-1.356901692109,3.227942456116,5.));
#299 = LINE('',#300,#301);
#300 = CARTESIAN_POINT('',(1.570520382004,0.300520382004,5.));
#301 = VECTOR('',#302,1.);
#302 = DIRECTION('',(-0.707106781187,0.707106781186,0.E+000));
#303 = ORIENTED_EDGE('',*,*,#147,.T.);
#304 = ORIENTED_EDGE('',*,*,#305,.T.);
#305 = EDGE_CURVE('',#148,#306,#308,.T.);
#306 = VERTEX_POINT('',#307);
#307 = CARTESIAN_POINT('',(-1.356901692109,3.227942456116,5.5));
#308 = LINE('',#309,#310);
#309 = CARTESIAN_POINT('',(1.570520382004,0.300520382004,5.5));
#310 = VECTOR('',#311,1.);
#311 = DIRECTION('',(-0.707106781187,0.707106781186,0.E+000));
#312 = ORIENTED_EDGE('',*,*,#313,.F.);
#313 = EDGE_CURVE('',#297,#306,#314,.T.);
#314 = LINE('',#315,#316);
#315 = CARTESIAN_POINT('',(-1.356901692109,3.227942456116,5.));
#316 = VECTOR('',#317,1.);
#317 = DIRECTION('',(0.E+000,0.E+000,1.));
#318 = PLANE('',#319);
#319 = AXIS2_PLACEMENT_3D('',#320,#321,#322);
#320 = CARTESIAN_POINT('',(1.570520382004,0.300520382004,5.));
#321 = DIRECTION('',(-0.707106781186,-0.707106781187,0.E+000));
#322 = DIRECTION('',(-0.707106781187,0.707106781186,0.E+000));
#323 = ADVANCED_FACE('',(#324),#349,.T.);
#324 = FACE_BOUND('',#325,.T.);
#325 = EDGE_LOOP('',(#326,#334,#335,#343));
#326 = ORIENTED_EDGE('',*,*,#327,.F.);
#327 = EDGE_CURVE('',#75,#328,#330,.T.);
#328 = VERTEX_POINT('',#329);
#329 = CARTESIAN_POINT('',(-1.957942456118,2.626901692107,5.));
#330 = LINE('',#331,#332);
#331 = CARTESIAN_POINT('',(0.969479617996,-0.300520382004,5.));
#332 = VECTOR('',#333,1.);
#333 = DIRECTION('',(-0.707106781187,0.707106781186,0.E+000));
#334 = ORIENTED_EDGE('',*,*,#181,.T.);
#335 = ORIENTED_EDGE('',*,*,#336,.T.);
#336 = EDGE_CURVE('',#173,#337,#339,.T.);
#337 = VERTEX_POINT('',#338);
#338 = CARTESIAN_POINT('',(-1.957942456118,2.626901692107,5.5));
#339 = LINE('',#340,#341);
#340 = CARTESIAN_POINT('',(0.969479617996,-0.300520382004,5.5));
#341 = VECTOR('',#342,1.);
#342 = DIRECTION('',(-0.707106781187,0.707106781186,0.E+000));
#343 = ORIENTED_EDGE('',*,*,#344,.F.);
#344 = EDGE_CURVE('',#328,#337,#345,.T.);
#345 = LINE('',#346,#347);
#346 = CARTESIAN_POINT('',(-1.957942456117,2.626901692107,5.));
#347 = VECTOR('',#348,1.);
#348 = DIRECTION('',(0.E+000,0.E+000,1.));
#349 = PLANE('',#350);
#350 = AXIS2_PLACEMENT_3D('',#351,#352,#353);
#351 = CARTESIAN_POINT('',(0.969479617996,-0.300520382004,5.));
#352 = DIRECTION('',(-0.707106781186,-0.707106781187,0.E+000));
#353 = DIRECTION('',(-0.707106781187,0.707106781186,0.E+000));
#354 = ADVANCED_FACE('',(#355),#366,.T.);
#355 = FACE_BOUND('',#356,.T.);
#356 = EDGE_LOOP('',(#357,#358,#359,#365));
#357 = ORIENTED_EDGE('',*,*,#195,.T.);
#358 = ORIENTED_EDGE('',*,*,#327,.T.);
#359 = ORIENTED_EDGE('',*,*,#360,.T.);
#360 = EDGE_CURVE('',#328,#297,#361,.T.);
#361 = LINE('',#362,#363);
#362 = CARTESIAN_POINT('',(-1.957942456117,2.626901692107,5.));
#363 = VECTOR('',#364,1.);
#364 = DIRECTION('',(0.707106781186,0.707106781187,0.E+000));
#365 = ORIENTED_EDGE('',*,*,#296,.F.);
#366 = PLANE('',#367);
#367 = AXIS2_PLACEMENT_3D('',#368,#369,#370);
#368 = CARTESIAN_POINT('',(0.969479617996,-0.300520382004,5.));
#369 = DIRECTION('',(0.E+000,0.E+000,-1.));
#370 = DIRECTION('',(-1.,0.E+000,0.E+000));
#371 = ADVANCED_FACE('',(#372),#375,.T.);
#372 = FACE_BOUND('',#373,.F.);
#373 = EDGE_LOOP('',(#374));
#374 = ORIENTED_EDGE('',*,*,#222,.T.);
#375 = PLANE('',#376);
#376 = AXIS2_PLACEMENT_3D('',#377,#378,#379);
#377 = CARTESIAN_POINT('',(2.78,0.E+000,-5.));
#378 = DIRECTION('',(0.E+000,0.E+000,-1.));
#379 = DIRECTION('',(-1.,0.E+000,0.E+000));
#380 = ADVANCED_FACE('',(#381),#384,.T.);
#381 = FACE_BOUND('',#382,.F.);
#382 = EDGE_LOOP('',(#383));
#383 = ORIENTED_EDGE('',*,*,#247,.T.);
#384 = PLANE('',#385);
#385 = AXIS2_PLACEMENT_3D('',#386,#387,#388);
#386 = CARTESIAN_POINT('',(0.24,0.E+000,-5.));
#387 = DIRECTION('',(0.E+000,0.E+000,-1.));
#388 = DIRECTION('',(-1.,0.E+000,0.E+000));
#389 = ADVANCED_FACE('',(#390),#410,.T.);
#390 = FACE_BOUND('',#391,.T.);
#391 = EDGE_LOOP('',(#392,#393,#402,#409));
#392 = ORIENTED_EDGE('',*,*,#281,.T.);
#393 = ORIENTED_EDGE('',*,*,#394,.T.);
#394 = EDGE_CURVE('',#264,#395,#397,.T.);
#395 = VERTEX_POINT('',#396);
#396 = CARTESIAN_POINT('',(-1.205,1.868704200447E-015,5.610597027199));
#397 = CIRCLE('',#398,0.107819126511);
#398 = AXIS2_PLACEMENT_3D('',#399,#400,#401);
#399 = CARTESIAN_POINT('',(-1.312819126511,1.868704200447E-015,
    5.610597027199));
#400 = DIRECTION('',(0.E+000,-1.,3.330669073875E-016));
#401 = DIRECTION('',(1.,0.E+000,0.E+000));
#402 = ORIENTED_EDGE('',*,*,#403,.F.);
#403 = EDGE_CURVE('',#395,#395,#404,.T.);
#404 = CIRCLE('',#405,2.475);
#405 = AXIS2_PLACEMENT_3D('',#406,#407,#408);
#406 = CARTESIAN_POINT('',(1.27,1.868704200447E-015,5.610597027199));
#407 = DIRECTION('',(0.E+000,3.330669073875E-016,1.));
#408 = DIRECTION('',(-1.,0.E+000,0.E+000));
#409 = ORIENTED_EDGE('',*,*,#394,.F.);
#410 = SURFACE_OF_REVOLUTION('',#411,#416);
#411 = CIRCLE('',#412,0.107819126511);
#412 = AXIS2_PLACEMENT_3D('',#413,#414,#415);
#413 = CARTESIAN_POINT('',(-1.312819126511,1.868704200447E-015,
    5.610597027199));
#414 = DIRECTION('',(0.E+000,-1.,3.330669073875E-016));
#415 = DIRECTION('',(1.,0.E+000,0.E+000));
#416 = AXIS1_PLACEMENT('',#417,#418);
#417 = CARTESIAN_POINT('',(1.27,8.495431025324E-016,2.550668));
#418 = DIRECTION('',(0.E+000,3.330669073875E-016,1.));
#419 = ADVANCED_FACE('',(#420),#431,.F.);
#420 = FACE_BOUND('',#421,.F.);
#421 = EDGE_LOOP('',(#422,#423,#424,#430));
#422 = ORIENTED_EDGE('',*,*,#272,.T.);
#423 = ORIENTED_EDGE('',*,*,#336,.T.);
#424 = ORIENTED_EDGE('',*,*,#425,.T.);
#425 = EDGE_CURVE('',#337,#306,#426,.T.);
#426 = LINE('',#427,#428);
#427 = CARTESIAN_POINT('',(-1.957942456117,2.626901692107,5.5));
#428 = VECTOR('',#429,1.);
#429 = DIRECTION('',(0.707106781186,0.707106781187,0.E+000));
#430 = ORIENTED_EDGE('',*,*,#305,.F.);
#431 = PLANE('',#432);
#432 = AXIS2_PLACEMENT_3D('',#433,#434,#435);
#433 = CARTESIAN_POINT('',(0.969479617996,-0.300520382004,5.5));
#434 = DIRECTION('',(0.E+000,0.E+000,-1.));
#435 = DIRECTION('',(-1.,0.E+000,0.E+000));
#436 = ADVANCED_FACE('',(#437),#443,.T.);
#437 = FACE_BOUND('',#438,.T.);
#438 = EDGE_LOOP('',(#439,#440,#441,#442));
#439 = ORIENTED_EDGE('',*,*,#344,.T.);
#440 = ORIENTED_EDGE('',*,*,#425,.T.);
#441 = ORIENTED_EDGE('',*,*,#313,.F.);
#442 = ORIENTED_EDGE('',*,*,#360,.F.);
#443 = PLANE('',#444);
#444 = AXIS2_PLACEMENT_3D('',#445,#446,#447);
#445 = CARTESIAN_POINT('',(-1.957942456117,2.626901692107,5.));
#446 = DIRECTION('',(-0.707106781187,0.707106781186,0.E+000));
#447 = DIRECTION('',(0.707106781186,0.707106781187,0.E+000));
#448 = ADVANCED_FACE('',(#449),#468,.T.);
#449 = FACE_BOUND('',#450,.T.);
#450 = EDGE_LOOP('',(#451,#452,#460,#467));
#451 = ORIENTED_EDGE('',*,*,#403,.T.);
#452 = ORIENTED_EDGE('',*,*,#453,.T.);
#453 = EDGE_CURVE('',#395,#454,#456,.T.);
#454 = VERTEX_POINT('',#455);
#455 = CARTESIAN_POINT('',(-1.205,3.374744841367E-015,10.132333073367));
#456 = LINE('',#457,#458);
#457 = CARTESIAN_POINT('',(-1.205,1.868704200447E-015,5.610597027199));
#458 = VECTOR('',#459,1.);
#459 = DIRECTION('',(0.E+000,3.330669073875E-016,1.));
#460 = ORIENTED_EDGE('',*,*,#461,.F.);
#461 = EDGE_CURVE('',#454,#454,#462,.T.);
#462 = CIRCLE('',#463,2.475);
#463 = AXIS2_PLACEMENT_3D('',#464,#465,#466);
#464 = CARTESIAN_POINT('',(1.27,3.374744841367E-015,10.132333073367));
#465 = DIRECTION('',(0.E+000,3.330669073875E-016,1.));
#466 = DIRECTION('',(-1.,0.E+000,0.E+000));
#467 = ORIENTED_EDGE('',*,*,#453,.F.);
#468 = CYLINDRICAL_SURFACE('',#469,2.475);
#469 = AXIS2_PLACEMENT_3D('',#470,#471,#472);
#470 = CARTESIAN_POINT('',(1.27,1.868704200447E-015,5.610597027199));
#471 = DIRECTION('',(0.E+000,3.330669073875E-016,1.));
#472 = DIRECTION('',(-1.,0.E+000,0.E+000));
#473 = ADVANCED_FACE('',(#474),#494,.F.);
#474 = FACE_BOUND('',#475,.F.);
#475 = EDGE_LOOP('',(#476,#485,#492,#493));
#476 = ORIENTED_EDGE('',*,*,#477,.T.);
#477 = EDGE_CURVE('',#478,#478,#480,.T.);
#478 = VERTEX_POINT('',#479);
#479 = CARTESIAN_POINT('',(-1.007333073367,3.440581153313E-015,10.33));
#480 = CIRCLE('',#481,2.277333073367);
#481 = AXIS2_PLACEMENT_3D('',#482,#483,#484);
#482 = CARTESIAN_POINT('',(1.27,3.440581153313E-015,10.33));
#483 = DIRECTION('',(0.E+000,3.330669073875E-016,1.));
#484 = DIRECTION('',(-1.,0.E+000,0.E+000));
#485 = ORIENTED_EDGE('',*,*,#486,.T.);
#486 = EDGE_CURVE('',#478,#454,#487,.T.);
#487 = CIRCLE('',#488,0.197666926633);
#488 = AXIS2_PLACEMENT_3D('',#489,#490,#491);
#489 = CARTESIAN_POINT('',(-1.007333073367,3.374744841367E-015,
    10.132333073367));
#490 = DIRECTION('',(0.E+000,-1.,3.330669073875E-016));
#491 = DIRECTION('',(1.,0.E+000,0.E+000));
#492 = ORIENTED_EDGE('',*,*,#461,.F.);
#493 = ORIENTED_EDGE('',*,*,#486,.F.);
#494 = SURFACE_OF_REVOLUTION('',#495,#500);
#495 = CIRCLE('',#496,0.197666926633);
#496 = AXIS2_PLACEMENT_3D('',#497,#498,#499);
#497 = CARTESIAN_POINT('',(-1.007333073367,3.374744841367E-015,
    10.132333073367));
#498 = DIRECTION('',(0.E+000,-1.,3.330669073875E-016));
#499 = DIRECTION('',(1.,0.E+000,0.E+000));
#500 = AXIS1_PLACEMENT('',#501,#502);
#501 = CARTESIAN_POINT('',(1.27,8.495431025324E-016,2.550668));
#502 = DIRECTION('',(0.E+000,3.330669073875E-016,1.));
#503 = ADVANCED_FACE('',(#504),#507,.T.);
#504 = FACE_BOUND('',#505,.T.);
#505 = EDGE_LOOP('',(#506));
#506 = ORIENTED_EDGE('',*,*,#477,.T.);
#507 = PLANE('',#508);
#508 = AXIS2_PLACEMENT_3D('',#509,#510,#511);
#509 = CARTESIAN_POINT('',(1.27,3.440581153313E-015,10.33));
#510 = DIRECTION('',(0.E+000,3.330669073875E-016,1.));
#511 = DIRECTION('',(-1.,0.E+000,0.E+000));
#512 = ( GEOMETRIC_REPRESENTATION_CONTEXT(3) 
GLOBAL_UNCERTAINTY_ASSIGNED_CONTEXT((#516)) GLOBAL_UNIT_ASSIGNED_CONTEXT
((#513,#514,#515)) REPRESENTATION_CONTEXT('Context #1',
  '3D Context with UNIT and UNCERTAINTY') );
#513 = ( LENGTH_UNIT() NAMED_UNIT(*) SI_UNIT(.MILLI.,.METRE.) );
#514 = ( NAMED_UNIT(*) PLANE_ANGLE_UNIT() SI_UNIT($,.RADIAN.) );
#515 = ( NAMED_UNIT(*) SI_UNIT($,.STERADIAN.) SOLID_ANGLE_UNIT() );
#516 = UNCERTAINTY_MEASURE_WITH_UNIT(LENGTH_MEASURE(1.E-007),#513,
  'distance_accuracy_value','confusion accuracy');
#517 = PRODUCT_TYPE('part',$,(#7));
#518 = MECHANICAL_DESIGN_GEOMETRIC_PRESENTATION_REPRESENTATION('',(#519,
    #527,#534,#541,#548,#555,#562,#569,#576,#583,#590,#597,#604,#611,
    #618,#625,#632,#639,#646,#653),#512);
#519 = STYLED_ITEM('color',(#520),#17);
#520 = PRESENTATION_STYLE_ASSIGNMENT((#521));
#521 = SURFACE_STYLE_USAGE(.BOTH.,#522);
#522 = SURFACE_SIDE_STYLE('',(#523));
#523 = SURFACE_STYLE_FILL_AREA(#524);
#524 = FILL_AREA_STYLE('',(#525));
#525 = FILL_AREA_STYLE_COLOUR('',#526);
#526 = COLOUR_RGB('',0.85900002718,0.737999975681,0.495999991894);
#527 = STYLED_ITEM('color',(#528),#34);
#528 = PRESENTATION_STYLE_ASSIGNMENT((#529));
#529 = SURFACE_STYLE_USAGE(.BOTH.,#530);
#530 = SURFACE_SIDE_STYLE('',(#531));
#531 = SURFACE_STYLE_FILL_AREA(#532);
#532 = FILL_AREA_STYLE('',(#533));
#533 = FILL_AREA_STYLE_COLOUR('',#526);
#534 = STYLED_ITEM('color',(#535),#59);
#535 = PRESENTATION_STYLE_ASSIGNMENT((#536));
#536 = SURFACE_STYLE_USAGE(.BOTH.,#537);
#537 = SURFACE_SIDE_STYLE('',(#538));
#538 = SURFACE_STYLE_FILL_AREA(#539);
#539 = FILL_AREA_STYLE('',(#540));
#540 = FILL_AREA_STYLE_COLOUR('',#526);
#541 = STYLED_ITEM('color',(#542),#134);
#542 = PRESENTATION_STYLE_ASSIGNMENT((#543));
#543 = SURFACE_STYLE_USAGE(.BOTH.,#544);
#544 = SURFACE_SIDE_STYLE('',(#545));
#545 = SURFACE_STYLE_FILL_AREA(#546);
#546 = FILL_AREA_STYLE('',(#547));
#547 = FILL_AREA_STYLE_COLOUR('',#526);
#548 = STYLED_ITEM('color',(#549),#166);
#549 = PRESENTATION_STYLE_ASSIGNMENT((#550));
#550 = SURFACE_STYLE_USAGE(.BOTH.,#551);
#551 = SURFACE_SIDE_STYLE('',(#552));
#552 = SURFACE_STYLE_FILL_AREA(#553);
#553 = FILL_AREA_STYLE('',(#554));
#554 = FILL_AREA_STYLE_COLOUR('',#526);
#555 = STYLED_ITEM('color',(#556),#191);
#556 = PRESENTATION_STYLE_ASSIGNMENT((#557));
#557 = SURFACE_STYLE_USAGE(.BOTH.,#558);
#558 = SURFACE_SIDE_STYLE('',(#559));
#559 = SURFACE_STYLE_FILL_AREA(#560);
#560 = FILL_AREA_STYLE('',(#561));
#561 = FILL_AREA_STYLE_COLOUR('',#526);
#562 = STYLED_ITEM('color',(#563),#209);
#563 = PRESENTATION_STYLE_ASSIGNMENT((#564));
#564 = SURFACE_STYLE_USAGE(.BOTH.,#565);
#565 = SURFACE_SIDE_STYLE('',(#566));
#566 = SURFACE_STYLE_FILL_AREA(#567);
#567 = FILL_AREA_STYLE('',(#568));
#568 = FILL_AREA_STYLE_COLOUR('',#526);
#569 = STYLED_ITEM('color',(#570),#234);
#570 = PRESENTATION_STYLE_ASSIGNMENT((#571));
#571 = SURFACE_STYLE_USAGE(.BOTH.,#572);
#572 = SURFACE_SIDE_STYLE('',(#573));
#573 = SURFACE_STYLE_FILL_AREA(#574);
#574 = FILL_AREA_STYLE('',(#575));
#575 = FILL_AREA_STYLE_COLOUR('',#526);
#576 = STYLED_ITEM('color',(#577),#259);
#577 = PRESENTATION_STYLE_ASSIGNMENT((#578));
#578 = SURFACE_STYLE_USAGE(.BOTH.,#579);
#579 = SURFACE_SIDE_STYLE('',(#580));
#580 = SURFACE_STYLE_FILL_AREA(#581);
#581 = FILL_AREA_STYLE('',(#582));
#582 = FILL_AREA_STYLE_COLOUR('',#526);
#583 = STYLED_ITEM('color',(#584),#292);
#584 = PRESENTATION_STYLE_ASSIGNMENT((#585));
#585 = SURFACE_STYLE_USAGE(.BOTH.,#586);
#586 = SURFACE_SIDE_STYLE('',(#587));
#587 = SURFACE_STYLE_FILL_AREA(#588);
#588 = FILL_AREA_STYLE('',(#589));
#589 = FILL_AREA_STYLE_COLOUR('',#526);
#590 = STYLED_ITEM('color',(#591),#323);
#591 = PRESENTATION_STYLE_ASSIGNMENT((#592));
#592 = SURFACE_STYLE_USAGE(.BOTH.,#593);
#593 = SURFACE_SIDE_STYLE('',(#594));
#594 = SURFACE_STYLE_FILL_AREA(#595);
#595 = FILL_AREA_STYLE('',(#596));
#596 = FILL_AREA_STYLE_COLOUR('',#526);
#597 = STYLED_ITEM('color',(#598),#354);
#598 = PRESENTATION_STYLE_ASSIGNMENT((#599));
#599 = SURFACE_STYLE_USAGE(.BOTH.,#600);
#600 = SURFACE_SIDE_STYLE('',(#601));
#601 = SURFACE_STYLE_FILL_AREA(#602);
#602 = FILL_AREA_STYLE('',(#603));
#603 = FILL_AREA_STYLE_COLOUR('',#526);
#604 = STYLED_ITEM('color',(#605),#371);
#605 = PRESENTATION_STYLE_ASSIGNMENT((#606));
#606 = SURFACE_STYLE_USAGE(.BOTH.,#607);
#607 = SURFACE_SIDE_STYLE('',(#608));
#608 = SURFACE_STYLE_FILL_AREA(#609);
#609 = FILL_AREA_STYLE('',(#610));
#610 = FILL_AREA_STYLE_COLOUR('',#526);
#611 = STYLED_ITEM('color',(#612),#380);
#612 = PRESENTATION_STYLE_ASSIGNMENT((#613));
#613 = SURFACE_STYLE_USAGE(.BOTH.,#614);
#614 = SURFACE_SIDE_STYLE('',(#615));
#615 = SURFACE_STYLE_FILL_AREA(#616);
#616 = FILL_AREA_STYLE('',(#617));
#617 = FILL_AREA_STYLE_COLOUR('',#526);
#618 = STYLED_ITEM('color',(#619),#389);
#619 = PRESENTATION_STYLE_ASSIGNMENT((#620));
#620 = SURFACE_STYLE_USAGE(.BOTH.,#621);
#621 = SURFACE_SIDE_STYLE('',(#622));
#622 = SURFACE_STYLE_FILL_AREA(#623);
#623 = FILL_AREA_STYLE('',(#624));
#624 = FILL_AREA_STYLE_COLOUR('',#526);
#625 = STYLED_ITEM('color',(#626),#419);
#626 = PRESENTATION_STYLE_ASSIGNMENT((#627));
#627 = SURFACE_STYLE_USAGE(.BOTH.,#628);
#628 = SURFACE_SIDE_STYLE('',(#629));
#629 = SURFACE_STYLE_FILL_AREA(#630);
#630 = FILL_AREA_STYLE('',(#631));
#631 = FILL_AREA_STYLE_COLOUR('',#526);
#632 = STYLED_ITEM('color',(#633),#436);
#633 = PRESENTATION_STYLE_ASSIGNMENT((#634));
#634 = SURFACE_STYLE_USAGE(.BOTH.,#635);
#635 = SURFACE_SIDE_STYLE('',(#636));
#636 = SURFACE_STYLE_FILL_AREA(#637);
#637 = FILL_AREA_STYLE('',(#638));
#638 = FILL_AREA_STYLE_COLOUR('',#526);
#639 = STYLED_ITEM('color',(#640),#448);
#640 = PRESENTATION_STYLE_ASSIGNMENT((#641));
#641 = SURFACE_STYLE_USAGE(.BOTH.,#642);
#642 = SURFACE_SIDE_STYLE('',(#643));
#643 = SURFACE_STYLE_FILL_AREA(#644);
#644 = FILL_AREA_STYLE('',(#645));
#645 = FILL_AREA_STYLE_COLOUR('',#526);
#646 = STYLED_ITEM('color',(#647),#473);
#647 = PRESENTATION_STYLE_ASSIGNMENT((#648));
#648 = SURFACE_STYLE_USAGE(.BOTH.,#649);
#649 = SURFACE_SIDE_STYLE('',(#650));
#650 = SURFACE_STYLE_FILL_AREA(#651);
#651 = FILL_AREA_STYLE('',(#652));
#652 = FILL_AREA_STYLE_COLOUR('',#526);
#653 = STYLED_ITEM('color',(#654),#503);
#654 = PRESENTATION_STYLE_ASSIGNMENT((#655));
#655 = SURFACE_STYLE_USAGE(.BOTH.,#656);
#656 = SURFACE_SIDE_STYLE('',(#657));
#657 = SURFACE_STYLE_FILL_AREA(#658);
#658 = FILL_AREA_STYLE('',(#659));
#659 = FILL_AREA_STYLE_COLOUR('',#526);
ENDSEC;
END-ISO-10303-21;
