ISO-10303-21;
HEADER;
FILE_DESCRIPTION(('FreeCAD Model'),'2;1');
FILE_NAME(
'D:/KiCAD/packages3D-source/LED_THT.3dshapes\\
LED_SideEmitter_Rectangular_W4.5mm_H1.6mm.step','2017-11-25T22:01:08',(
    'kicad StepUp'),('ksu MCAD'),'Open CASCADE STEP processor 6.8',
  'FreeCAD','Unknown');
FILE_SCHEMA(('AUTOMOTIVE_DESIGN_CC2 { 1 2 10303 214 -1 1 5 4 }'));
ENDSEC;
DATA;
#1 = APPLICATION_PROTOCOL_DEFINITION('committee draft',
  'automotive_design',1997,#2);
#2 = APPLICATION_CONTEXT(
  'core data for automotive mechanical design processes');
#3 = SHAPE_DEFINITION_REPRESENTATION(#4,#10);
#4 = PRODUCT_DEFINITION_SHAPE('','',#5);
#5 = PRODUCT_DEFINITION('design','',#6,#9);
#6 = PRODUCT_DEFINITION_FORMATION('','',#7);
#7 = PRODUCT('LED_SideEmitter_Rectangular_W4.5mm_H1.6mm',
  'LED_SideEmitter_Rectangular_W4.5mm_H1.6mm','',(#8));
#8 = MECHANICAL_CONTEXT('',#2,'mechanical');
#9 = PRODUCT_DEFINITION_CONTEXT('part definition',#2,'design');
#10 = ADVANCED_BREP_SHAPE_REPRESENTATION('',(#11,#15),#479);
#11 = AXIS2_PLACEMENT_3D('',#12,#13,#14);
#12 = CARTESIAN_POINT('',(0.E+000,0.E+000,0.E+000));
#13 = DIRECTION('',(0.E+000,0.E+000,1.));
#14 = DIRECTION('',(1.,0.E+000,-0.E+000));
#15 = MANIFOLD_SOLID_BREP('',#16);
#16 = CLOSED_SHELL('',(#17,#57,#88,#139,#224,#241,#253,#263,#294,#318,
    #342,#359,#390,#414,#438,#455,#467));
#17 = ADVANCED_FACE('',(#18),#52,.F.);
#18 = FACE_BOUND('',#19,.F.);
#19 = EDGE_LOOP('',(#20,#30,#38,#46));
#20 = ORIENTED_EDGE('',*,*,#21,.T.);
#21 = EDGE_CURVE('',#22,#24,#26,.T.);
#22 = VERTEX_POINT('',#23);
#23 = CARTESIAN_POINT('',(-0.98,0.8,3.));
#24 = VERTEX_POINT('',#25);
#25 = CARTESIAN_POINT('',(-0.98,0.8,8.7));
#26 = LINE('',#27,#28);
#27 = CARTESIAN_POINT('',(-0.98,0.8,3.));
#28 = VECTOR('',#29,1.);
#29 = DIRECTION('',(0.E+000,-1.224646799147E-016,1.));
#30 = ORIENTED_EDGE('',*,*,#31,.T.);
#31 = EDGE_CURVE('',#24,#32,#34,.T.);
#32 = VERTEX_POINT('',#33);
#33 = CARTESIAN_POINT('',(-0.98,-0.8,8.7));
#34 = LINE('',#35,#36);
#35 = CARTESIAN_POINT('',(-0.98,0.8,8.7));
#36 = VECTOR('',#37,1.);
#37 = DIRECTION('',(2.775557561563E-016,-1.,-1.224646799147E-016));
#38 = ORIENTED_EDGE('',*,*,#39,.F.);
#39 = EDGE_CURVE('',#40,#32,#42,.T.);
#40 = VERTEX_POINT('',#41);
#41 = CARTESIAN_POINT('',(-0.98,-0.8,3.));
#42 = LINE('',#43,#44);
#43 = CARTESIAN_POINT('',(-0.98,-0.8,3.));
#44 = VECTOR('',#45,1.);
#45 = DIRECTION('',(0.E+000,-1.224646799147E-016,1.));
#46 = ORIENTED_EDGE('',*,*,#47,.F.);
#47 = EDGE_CURVE('',#22,#40,#48,.T.);
#48 = LINE('',#49,#50);
#49 = CARTESIAN_POINT('',(-0.98,0.8,3.));
#50 = VECTOR('',#51,1.);
#51 = DIRECTION('',(2.775557561563E-016,-1.,-1.224646799147E-016));
#52 = PLANE('',#53);
#53 = AXIS2_PLACEMENT_3D('',#54,#55,#56);
#54 = CARTESIAN_POINT('',(-0.98,0.8,3.));
#55 = DIRECTION('',(1.,2.775557561563E-016,3.399077683617E-032));
#56 = DIRECTION('',(2.775557561563E-016,-1.,-1.224646799147E-016));
#57 = ADVANCED_FACE('',(#58),#83,.F.);
#58 = FACE_BOUND('',#59,.F.);
#59 = EDGE_LOOP('',(#60,#70,#76,#77));
#60 = ORIENTED_EDGE('',*,*,#61,.T.);
#61 = EDGE_CURVE('',#62,#64,#66,.T.);
#62 = VERTEX_POINT('',#63);
#63 = CARTESIAN_POINT('',(3.52,0.8,3.));
#64 = VERTEX_POINT('',#65);
#65 = CARTESIAN_POINT('',(3.52,0.8,8.7));
#66 = LINE('',#67,#68);
#67 = CARTESIAN_POINT('',(3.52,0.8,3.));
#68 = VECTOR('',#69,1.);
#69 = DIRECTION('',(0.E+000,-1.224646799147E-016,1.));
#70 = ORIENTED_EDGE('',*,*,#71,.T.);
#71 = EDGE_CURVE('',#64,#24,#72,.T.);
#72 = LINE('',#73,#74);
#73 = CARTESIAN_POINT('',(3.52,0.8,8.7));
#74 = VECTOR('',#75,1.);
#75 = DIRECTION('',(-1.,0.E+000,-0.E+000));
#76 = ORIENTED_EDGE('',*,*,#21,.F.);
#77 = ORIENTED_EDGE('',*,*,#78,.F.);
#78 = EDGE_CURVE('',#62,#22,#79,.T.);
#79 = LINE('',#80,#81);
#80 = CARTESIAN_POINT('',(3.52,0.8,3.));
#81 = VECTOR('',#82,1.);
#82 = DIRECTION('',(-1.,0.E+000,-0.E+000));
#83 = PLANE('',#84);
#84 = AXIS2_PLACEMENT_3D('',#85,#86,#87);
#85 = CARTESIAN_POINT('',(3.52,0.8,3.));
#86 = DIRECTION('',(0.E+000,-1.,-1.224646799147E-016));
#87 = DIRECTION('',(-1.,0.E+000,0.E+000));
#88 = ADVANCED_FACE('',(#89,#114),#134,.F.);
#89 = FACE_BOUND('',#90,.F.);
#90 = EDGE_LOOP('',(#91,#92,#100,#108));
#91 = ORIENTED_EDGE('',*,*,#39,.T.);
#92 = ORIENTED_EDGE('',*,*,#93,.T.);
#93 = EDGE_CURVE('',#32,#94,#96,.T.);
#94 = VERTEX_POINT('',#95);
#95 = CARTESIAN_POINT('',(3.52,-0.8,8.7));
#96 = LINE('',#97,#98);
#97 = CARTESIAN_POINT('',(-0.98,-0.8,8.7));
#98 = VECTOR('',#99,1.);
#99 = DIRECTION('',(1.,0.E+000,0.E+000));
#100 = ORIENTED_EDGE('',*,*,#101,.F.);
#101 = EDGE_CURVE('',#102,#94,#104,.T.);
#102 = VERTEX_POINT('',#103);
#103 = CARTESIAN_POINT('',(3.52,-0.8,3.));
#104 = LINE('',#105,#106);
#105 = CARTESIAN_POINT('',(3.52,-0.8,3.));
#106 = VECTOR('',#107,1.);
#107 = DIRECTION('',(0.E+000,-1.224646799147E-016,1.));
#108 = ORIENTED_EDGE('',*,*,#109,.F.);
#109 = EDGE_CURVE('',#40,#102,#110,.T.);
#110 = LINE('',#111,#112);
#111 = CARTESIAN_POINT('',(-0.98,-0.8,3.));
#112 = VECTOR('',#113,1.);
#113 = DIRECTION('',(1.,0.E+000,0.E+000));
#114 = FACE_BOUND('',#115,.F.);
#115 = EDGE_LOOP('',(#116,#127));
#116 = ORIENTED_EDGE('',*,*,#117,.F.);
#117 = EDGE_CURVE('',#118,#120,#122,.T.);
#118 = VERTEX_POINT('',#119);
#119 = CARTESIAN_POINT('',(1.27,-0.8,8.26));
#120 = VERTEX_POINT('',#121);
#121 = CARTESIAN_POINT('',(1.27,-0.8,6.74));
#122 = CIRCLE('',#123,0.76);
#123 = AXIS2_PLACEMENT_3D('',#124,#125,#126);
#124 = CARTESIAN_POINT('',(1.27,-0.8,7.5));
#125 = DIRECTION('',(3.330669073875E-016,1.,-1.665334536938E-016));
#126 = DIRECTION('',(-1.,3.330669073875E-016,-5.551115123126E-017));
#127 = ORIENTED_EDGE('',*,*,#128,.T.);
#128 = EDGE_CURVE('',#118,#120,#129,.T.);
#129 = CIRCLE('',#130,0.76);
#130 = AXIS2_PLACEMENT_3D('',#131,#132,#133);
#131 = CARTESIAN_POINT('',(1.27,-0.8,7.5));
#132 = DIRECTION('',(-2.106022274728E-016,-1.,1.665334536938E-016));
#133 = DIRECTION('',(1.,-2.106022274728E-016,-5.551115123126E-017));
#134 = PLANE('',#135);
#135 = AXIS2_PLACEMENT_3D('',#136,#137,#138);
#136 = CARTESIAN_POINT('',(-0.98,-0.8,3.));
#137 = DIRECTION('',(0.E+000,1.,1.224646799147E-016));
#138 = DIRECTION('',(1.,0.E+000,0.E+000));
#139 = ADVANCED_FACE('',(#140,#151,#185),#219,.T.);
#140 = FACE_BOUND('',#141,.T.);
#141 = EDGE_LOOP('',(#142,#143,#144,#145));
#142 = ORIENTED_EDGE('',*,*,#109,.F.);
#143 = ORIENTED_EDGE('',*,*,#47,.F.);
#144 = ORIENTED_EDGE('',*,*,#78,.F.);
#145 = ORIENTED_EDGE('',*,*,#146,.F.);
#146 = EDGE_CURVE('',#102,#62,#147,.T.);
#147 = LINE('',#148,#149);
#148 = CARTESIAN_POINT('',(3.52,-0.8,3.));
#149 = VECTOR('',#150,1.);
#150 = DIRECTION('',(-2.775557561563E-016,1.,1.224646799147E-016));
#151 = FACE_BOUND('',#152,.T.);
#152 = EDGE_LOOP('',(#153,#163,#171,#179));
#153 = ORIENTED_EDGE('',*,*,#154,.F.);
#154 = EDGE_CURVE('',#155,#157,#159,.T.);
#155 = VERTEX_POINT('',#156);
#156 = CARTESIAN_POINT('',(2.34,0.2,3.));
#157 = VERTEX_POINT('',#158);
#158 = CARTESIAN_POINT('',(2.74,0.2,3.));
#159 = LINE('',#160,#161);
#160 = CARTESIAN_POINT('',(0.68,0.2,3.));
#161 = VECTOR('',#162,1.);
#162 = DIRECTION('',(1.,0.E+000,0.E+000));
#163 = ORIENTED_EDGE('',*,*,#164,.F.);
#164 = EDGE_CURVE('',#165,#155,#167,.T.);
#165 = VERTEX_POINT('',#166);
#166 = CARTESIAN_POINT('',(2.34,-0.2,3.));
#167 = LINE('',#168,#169);
#168 = CARTESIAN_POINT('',(2.34,-0.5,3.));
#169 = VECTOR('',#170,1.);
#170 = DIRECTION('',(0.E+000,1.,1.224646799147E-016));
#171 = ORIENTED_EDGE('',*,*,#172,.F.);
#172 = EDGE_CURVE('',#173,#165,#175,.T.);
#173 = VERTEX_POINT('',#174);
#174 = CARTESIAN_POINT('',(2.74,-0.2,3.));
#175 = LINE('',#176,#177);
#176 = CARTESIAN_POINT('',(0.88,-0.2,3.));
#177 = VECTOR('',#178,1.);
#178 = DIRECTION('',(-1.,0.E+000,0.E+000));
#179 = ORIENTED_EDGE('',*,*,#180,.F.);
#180 = EDGE_CURVE('',#157,#173,#181,.T.);
#181 = LINE('',#182,#183);
#182 = CARTESIAN_POINT('',(2.74,-0.3,3.));
#183 = VECTOR('',#184,1.);
#184 = DIRECTION('',(-0.E+000,-1.,-1.224646799147E-016));
#185 = FACE_BOUND('',#186,.T.);
#186 = EDGE_LOOP('',(#187,#197,#205,#213));
#187 = ORIENTED_EDGE('',*,*,#188,.F.);
#188 = EDGE_CURVE('',#189,#191,#193,.T.);
#189 = VERTEX_POINT('',#190);
#190 = CARTESIAN_POINT('',(-0.2,0.2,3.));
#191 = VERTEX_POINT('',#192);
#192 = CARTESIAN_POINT('',(0.2,0.2,3.));
#193 = LINE('',#194,#195);
#194 = CARTESIAN_POINT('',(-0.59,0.2,3.));
#195 = VECTOR('',#196,1.);
#196 = DIRECTION('',(1.,0.E+000,0.E+000));
#197 = ORIENTED_EDGE('',*,*,#198,.F.);
#198 = EDGE_CURVE('',#199,#189,#201,.T.);
#199 = VERTEX_POINT('',#200);
#200 = CARTESIAN_POINT('',(-0.2,-0.2,3.));
#201 = LINE('',#202,#203);
#202 = CARTESIAN_POINT('',(-0.2,-0.5,3.));
#203 = VECTOR('',#204,1.);
#204 = DIRECTION('',(0.E+000,1.,1.224646799147E-016));
#205 = ORIENTED_EDGE('',*,*,#206,.F.);
#206 = EDGE_CURVE('',#207,#199,#209,.T.);
#207 = VERTEX_POINT('',#208);
#208 = CARTESIAN_POINT('',(0.2,-0.2,3.));
#209 = LINE('',#210,#211);
#210 = CARTESIAN_POINT('',(-0.39,-0.2,3.));
#211 = VECTOR('',#212,1.);
#212 = DIRECTION('',(-1.,0.E+000,0.E+000));
#213 = ORIENTED_EDGE('',*,*,#214,.F.);
#214 = EDGE_CURVE('',#191,#207,#215,.T.);
#215 = LINE('',#216,#217);
#216 = CARTESIAN_POINT('',(0.2,-0.3,3.));
#217 = VECTOR('',#218,1.);
#218 = DIRECTION('',(-0.E+000,-1.,-1.224646799147E-016));
#219 = PLANE('',#220);
#220 = AXIS2_PLACEMENT_3D('',#221,#222,#223);
#221 = CARTESIAN_POINT('',(-0.98,-0.8,3.));
#222 = DIRECTION('',(0.E+000,1.224646799147E-016,-1.));
#223 = DIRECTION('',(-1.,0.E+000,0.E+000));
#224 = ADVANCED_FACE('',(#225),#236,.F.);
#225 = FACE_BOUND('',#226,.T.);
#226 = EDGE_LOOP('',(#227,#228,#234,#235));
#227 = ORIENTED_EDGE('',*,*,#93,.T.);
#228 = ORIENTED_EDGE('',*,*,#229,.T.);
#229 = EDGE_CURVE('',#94,#64,#230,.T.);
#230 = LINE('',#231,#232);
#231 = CARTESIAN_POINT('',(3.52,-0.8,8.7));
#232 = VECTOR('',#233,1.);
#233 = DIRECTION('',(-2.775557561563E-016,1.,1.224646799147E-016));
#234 = ORIENTED_EDGE('',*,*,#71,.T.);
#235 = ORIENTED_EDGE('',*,*,#31,.T.);
#236 = PLANE('',#237);
#237 = AXIS2_PLACEMENT_3D('',#238,#239,#240);
#238 = CARTESIAN_POINT('',(-0.98,-0.8,8.7));
#239 = DIRECTION('',(0.E+000,1.224646799147E-016,-1.));
#240 = DIRECTION('',(-1.,0.E+000,0.E+000));
#241 = ADVANCED_FACE('',(#242),#248,.F.);
#242 = FACE_BOUND('',#243,.F.);
#243 = EDGE_LOOP('',(#244,#245,#246,#247));
#244 = ORIENTED_EDGE('',*,*,#101,.T.);
#245 = ORIENTED_EDGE('',*,*,#229,.T.);
#246 = ORIENTED_EDGE('',*,*,#61,.F.);
#247 = ORIENTED_EDGE('',*,*,#146,.F.);
#248 = PLANE('',#249);
#249 = AXIS2_PLACEMENT_3D('',#250,#251,#252);
#250 = CARTESIAN_POINT('',(3.52,-0.8,3.));
#251 = DIRECTION('',(-1.,-2.775557561563E-016,-3.399077683617E-032));
#252 = DIRECTION('',(-2.775557561563E-016,1.,1.224646799147E-016));
#253 = ADVANCED_FACE('',(#254),#258,.T.);
#254 = FACE_BOUND('',#255,.T.);
#255 = EDGE_LOOP('',(#256,#257));
#256 = ORIENTED_EDGE('',*,*,#117,.F.);
#257 = ORIENTED_EDGE('',*,*,#128,.T.);
#258 = SPHERICAL_SURFACE('',#259,0.76);
#259 = AXIS2_PLACEMENT_3D('',#260,#261,#262);
#260 = CARTESIAN_POINT('',(1.27,-0.8,7.5));
#261 = DIRECTION('',(3.574525976783E-031,-1.665334536938E-016,-1.));
#262 = DIRECTION('',(1.,-8.063725126225E-016,4.807121141191E-031));
#263 = ADVANCED_FACE('',(#264),#289,.F.);
#264 = FACE_BOUND('',#265,.F.);
#265 = EDGE_LOOP('',(#266,#267,#275,#283));
#266 = ORIENTED_EDGE('',*,*,#154,.F.);
#267 = ORIENTED_EDGE('',*,*,#268,.T.);
#268 = EDGE_CURVE('',#155,#269,#271,.T.);
#269 = VERTEX_POINT('',#270);
#270 = CARTESIAN_POINT('',(2.34,0.2,-2.5));
#271 = LINE('',#272,#273);
#272 = CARTESIAN_POINT('',(2.34,0.2,3.5));
#273 = VECTOR('',#274,1.);
#274 = DIRECTION('',(-0.E+000,-0.E+000,-1.));
#275 = ORIENTED_EDGE('',*,*,#276,.T.);
#276 = EDGE_CURVE('',#269,#277,#279,.T.);
#277 = VERTEX_POINT('',#278);
#278 = CARTESIAN_POINT('',(2.74,0.2,-2.5));
#279 = LINE('',#280,#281);
#280 = CARTESIAN_POINT('',(2.34,0.2,-2.5));
#281 = VECTOR('',#282,1.);
#282 = DIRECTION('',(1.,0.E+000,0.E+000));
#283 = ORIENTED_EDGE('',*,*,#284,.F.);
#284 = EDGE_CURVE('',#157,#277,#285,.T.);
#285 = LINE('',#286,#287);
#286 = CARTESIAN_POINT('',(2.74,0.2,3.5));
#287 = VECTOR('',#288,1.);
#288 = DIRECTION('',(-0.E+000,-0.E+000,-1.));
#289 = PLANE('',#290);
#290 = AXIS2_PLACEMENT_3D('',#291,#292,#293);
#291 = CARTESIAN_POINT('',(2.34,0.2,3.5));
#292 = DIRECTION('',(0.E+000,-1.,0.E+000));
#293 = DIRECTION('',(1.,0.E+000,0.E+000));
#294 = ADVANCED_FACE('',(#295),#313,.F.);
#295 = FACE_BOUND('',#296,.F.);
#296 = EDGE_LOOP('',(#297,#298,#299,#307));
#297 = ORIENTED_EDGE('',*,*,#180,.F.);
#298 = ORIENTED_EDGE('',*,*,#284,.T.);
#299 = ORIENTED_EDGE('',*,*,#300,.T.);
#300 = EDGE_CURVE('',#277,#301,#303,.T.);
#301 = VERTEX_POINT('',#302);
#302 = CARTESIAN_POINT('',(2.74,-0.2,-2.5));
#303 = LINE('',#304,#305);
#304 = CARTESIAN_POINT('',(2.74,0.2,-2.5));
#305 = VECTOR('',#306,1.);
#306 = DIRECTION('',(0.E+000,-1.,0.E+000));
#307 = ORIENTED_EDGE('',*,*,#308,.F.);
#308 = EDGE_CURVE('',#173,#301,#309,.T.);
#309 = LINE('',#310,#311);
#310 = CARTESIAN_POINT('',(2.74,-0.2,3.5));
#311 = VECTOR('',#312,1.);
#312 = DIRECTION('',(-0.E+000,-0.E+000,-1.));
#313 = PLANE('',#314);
#314 = AXIS2_PLACEMENT_3D('',#315,#316,#317);
#315 = CARTESIAN_POINT('',(2.74,0.2,3.5));
#316 = DIRECTION('',(-1.,0.E+000,0.E+000));
#317 = DIRECTION('',(0.E+000,-1.,0.E+000));
#318 = ADVANCED_FACE('',(#319),#337,.F.);
#319 = FACE_BOUND('',#320,.F.);
#320 = EDGE_LOOP('',(#321,#322,#323,#331));
#321 = ORIENTED_EDGE('',*,*,#172,.F.);
#322 = ORIENTED_EDGE('',*,*,#308,.T.);
#323 = ORIENTED_EDGE('',*,*,#324,.T.);
#324 = EDGE_CURVE('',#301,#325,#327,.T.);
#325 = VERTEX_POINT('',#326);
#326 = CARTESIAN_POINT('',(2.34,-0.2,-2.5));
#327 = LINE('',#328,#329);
#328 = CARTESIAN_POINT('',(2.74,-0.2,-2.5));
#329 = VECTOR('',#330,1.);
#330 = DIRECTION('',(-1.,0.E+000,0.E+000));
#331 = ORIENTED_EDGE('',*,*,#332,.F.);
#332 = EDGE_CURVE('',#165,#325,#333,.T.);
#333 = LINE('',#334,#335);
#334 = CARTESIAN_POINT('',(2.34,-0.2,3.5));
#335 = VECTOR('',#336,1.);
#336 = DIRECTION('',(-0.E+000,-0.E+000,-1.));
#337 = PLANE('',#338);
#338 = AXIS2_PLACEMENT_3D('',#339,#340,#341);
#339 = CARTESIAN_POINT('',(2.74,-0.2,3.5));
#340 = DIRECTION('',(0.E+000,1.,0.E+000));
#341 = DIRECTION('',(-1.,0.E+000,0.E+000));
#342 = ADVANCED_FACE('',(#343),#354,.F.);
#343 = FACE_BOUND('',#344,.F.);
#344 = EDGE_LOOP('',(#345,#346,#347,#353));
#345 = ORIENTED_EDGE('',*,*,#164,.F.);
#346 = ORIENTED_EDGE('',*,*,#332,.T.);
#347 = ORIENTED_EDGE('',*,*,#348,.T.);
#348 = EDGE_CURVE('',#325,#269,#349,.T.);
#349 = LINE('',#350,#351);
#350 = CARTESIAN_POINT('',(2.34,-0.2,-2.5));
#351 = VECTOR('',#352,1.);
#352 = DIRECTION('',(0.E+000,1.,0.E+000));
#353 = ORIENTED_EDGE('',*,*,#268,.F.);
#354 = PLANE('',#355);
#355 = AXIS2_PLACEMENT_3D('',#356,#357,#358);
#356 = CARTESIAN_POINT('',(2.34,-0.2,3.5));
#357 = DIRECTION('',(1.,0.E+000,0.E+000));
#358 = DIRECTION('',(0.E+000,1.,0.E+000));
#359 = ADVANCED_FACE('',(#360),#385,.F.);
#360 = FACE_BOUND('',#361,.F.);
#361 = EDGE_LOOP('',(#362,#363,#371,#379));
#362 = ORIENTED_EDGE('',*,*,#188,.F.);
#363 = ORIENTED_EDGE('',*,*,#364,.T.);
#364 = EDGE_CURVE('',#189,#365,#367,.T.);
#365 = VERTEX_POINT('',#366);
#366 = CARTESIAN_POINT('',(-0.2,0.2,-2.5));
#367 = LINE('',#368,#369);
#368 = CARTESIAN_POINT('',(-0.2,0.2,3.5));
#369 = VECTOR('',#370,1.);
#370 = DIRECTION('',(-0.E+000,-0.E+000,-1.));
#371 = ORIENTED_EDGE('',*,*,#372,.T.);
#372 = EDGE_CURVE('',#365,#373,#375,.T.);
#373 = VERTEX_POINT('',#374);
#374 = CARTESIAN_POINT('',(0.2,0.2,-2.5));
#375 = LINE('',#376,#377);
#376 = CARTESIAN_POINT('',(-0.2,0.2,-2.5));
#377 = VECTOR('',#378,1.);
#378 = DIRECTION('',(1.,0.E+000,0.E+000));
#379 = ORIENTED_EDGE('',*,*,#380,.F.);
#380 = EDGE_CURVE('',#191,#373,#381,.T.);
#381 = LINE('',#382,#383);
#382 = CARTESIAN_POINT('',(0.2,0.2,3.5));
#383 = VECTOR('',#384,1.);
#384 = DIRECTION('',(-0.E+000,-0.E+000,-1.));
#385 = PLANE('',#386);
#386 = AXIS2_PLACEMENT_3D('',#387,#388,#389);
#387 = CARTESIAN_POINT('',(-0.2,0.2,3.5));
#388 = DIRECTION('',(0.E+000,-1.,0.E+000));
#389 = DIRECTION('',(1.,0.E+000,0.E+000));
#390 = ADVANCED_FACE('',(#391),#409,.F.);
#391 = FACE_BOUND('',#392,.F.);
#392 = EDGE_LOOP('',(#393,#394,#395,#403));
#393 = ORIENTED_EDGE('',*,*,#214,.F.);
#394 = ORIENTED_EDGE('',*,*,#380,.T.);
#395 = ORIENTED_EDGE('',*,*,#396,.T.);
#396 = EDGE_CURVE('',#373,#397,#399,.T.);
#397 = VERTEX_POINT('',#398);
#398 = CARTESIAN_POINT('',(0.2,-0.2,-2.5));
#399 = LINE('',#400,#401);
#400 = CARTESIAN_POINT('',(0.2,0.2,-2.5));
#401 = VECTOR('',#402,1.);
#402 = DIRECTION('',(0.E+000,-1.,0.E+000));
#403 = ORIENTED_EDGE('',*,*,#404,.F.);
#404 = EDGE_CURVE('',#207,#397,#405,.T.);
#405 = LINE('',#406,#407);
#406 = CARTESIAN_POINT('',(0.2,-0.2,3.5));
#407 = VECTOR('',#408,1.);
#408 = DIRECTION('',(-0.E+000,-0.E+000,-1.));
#409 = PLANE('',#410);
#410 = AXIS2_PLACEMENT_3D('',#411,#412,#413);
#411 = CARTESIAN_POINT('',(0.2,0.2,3.5));
#412 = DIRECTION('',(-1.,0.E+000,0.E+000));
#413 = DIRECTION('',(0.E+000,-1.,0.E+000));
#414 = ADVANCED_FACE('',(#415),#433,.F.);
#415 = FACE_BOUND('',#416,.F.);
#416 = EDGE_LOOP('',(#417,#418,#419,#427));
#417 = ORIENTED_EDGE('',*,*,#206,.F.);
#418 = ORIENTED_EDGE('',*,*,#404,.T.);
#419 = ORIENTED_EDGE('',*,*,#420,.T.);
#420 = EDGE_CURVE('',#397,#421,#423,.T.);
#421 = VERTEX_POINT('',#422);
#422 = CARTESIAN_POINT('',(-0.2,-0.2,-2.5));
#423 = LINE('',#424,#425);
#424 = CARTESIAN_POINT('',(0.2,-0.2,-2.5));
#425 = VECTOR('',#426,1.);
#426 = DIRECTION('',(-1.,0.E+000,0.E+000));
#427 = ORIENTED_EDGE('',*,*,#428,.F.);
#428 = EDGE_CURVE('',#199,#421,#429,.T.);
#429 = LINE('',#430,#431);
#430 = CARTESIAN_POINT('',(-0.2,-0.2,3.5));
#431 = VECTOR('',#432,1.);
#432 = DIRECTION('',(-0.E+000,-0.E+000,-1.));
#433 = PLANE('',#434);
#434 = AXIS2_PLACEMENT_3D('',#435,#436,#437);
#435 = CARTESIAN_POINT('',(0.2,-0.2,3.5));
#436 = DIRECTION('',(0.E+000,1.,0.E+000));
#437 = DIRECTION('',(-1.,0.E+000,0.E+000));
#438 = ADVANCED_FACE('',(#439),#450,.F.);
#439 = FACE_BOUND('',#440,.F.);
#440 = EDGE_LOOP('',(#441,#442,#443,#449));
#441 = ORIENTED_EDGE('',*,*,#198,.F.);
#442 = ORIENTED_EDGE('',*,*,#428,.T.);
#443 = ORIENTED_EDGE('',*,*,#444,.T.);
#444 = EDGE_CURVE('',#421,#365,#445,.T.);
#445 = LINE('',#446,#447);
#446 = CARTESIAN_POINT('',(-0.2,-0.2,-2.5));
#447 = VECTOR('',#448,1.);
#448 = DIRECTION('',(0.E+000,1.,0.E+000));
#449 = ORIENTED_EDGE('',*,*,#364,.F.);
#450 = PLANE('',#451);
#451 = AXIS2_PLACEMENT_3D('',#452,#453,#454);
#452 = CARTESIAN_POINT('',(-0.2,-0.2,3.5));
#453 = DIRECTION('',(1.,0.E+000,0.E+000));
#454 = DIRECTION('',(0.E+000,1.,0.E+000));
#455 = ADVANCED_FACE('',(#456),#462,.F.);
#456 = FACE_BOUND('',#457,.T.);
#457 = EDGE_LOOP('',(#458,#459,#460,#461));
#458 = ORIENTED_EDGE('',*,*,#276,.T.);
#459 = ORIENTED_EDGE('',*,*,#300,.T.);
#460 = ORIENTED_EDGE('',*,*,#324,.T.);
#461 = ORIENTED_EDGE('',*,*,#348,.T.);
#462 = PLANE('',#463);
#463 = AXIS2_PLACEMENT_3D('',#464,#465,#466);
#464 = CARTESIAN_POINT('',(2.34,0.2,-2.5));
#465 = DIRECTION('',(0.E+000,0.E+000,1.));
#466 = DIRECTION('',(1.,0.E+000,0.E+000));
#467 = ADVANCED_FACE('',(#468),#474,.F.);
#468 = FACE_BOUND('',#469,.T.);
#469 = EDGE_LOOP('',(#470,#471,#472,#473));
#470 = ORIENTED_EDGE('',*,*,#372,.T.);
#471 = ORIENTED_EDGE('',*,*,#396,.T.);
#472 = ORIENTED_EDGE('',*,*,#420,.T.);
#473 = ORIENTED_EDGE('',*,*,#444,.T.);
#474 = PLANE('',#475);
#475 = AXIS2_PLACEMENT_3D('',#476,#477,#478);
#476 = CARTESIAN_POINT('',(-0.2,0.2,-2.5));
#477 = DIRECTION('',(0.E+000,0.E+000,1.));
#478 = DIRECTION('',(1.,0.E+000,0.E+000));
#479 = ( GEOMETRIC_REPRESENTATION_CONTEXT(3) 
GLOBAL_UNCERTAINTY_ASSIGNED_CONTEXT((#483)) GLOBAL_UNIT_ASSIGNED_CONTEXT
((#480,#481,#482)) REPRESENTATION_CONTEXT('Context #1',
  '3D Context with UNIT and UNCERTAINTY') );
#480 = ( LENGTH_UNIT() NAMED_UNIT(*) SI_UNIT(.MILLI.,.METRE.) );
#481 = ( NAMED_UNIT(*) PLANE_ANGLE_UNIT() SI_UNIT($,.RADIAN.) );
#482 = ( NAMED_UNIT(*) SI_UNIT($,.STERADIAN.) SOLID_ANGLE_UNIT() );
#483 = UNCERTAINTY_MEASURE_WITH_UNIT(LENGTH_MEASURE(1.E-007),#480,
  'distance_accuracy_value','confusion accuracy');
#484 = PRODUCT_TYPE('part',$,(#7));
#485 = MECHANICAL_DESIGN_GEOMETRIC_PRESENTATION_REPRESENTATION('',(#486,
    #494,#501,#508,#515,#522,#529,#536,#544,#551,#558,#565,#572,#579,
    #586,#593,#600),#479);
#486 = STYLED_ITEM('color',(#487),#17);
#487 = PRESENTATION_STYLE_ASSIGNMENT((#488));
#488 = SURFACE_STYLE_USAGE(.BOTH.,#489);
#489 = SURFACE_SIDE_STYLE('',(#490));
#490 = SURFACE_STYLE_FILL_AREA(#491);
#491 = FILL_AREA_STYLE('',(#492));
#492 = FILL_AREA_STYLE_COLOUR('',#493);
#493 = COLOUR_RGB('',0.894999980927,0.89099997282,0.813000023365);
#494 = STYLED_ITEM('color',(#495),#57);
#495 = PRESENTATION_STYLE_ASSIGNMENT((#496));
#496 = SURFACE_STYLE_USAGE(.BOTH.,#497);
#497 = SURFACE_SIDE_STYLE('',(#498));
#498 = SURFACE_STYLE_FILL_AREA(#499);
#499 = FILL_AREA_STYLE('',(#500));
#500 = FILL_AREA_STYLE_COLOUR('',#493);
#501 = STYLED_ITEM('color',(#502),#88);
#502 = PRESENTATION_STYLE_ASSIGNMENT((#503));
#503 = SURFACE_STYLE_USAGE(.BOTH.,#504);
#504 = SURFACE_SIDE_STYLE('',(#505));
#505 = SURFACE_STYLE_FILL_AREA(#506);
#506 = FILL_AREA_STYLE('',(#507));
#507 = FILL_AREA_STYLE_COLOUR('',#493);
#508 = STYLED_ITEM('color',(#509),#139);
#509 = PRESENTATION_STYLE_ASSIGNMENT((#510));
#510 = SURFACE_STYLE_USAGE(.BOTH.,#511);
#511 = SURFACE_SIDE_STYLE('',(#512));
#512 = SURFACE_STYLE_FILL_AREA(#513);
#513 = FILL_AREA_STYLE('',(#514));
#514 = FILL_AREA_STYLE_COLOUR('',#493);
#515 = STYLED_ITEM('color',(#516),#224);
#516 = PRESENTATION_STYLE_ASSIGNMENT((#517));
#517 = SURFACE_STYLE_USAGE(.BOTH.,#518);
#518 = SURFACE_SIDE_STYLE('',(#519));
#519 = SURFACE_STYLE_FILL_AREA(#520);
#520 = FILL_AREA_STYLE('',(#521));
#521 = FILL_AREA_STYLE_COLOUR('',#493);
#522 = STYLED_ITEM('color',(#523),#241);
#523 = PRESENTATION_STYLE_ASSIGNMENT((#524));
#524 = SURFACE_STYLE_USAGE(.BOTH.,#525);
#525 = SURFACE_SIDE_STYLE('',(#526));
#526 = SURFACE_STYLE_FILL_AREA(#527);
#527 = FILL_AREA_STYLE('',(#528));
#528 = FILL_AREA_STYLE_COLOUR('',#493);
#529 = STYLED_ITEM('color',(#530),#253);
#530 = PRESENTATION_STYLE_ASSIGNMENT((#531));
#531 = SURFACE_STYLE_USAGE(.BOTH.,#532);
#532 = SURFACE_SIDE_STYLE('',(#533));
#533 = SURFACE_STYLE_FILL_AREA(#534);
#534 = FILL_AREA_STYLE('',(#535));
#535 = FILL_AREA_STYLE_COLOUR('',#493);
#536 = STYLED_ITEM('color',(#537),#263);
#537 = PRESENTATION_STYLE_ASSIGNMENT((#538));
#538 = SURFACE_STYLE_USAGE(.BOTH.,#539);
#539 = SURFACE_SIDE_STYLE('',(#540));
#540 = SURFACE_STYLE_FILL_AREA(#541);
#541 = FILL_AREA_STYLE('',(#542));
#542 = FILL_AREA_STYLE_COLOUR('',#543);
#543 = COLOUR_RGB('',0.824000000954,0.819999992847,0.78100001812);
#544 = STYLED_ITEM('color',(#545),#294);
#545 = PRESENTATION_STYLE_ASSIGNMENT((#546));
#546 = SURFACE_STYLE_USAGE(.BOTH.,#547);
#547 = SURFACE_SIDE_STYLE('',(#548));
#548 = SURFACE_STYLE_FILL_AREA(#549);
#549 = FILL_AREA_STYLE('',(#550));
#550 = FILL_AREA_STYLE_COLOUR('',#543);
#551 = STYLED_ITEM('color',(#552),#318);
#552 = PRESENTATION_STYLE_ASSIGNMENT((#553));
#553 = SURFACE_STYLE_USAGE(.BOTH.,#554);
#554 = SURFACE_SIDE_STYLE('',(#555));
#555 = SURFACE_STYLE_FILL_AREA(#556);
#556 = FILL_AREA_STYLE('',(#557));
#557 = FILL_AREA_STYLE_COLOUR('',#543);
#558 = STYLED_ITEM('color',(#559),#342);
#559 = PRESENTATION_STYLE_ASSIGNMENT((#560));
#560 = SURFACE_STYLE_USAGE(.BOTH.,#561);
#561 = SURFACE_SIDE_STYLE('',(#562));
#562 = SURFACE_STYLE_FILL_AREA(#563);
#563 = FILL_AREA_STYLE('',(#564));
#564 = FILL_AREA_STYLE_COLOUR('',#543);
#565 = STYLED_ITEM('color',(#566),#359);
#566 = PRESENTATION_STYLE_ASSIGNMENT((#567));
#567 = SURFACE_STYLE_USAGE(.BOTH.,#568);
#568 = SURFACE_SIDE_STYLE('',(#569));
#569 = SURFACE_STYLE_FILL_AREA(#570);
#570 = FILL_AREA_STYLE('',(#571));
#571 = FILL_AREA_STYLE_COLOUR('',#543);
#572 = STYLED_ITEM('color',(#573),#390);
#573 = PRESENTATION_STYLE_ASSIGNMENT((#574));
#574 = SURFACE_STYLE_USAGE(.BOTH.,#575);
#575 = SURFACE_SIDE_STYLE('',(#576));
#576 = SURFACE_STYLE_FILL_AREA(#577);
#577 = FILL_AREA_STYLE('',(#578));
#578 = FILL_AREA_STYLE_COLOUR('',#543);
#579 = STYLED_ITEM('color',(#580),#414);
#580 = PRESENTATION_STYLE_ASSIGNMENT((#581));
#581 = SURFACE_STYLE_USAGE(.BOTH.,#582);
#582 = SURFACE_SIDE_STYLE('',(#583));
#583 = SURFACE_STYLE_FILL_AREA(#584);
#584 = FILL_AREA_STYLE('',(#585));
#585 = FILL_AREA_STYLE_COLOUR('',#543);
#586 = STYLED_ITEM('color',(#587),#438);
#587 = PRESENTATION_STYLE_ASSIGNMENT((#588));
#588 = SURFACE_STYLE_USAGE(.BOTH.,#589);
#589 = SURFACE_SIDE_STYLE('',(#590));
#590 = SURFACE_STYLE_FILL_AREA(#591);
#591 = FILL_AREA_STYLE('',(#592));
#592 = FILL_AREA_STYLE_COLOUR('',#543);
#593 = STYLED_ITEM('color',(#594),#455);
#594 = PRESENTATION_STYLE_ASSIGNMENT((#595));
#595 = SURFACE_STYLE_USAGE(.BOTH.,#596);
#596 = SURFACE_SIDE_STYLE('',(#597));
#597 = SURFACE_STYLE_FILL_AREA(#598);
#598 = FILL_AREA_STYLE('',(#599));
#599 = FILL_AREA_STYLE_COLOUR('',#543);
#600 = STYLED_ITEM('color',(#601),#467);
#601 = PRESENTATION_STYLE_ASSIGNMENT((#602));
#602 = SURFACE_STYLE_USAGE(.BOTH.,#603);
#603 = SURFACE_SIDE_STYLE('',(#604));
#604 = SURFACE_STYLE_FILL_AREA(#605);
#605 = FILL_AREA_STYLE('',(#606));
#606 = FILL_AREA_STYLE_COLOUR('',#543);
ENDSEC;
END-ISO-10303-21;
