ISO-10303-21;
HEADER;
FILE_DESCRIPTION(('FreeCAD Model'),'2;1');
FILE_NAME(
'D:/KiCAD/packages3D-source/Diode_THT.3dshapes\\
Diode_Bridge_Round_D9.0mm.step','2018-01-04T21:15:40',('kicad StepUp'),(
    'ksu MCAD'),'Open CASCADE STEP processor 6.8','FreeCAD','Unknown');
FILE_SCHEMA(('AUTOMOTIVE_DESIGN_CC2 { 1 2 10303 214 -1 1 5 4 }'));
ENDSEC;
DATA;
#1 = APPLICATION_PROTOCOL_DEFINITION('committee draft',
  'automotive_design',1997,#2);
#2 = APPLICATION_CONTEXT(
  'core data for automotive mechanical design processes');
#3 = SHAPE_DEFINITION_REPRESENTATION(#4,#10);
#4 = PRODUCT_DEFINITION_SHAPE('','',#5);
#5 = PRODUCT_DEFINITION('design','',#6,#9);
#6 = PRODUCT_DEFINITION_FORMATION('','',#7);
#7 = PRODUCT('Diode_Bridge_Round_D9.0mm','Diode_Bridge_Round_D9.0mm','',
  (#8));
#8 = MECHANICAL_CONTEXT('',#2,'mechanical');
#9 = PRODUCT_DEFINITION_CONTEXT('part definition',#2,'design');
#10 = ADVANCED_BREP_SHAPE_REPRESENTATION('',(#11,#15),#274);
#11 = AXIS2_PLACEMENT_3D('',#12,#13,#14);
#12 = CARTESIAN_POINT('',(0.E+000,0.E+000,0.E+000));
#13 = DIRECTION('',(0.E+000,0.E+000,1.));
#14 = DIRECTION('',(1.,0.E+000,-0.E+000));
#15 = MANIFOLD_SOLID_BREP('',#16);
#16 = CLOSED_SHELL('',(#17,#34,#59,#112,#137,#162,#187,#212,#238,#247,
    #256,#265));
#17 = ADVANCED_FACE('',(#18),#29,.T.);
#18 = FACE_BOUND('',#19,.F.);
#19 = EDGE_LOOP('',(#20));
#20 = ORIENTED_EDGE('',*,*,#21,.T.);
#21 = EDGE_CURVE('',#22,#22,#24,.T.);
#22 = VERTEX_POINT('',#23);
#23 = CARTESIAN_POINT('',(5.4,-5.,-5.));
#24 = CIRCLE('',#25,0.4);
#25 = AXIS2_PLACEMENT_3D('',#26,#27,#28);
#26 = CARTESIAN_POINT('',(5.,-5.,-5.));
#27 = DIRECTION('',(0.E+000,0.E+000,1.));
#28 = DIRECTION('',(1.,0.E+000,0.E+000));
#29 = PLANE('',#30);
#30 = AXIS2_PLACEMENT_3D('',#31,#32,#33);
#31 = CARTESIAN_POINT('',(5.4,-5.,-5.));
#32 = DIRECTION('',(0.E+000,0.E+000,-1.));
#33 = DIRECTION('',(-1.,0.E+000,0.E+000));
#34 = ADVANCED_FACE('',(#35),#54,.T.);
#35 = FACE_BOUND('',#36,.T.);
#36 = EDGE_LOOP('',(#37,#46,#52,#53));
#37 = ORIENTED_EDGE('',*,*,#38,.F.);
#38 = EDGE_CURVE('',#39,#39,#41,.T.);
#39 = VERTEX_POINT('',#40);
#40 = CARTESIAN_POINT('',(5.4,-5.,0.E+000));
#41 = CIRCLE('',#42,0.4);
#42 = AXIS2_PLACEMENT_3D('',#43,#44,#45);
#43 = CARTESIAN_POINT('',(5.,-5.,0.E+000));
#44 = DIRECTION('',(0.E+000,0.E+000,1.));
#45 = DIRECTION('',(1.,0.E+000,0.E+000));
#46 = ORIENTED_EDGE('',*,*,#47,.T.);
#47 = EDGE_CURVE('',#39,#22,#48,.T.);
#48 = LINE('',#49,#50);
#49 = CARTESIAN_POINT('',(5.4,-5.,0.E+000));
#50 = VECTOR('',#51,1.);
#51 = DIRECTION('',(-0.E+000,-0.E+000,-1.));
#52 = ORIENTED_EDGE('',*,*,#21,.T.);
#53 = ORIENTED_EDGE('',*,*,#47,.F.);
#54 = CYLINDRICAL_SURFACE('',#55,0.4);
#55 = AXIS2_PLACEMENT_3D('',#56,#57,#58);
#56 = CARTESIAN_POINT('',(5.,-5.,0.E+000));
#57 = DIRECTION('',(0.E+000,0.E+000,1.));
#58 = DIRECTION('',(1.,0.E+000,0.E+000));
#59 = ADVANCED_FACE('',(#60,#71,#82,#85,#96),#107,.T.);
#60 = FACE_BOUND('',#61,.T.);
#61 = EDGE_LOOP('',(#62));
#62 = ORIENTED_EDGE('',*,*,#63,.F.);
#63 = EDGE_CURVE('',#64,#64,#66,.T.);
#64 = VERTEX_POINT('',#65);
#65 = CARTESIAN_POINT('',(7.,-2.5,0.E+000));
#66 = CIRCLE('',#67,4.5);
#67 = AXIS2_PLACEMENT_3D('',#68,#69,#70);
#68 = CARTESIAN_POINT('',(2.5,-2.5,0.E+000));
#69 = DIRECTION('',(0.E+000,0.E+000,1.));
#70 = DIRECTION('',(1.,0.E+000,0.E+000));
#71 = FACE_BOUND('',#72,.T.);
#72 = EDGE_LOOP('',(#73));
#73 = ORIENTED_EDGE('',*,*,#74,.T.);
#74 = EDGE_CURVE('',#75,#75,#77,.T.);
#75 = VERTEX_POINT('',#76);
#76 = CARTESIAN_POINT('',(0.4,-5.,0.E+000));
#77 = CIRCLE('',#78,0.4);
#78 = AXIS2_PLACEMENT_3D('',#79,#80,#81);
#79 = CARTESIAN_POINT('',(0.E+000,-5.,0.E+000));
#80 = DIRECTION('',(0.E+000,0.E+000,1.));
#81 = DIRECTION('',(1.,0.E+000,0.E+000));
#82 = FACE_BOUND('',#83,.T.);
#83 = EDGE_LOOP('',(#84));
#84 = ORIENTED_EDGE('',*,*,#38,.T.);
#85 = FACE_BOUND('',#86,.T.);
#86 = EDGE_LOOP('',(#87));
#87 = ORIENTED_EDGE('',*,*,#88,.T.);
#88 = EDGE_CURVE('',#89,#89,#91,.T.);
#89 = VERTEX_POINT('',#90);
#90 = CARTESIAN_POINT('',(5.4,0.E+000,0.E+000));
#91 = CIRCLE('',#92,0.4);
#92 = AXIS2_PLACEMENT_3D('',#93,#94,#95);
#93 = CARTESIAN_POINT('',(5.,0.E+000,0.E+000));
#94 = DIRECTION('',(0.E+000,0.E+000,1.));
#95 = DIRECTION('',(1.,0.E+000,0.E+000));
#96 = FACE_BOUND('',#97,.T.);
#97 = EDGE_LOOP('',(#98));
#98 = ORIENTED_EDGE('',*,*,#99,.T.);
#99 = EDGE_CURVE('',#100,#100,#102,.T.);
#100 = VERTEX_POINT('',#101);
#101 = CARTESIAN_POINT('',(0.4,0.E+000,0.E+000));
#102 = CIRCLE('',#103,0.4);
#103 = AXIS2_PLACEMENT_3D('',#104,#105,#106);
#104 = CARTESIAN_POINT('',(0.E+000,0.E+000,0.E+000));
#105 = DIRECTION('',(0.E+000,0.E+000,1.));
#106 = DIRECTION('',(1.,0.E+000,0.E+000));
#107 = PLANE('',#108);
#108 = AXIS2_PLACEMENT_3D('',#109,#110,#111);
#109 = CARTESIAN_POINT('',(7.,-2.5,0.E+000));
#110 = DIRECTION('',(0.E+000,0.E+000,-1.));
#111 = DIRECTION('',(-1.,0.E+000,0.E+000));
#112 = ADVANCED_FACE('',(#113),#132,.T.);
#113 = FACE_BOUND('',#114,.F.);
#114 = EDGE_LOOP('',(#115,#123,#130,#131));
#115 = ORIENTED_EDGE('',*,*,#116,.T.);
#116 = EDGE_CURVE('',#64,#117,#119,.T.);
#117 = VERTEX_POINT('',#118);
#118 = CARTESIAN_POINT('',(7.,-2.5,4.7));
#119 = LINE('',#120,#121);
#120 = CARTESIAN_POINT('',(7.,-2.5,0.E+000));
#121 = VECTOR('',#122,1.);
#122 = DIRECTION('',(0.E+000,0.E+000,1.));
#123 = ORIENTED_EDGE('',*,*,#124,.T.);
#124 = EDGE_CURVE('',#117,#117,#125,.T.);
#125 = CIRCLE('',#126,4.5);
#126 = AXIS2_PLACEMENT_3D('',#127,#128,#129);
#127 = CARTESIAN_POINT('',(2.5,-2.5,4.7));
#128 = DIRECTION('',(0.E+000,0.E+000,1.));
#129 = DIRECTION('',(1.,0.E+000,0.E+000));
#130 = ORIENTED_EDGE('',*,*,#116,.F.);
#131 = ORIENTED_EDGE('',*,*,#63,.F.);
#132 = CYLINDRICAL_SURFACE('',#133,4.5);
#133 = AXIS2_PLACEMENT_3D('',#134,#135,#136);
#134 = CARTESIAN_POINT('',(2.5,-2.5,0.E+000));
#135 = DIRECTION('',(-0.E+000,-0.E+000,-1.));
#136 = DIRECTION('',(1.,0.E+000,0.E+000));
#137 = ADVANCED_FACE('',(#138),#157,.T.);
#138 = FACE_BOUND('',#139,.T.);
#139 = EDGE_LOOP('',(#140,#141,#149,#156));
#140 = ORIENTED_EDGE('',*,*,#74,.F.);
#141 = ORIENTED_EDGE('',*,*,#142,.T.);
#142 = EDGE_CURVE('',#75,#143,#145,.T.);
#143 = VERTEX_POINT('',#144);
#144 = CARTESIAN_POINT('',(0.4,-5.,-5.));
#145 = LINE('',#146,#147);
#146 = CARTESIAN_POINT('',(0.4,-5.,0.E+000));
#147 = VECTOR('',#148,1.);
#148 = DIRECTION('',(-0.E+000,-0.E+000,-1.));
#149 = ORIENTED_EDGE('',*,*,#150,.T.);
#150 = EDGE_CURVE('',#143,#143,#151,.T.);
#151 = CIRCLE('',#152,0.4);
#152 = AXIS2_PLACEMENT_3D('',#153,#154,#155);
#153 = CARTESIAN_POINT('',(0.E+000,-5.,-5.));
#154 = DIRECTION('',(0.E+000,0.E+000,1.));
#155 = DIRECTION('',(1.,0.E+000,0.E+000));
#156 = ORIENTED_EDGE('',*,*,#142,.F.);
#157 = CYLINDRICAL_SURFACE('',#158,0.4);
#158 = AXIS2_PLACEMENT_3D('',#159,#160,#161);
#159 = CARTESIAN_POINT('',(0.E+000,-5.,0.E+000));
#160 = DIRECTION('',(0.E+000,0.E+000,1.));
#161 = DIRECTION('',(1.,0.E+000,0.E+000));
#162 = ADVANCED_FACE('',(#163),#182,.T.);
#163 = FACE_BOUND('',#164,.T.);
#164 = EDGE_LOOP('',(#165,#166,#174,#181));
#165 = ORIENTED_EDGE('',*,*,#88,.F.);
#166 = ORIENTED_EDGE('',*,*,#167,.T.);
#167 = EDGE_CURVE('',#89,#168,#170,.T.);
#168 = VERTEX_POINT('',#169);
#169 = CARTESIAN_POINT('',(5.4,0.E+000,-5.));
#170 = LINE('',#171,#172);
#171 = CARTESIAN_POINT('',(5.4,0.E+000,0.E+000));
#172 = VECTOR('',#173,1.);
#173 = DIRECTION('',(-0.E+000,-0.E+000,-1.));
#174 = ORIENTED_EDGE('',*,*,#175,.T.);
#175 = EDGE_CURVE('',#168,#168,#176,.T.);
#176 = CIRCLE('',#177,0.4);
#177 = AXIS2_PLACEMENT_3D('',#178,#179,#180);
#178 = CARTESIAN_POINT('',(5.,0.E+000,-5.));
#179 = DIRECTION('',(0.E+000,0.E+000,1.));
#180 = DIRECTION('',(1.,0.E+000,0.E+000));
#181 = ORIENTED_EDGE('',*,*,#167,.F.);
#182 = CYLINDRICAL_SURFACE('',#183,0.4);
#183 = AXIS2_PLACEMENT_3D('',#184,#185,#186);
#184 = CARTESIAN_POINT('',(5.,0.E+000,0.E+000));
#185 = DIRECTION('',(0.E+000,0.E+000,1.));
#186 = DIRECTION('',(1.,0.E+000,0.E+000));
#187 = ADVANCED_FACE('',(#188),#207,.T.);
#188 = FACE_BOUND('',#189,.T.);
#189 = EDGE_LOOP('',(#190,#191,#199,#206));
#190 = ORIENTED_EDGE('',*,*,#99,.F.);
#191 = ORIENTED_EDGE('',*,*,#192,.T.);
#192 = EDGE_CURVE('',#100,#193,#195,.T.);
#193 = VERTEX_POINT('',#194);
#194 = CARTESIAN_POINT('',(0.4,0.E+000,-5.));
#195 = LINE('',#196,#197);
#196 = CARTESIAN_POINT('',(0.4,0.E+000,0.E+000));
#197 = VECTOR('',#198,1.);
#198 = DIRECTION('',(-0.E+000,-0.E+000,-1.));
#199 = ORIENTED_EDGE('',*,*,#200,.T.);
#200 = EDGE_CURVE('',#193,#193,#201,.T.);
#201 = CIRCLE('',#202,0.4);
#202 = AXIS2_PLACEMENT_3D('',#203,#204,#205);
#203 = CARTESIAN_POINT('',(0.E+000,0.E+000,-5.));
#204 = DIRECTION('',(0.E+000,0.E+000,1.));
#205 = DIRECTION('',(1.,0.E+000,0.E+000));
#206 = ORIENTED_EDGE('',*,*,#192,.F.);
#207 = CYLINDRICAL_SURFACE('',#208,0.4);
#208 = AXIS2_PLACEMENT_3D('',#209,#210,#211);
#209 = CARTESIAN_POINT('',(0.E+000,0.E+000,0.E+000));
#210 = DIRECTION('',(0.E+000,0.E+000,1.));
#211 = DIRECTION('',(1.,0.E+000,0.E+000));
#212 = ADVANCED_FACE('',(#213),#233,.T.);
#213 = FACE_BOUND('',#214,.T.);
#214 = EDGE_LOOP('',(#215,#224,#225,#226));
#215 = ORIENTED_EDGE('',*,*,#216,.F.);
#216 = EDGE_CURVE('',#117,#217,#219,.T.);
#217 = VERTEX_POINT('',#218);
#218 = CARTESIAN_POINT('',(6.6,-2.5,5.1));
#219 = CIRCLE('',#220,0.4);
#220 = AXIS2_PLACEMENT_3D('',#221,#222,#223);
#221 = CARTESIAN_POINT('',(6.6,-2.5,4.7));
#222 = DIRECTION('',(0.E+000,-1.,0.E+000));
#223 = DIRECTION('',(1.,0.E+000,0.E+000));
#224 = ORIENTED_EDGE('',*,*,#124,.T.);
#225 = ORIENTED_EDGE('',*,*,#216,.T.);
#226 = ORIENTED_EDGE('',*,*,#227,.F.);
#227 = EDGE_CURVE('',#217,#217,#228,.T.);
#228 = CIRCLE('',#229,4.1);
#229 = AXIS2_PLACEMENT_3D('',#230,#231,#232);
#230 = CARTESIAN_POINT('',(2.5,-2.5,5.1));
#231 = DIRECTION('',(0.E+000,0.E+000,1.));
#232 = DIRECTION('',(1.,0.E+000,0.E+000));
#233 = TOROIDAL_SURFACE('',#234,4.1,0.4);
#234 = AXIS2_PLACEMENT_3D('',#235,#236,#237);
#235 = CARTESIAN_POINT('',(2.5,-2.5,4.7));
#236 = DIRECTION('',(0.E+000,0.E+000,1.));
#237 = DIRECTION('',(1.,0.E+000,0.E+000));
#238 = ADVANCED_FACE('',(#239),#242,.T.);
#239 = FACE_BOUND('',#240,.F.);
#240 = EDGE_LOOP('',(#241));
#241 = ORIENTED_EDGE('',*,*,#150,.T.);
#242 = PLANE('',#243);
#243 = AXIS2_PLACEMENT_3D('',#244,#245,#246);
#244 = CARTESIAN_POINT('',(0.4,-5.,-5.));
#245 = DIRECTION('',(0.E+000,0.E+000,-1.));
#246 = DIRECTION('',(-1.,0.E+000,0.E+000));
#247 = ADVANCED_FACE('',(#248),#251,.T.);
#248 = FACE_BOUND('',#249,.F.);
#249 = EDGE_LOOP('',(#250));
#250 = ORIENTED_EDGE('',*,*,#175,.T.);
#251 = PLANE('',#252);
#252 = AXIS2_PLACEMENT_3D('',#253,#254,#255);
#253 = CARTESIAN_POINT('',(5.4,0.E+000,-5.));
#254 = DIRECTION('',(0.E+000,0.E+000,-1.));
#255 = DIRECTION('',(-1.,0.E+000,0.E+000));
#256 = ADVANCED_FACE('',(#257),#260,.T.);
#257 = FACE_BOUND('',#258,.F.);
#258 = EDGE_LOOP('',(#259));
#259 = ORIENTED_EDGE('',*,*,#200,.T.);
#260 = PLANE('',#261);
#261 = AXIS2_PLACEMENT_3D('',#262,#263,#264);
#262 = CARTESIAN_POINT('',(0.4,0.E+000,-5.));
#263 = DIRECTION('',(0.E+000,0.E+000,-1.));
#264 = DIRECTION('',(-1.,0.E+000,0.E+000));
#265 = ADVANCED_FACE('',(#266),#269,.F.);
#266 = FACE_BOUND('',#267,.F.);
#267 = EDGE_LOOP('',(#268));
#268 = ORIENTED_EDGE('',*,*,#227,.F.);
#269 = PLANE('',#270);
#270 = AXIS2_PLACEMENT_3D('',#271,#272,#273);
#271 = CARTESIAN_POINT('',(7.,-2.5,5.1));
#272 = DIRECTION('',(0.E+000,0.E+000,-1.));
#273 = DIRECTION('',(-1.,0.E+000,0.E+000));
#274 = ( GEOMETRIC_REPRESENTATION_CONTEXT(3) 
GLOBAL_UNCERTAINTY_ASSIGNED_CONTEXT((#278)) GLOBAL_UNIT_ASSIGNED_CONTEXT
((#275,#276,#277)) REPRESENTATION_CONTEXT('Context #1',
  '3D Context with UNIT and UNCERTAINTY') );
#275 = ( LENGTH_UNIT() NAMED_UNIT(*) SI_UNIT(.MILLI.,.METRE.) );
#276 = ( NAMED_UNIT(*) PLANE_ANGLE_UNIT() SI_UNIT($,.RADIAN.) );
#277 = ( NAMED_UNIT(*) SI_UNIT($,.STERADIAN.) SOLID_ANGLE_UNIT() );
#278 = UNCERTAINTY_MEASURE_WITH_UNIT(LENGTH_MEASURE(1.E-007),#275,
  'distance_accuracy_value','confusion accuracy');
#279 = PRODUCT_TYPE('part',$,(#7));
#280 = MECHANICAL_DESIGN_GEOMETRIC_PRESENTATION_REPRESENTATION('',(#281,
    #289,#296,#304,#311,#318,#325,#332,#339,#346,#353,#360),#274);
#281 = STYLED_ITEM('color',(#282),#17);
#282 = PRESENTATION_STYLE_ASSIGNMENT((#283));
#283 = SURFACE_STYLE_USAGE(.BOTH.,#284);
#284 = SURFACE_SIDE_STYLE('',(#285));
#285 = SURFACE_STYLE_FILL_AREA(#286);
#286 = FILL_AREA_STYLE('',(#287));
#287 = FILL_AREA_STYLE_COLOUR('',#288);
#288 = COLOUR_RGB('',0.824000000954,0.819999992847,0.78100001812);
#289 = STYLED_ITEM('color',(#290),#34);
#290 = PRESENTATION_STYLE_ASSIGNMENT((#291));
#291 = SURFACE_STYLE_USAGE(.BOTH.,#292);
#292 = SURFACE_SIDE_STYLE('',(#293));
#293 = SURFACE_STYLE_FILL_AREA(#294);
#294 = FILL_AREA_STYLE('',(#295));
#295 = FILL_AREA_STYLE_COLOUR('',#288);
#296 = STYLED_ITEM('color',(#297),#59);
#297 = PRESENTATION_STYLE_ASSIGNMENT((#298));
#298 = SURFACE_STYLE_USAGE(.BOTH.,#299);
#299 = SURFACE_SIDE_STYLE('',(#300));
#300 = SURFACE_STYLE_FILL_AREA(#301);
#301 = FILL_AREA_STYLE('',(#302));
#302 = FILL_AREA_STYLE_COLOUR('',#303);
#303 = COLOUR_RGB('',0.148000001907,0.144999995828,0.144999995828);
#304 = STYLED_ITEM('color',(#305),#112);
#305 = PRESENTATION_STYLE_ASSIGNMENT((#306));
#306 = SURFACE_STYLE_USAGE(.BOTH.,#307);
#307 = SURFACE_SIDE_STYLE('',(#308));
#308 = SURFACE_STYLE_FILL_AREA(#309);
#309 = FILL_AREA_STYLE('',(#310));
#310 = FILL_AREA_STYLE_COLOUR('',#303);
#311 = STYLED_ITEM('color',(#312),#137);
#312 = PRESENTATION_STYLE_ASSIGNMENT((#313));
#313 = SURFACE_STYLE_USAGE(.BOTH.,#314);
#314 = SURFACE_SIDE_STYLE('',(#315));
#315 = SURFACE_STYLE_FILL_AREA(#316);
#316 = FILL_AREA_STYLE('',(#317));
#317 = FILL_AREA_STYLE_COLOUR('',#288);
#318 = STYLED_ITEM('color',(#319),#162);
#319 = PRESENTATION_STYLE_ASSIGNMENT((#320));
#320 = SURFACE_STYLE_USAGE(.BOTH.,#321);
#321 = SURFACE_SIDE_STYLE('',(#322));
#322 = SURFACE_STYLE_FILL_AREA(#323);
#323 = FILL_AREA_STYLE('',(#324));
#324 = FILL_AREA_STYLE_COLOUR('',#288);
#325 = STYLED_ITEM('color',(#326),#187);
#326 = PRESENTATION_STYLE_ASSIGNMENT((#327));
#327 = SURFACE_STYLE_USAGE(.BOTH.,#328);
#328 = SURFACE_SIDE_STYLE('',(#329));
#329 = SURFACE_STYLE_FILL_AREA(#330);
#330 = FILL_AREA_STYLE('',(#331));
#331 = FILL_AREA_STYLE_COLOUR('',#288);
#332 = STYLED_ITEM('color',(#333),#212);
#333 = PRESENTATION_STYLE_ASSIGNMENT((#334));
#334 = SURFACE_STYLE_USAGE(.BOTH.,#335);
#335 = SURFACE_SIDE_STYLE('',(#336));
#336 = SURFACE_STYLE_FILL_AREA(#337);
#337 = FILL_AREA_STYLE('',(#338));
#338 = FILL_AREA_STYLE_COLOUR('',#303);
#339 = STYLED_ITEM('color',(#340),#238);
#340 = PRESENTATION_STYLE_ASSIGNMENT((#341));
#341 = SURFACE_STYLE_USAGE(.BOTH.,#342);
#342 = SURFACE_SIDE_STYLE('',(#343));
#343 = SURFACE_STYLE_FILL_AREA(#344);
#344 = FILL_AREA_STYLE('',(#345));
#345 = FILL_AREA_STYLE_COLOUR('',#288);
#346 = STYLED_ITEM('color',(#347),#247);
#347 = PRESENTATION_STYLE_ASSIGNMENT((#348));
#348 = SURFACE_STYLE_USAGE(.BOTH.,#349);
#349 = SURFACE_SIDE_STYLE('',(#350));
#350 = SURFACE_STYLE_FILL_AREA(#351);
#351 = FILL_AREA_STYLE('',(#352));
#352 = FILL_AREA_STYLE_COLOUR('',#288);
#353 = STYLED_ITEM('color',(#354),#256);
#354 = PRESENTATION_STYLE_ASSIGNMENT((#355));
#355 = SURFACE_STYLE_USAGE(.BOTH.,#356);
#356 = SURFACE_SIDE_STYLE('',(#357));
#357 = SURFACE_STYLE_FILL_AREA(#358);
#358 = FILL_AREA_STYLE('',(#359));
#359 = FILL_AREA_STYLE_COLOUR('',#288);
#360 = STYLED_ITEM('color',(#361),#265);
#361 = PRESENTATION_STYLE_ASSIGNMENT((#362));
#362 = SURFACE_STYLE_USAGE(.BOTH.,#363);
#363 = SURFACE_SIDE_STYLE('',(#364));
#364 = SURFACE_STYLE_FILL_AREA(#365);
#365 = FILL_AREA_STYLE('',(#366));
#366 = FILL_AREA_STYLE_COLOUR('',#303);
ENDSEC;
END-ISO-10303-21;
