ISO-10303-21;
HEADER;
FILE_DESCRIPTION(('FreeCAD Model'),'2;1');
FILE_NAME(
'D:/KiCAD/packages3D-source/Diode_THT.3dshapes\\
D_T-1_P5.08mm_Horizontal.step','2017-11-24T18:05:25',('kicad StepUp'),(
    'ksu MCAD'),'Open CASCADE STEP processor 7.1','FreeCAD','Unknown');
FILE_SCHEMA(('AUTOMOTIVE_DESIGN { 1 0 10303 214 1 1 1 1 }'));
ENDSEC;
DATA;
#1 = APPLICATION_PROTOCOL_DEFINITION('international standard',
  'automotive_design',2000,#2);
#2 = APPLICATION_CONTEXT(
  'core data for automotive mechanical design processes');
#3 = SHAPE_DEFINITION_REPRESENTATION(#4,#10);
#4 = PRODUCT_DEFINITION_SHAPE('','',#5);
#5 = PRODUCT_DEFINITION('design','',#6,#9);
#6 = PRODUCT_DEFINITION_FORMATION('','',#7);
#7 = PRODUCT('D_T-1_P5.08mm_Horizontal','D_T-1_P5.08mm_Horizontal','',(
    #8));
#8 = PRODUCT_CONTEXT('',#2,'mechanical');
#9 = PRODUCT_DEFINITION_CONTEXT('part definition',#2,'design');
#10 = ADVANCED_BREP_SHAPE_REPRESENTATION('',(#11,#15),#377);
#11 = AXIS2_PLACEMENT_3D('',#12,#13,#14);
#12 = CARTESIAN_POINT('',(0.E+000,0.E+000,0.E+000));
#13 = DIRECTION('',(0.E+000,0.E+000,1.));
#14 = DIRECTION('',(1.,0.E+000,-0.E+000));
#15 = MANIFOLD_SOLID_BREP('',#16);
#16 = CLOSED_SHELL('',(#17,#50,#70,#90,#116,#141,#161,#187,#212,#232,
    #258,#283,#308,#334,#343,#368));
#17 = ADVANCED_FACE('',(#18),#45,.T.);
#18 = FACE_BOUND('',#19,.T.);
#19 = EDGE_LOOP('',(#20,#29,#37,#44));
#20 = ORIENTED_EDGE('',*,*,#21,.T.);
#21 = EDGE_CURVE('',#22,#22,#24,.T.);
#22 = VERTEX_POINT('',#23);
#23 = CARTESIAN_POINT('',(1.42,2.071676163951E-015,3.11));
#24 = CIRCLE('',#25,1.31);
#25 = AXIS2_PLACEMENT_3D('',#26,#27,#28);
#26 = CARTESIAN_POINT('',(1.42,7.993605777301E-016,1.8));
#27 = DIRECTION('',(1.,0.E+000,-0.E+000));
#28 = DIRECTION('',(0.E+000,9.71233271924E-016,1.));
#29 = ORIENTED_EDGE('',*,*,#30,.T.);
#30 = EDGE_CURVE('',#22,#31,#33,.T.);
#31 = VERTEX_POINT('',#32);
#32 = CARTESIAN_POINT('',(2.22,2.071676163951E-015,3.11));
#33 = LINE('',#34,#35);
#34 = CARTESIAN_POINT('',(1.42,2.071676163951E-015,3.11));
#35 = VECTOR('',#36,1.);
#36 = DIRECTION('',(1.,0.E+000,0.E+000));
#37 = ORIENTED_EDGE('',*,*,#38,.F.);
#38 = EDGE_CURVE('',#31,#31,#39,.T.);
#39 = CIRCLE('',#40,1.31);
#40 = AXIS2_PLACEMENT_3D('',#41,#42,#43);
#41 = CARTESIAN_POINT('',(2.22,7.993605777301E-016,1.8));
#42 = DIRECTION('',(1.,0.E+000,-0.E+000));
#43 = DIRECTION('',(0.E+000,9.71233271924E-016,1.));
#44 = ORIENTED_EDGE('',*,*,#30,.F.);
#45 = CYLINDRICAL_SURFACE('',#46,1.31);
#46 = AXIS2_PLACEMENT_3D('',#47,#48,#49);
#47 = CARTESIAN_POINT('',(1.42,7.993605777301E-016,1.8));
#48 = DIRECTION('',(1.,0.E+000,0.E+000));
#49 = DIRECTION('',(0.E+000,9.71233271924E-016,1.));
#50 = ADVANCED_FACE('',(#51,#54),#65,.F.);
#51 = FACE_BOUND('',#52,.T.);
#52 = EDGE_LOOP('',(#53));
#53 = ORIENTED_EDGE('',*,*,#21,.F.);
#54 = FACE_BOUND('',#55,.T.);
#55 = EDGE_LOOP('',(#56));
#56 = ORIENTED_EDGE('',*,*,#57,.F.);
#57 = EDGE_CURVE('',#58,#58,#60,.T.);
#58 = VERTEX_POINT('',#59);
#59 = CARTESIAN_POINT('',(1.42,2.063514787841E-015,3.098459255873));
#60 = CIRCLE('',#61,1.298459255873);
#61 = AXIS2_PLACEMENT_3D('',#62,#63,#64);
#62 = CARTESIAN_POINT('',(1.42,7.993605777301E-016,1.8));
#63 = DIRECTION('',(-1.,0.E+000,0.E+000));
#64 = DIRECTION('',(0.E+000,9.735801908251E-016,1.));
#65 = PLANE('',#66);
#66 = AXIS2_PLACEMENT_3D('',#67,#68,#69);
#67 = CARTESIAN_POINT('',(1.42,7.993605777301E-016,1.8));
#68 = DIRECTION('',(1.,0.E+000,0.E+000));
#69 = DIRECTION('',(0.E+000,9.759634960658E-016,1.));
#70 = ADVANCED_FACE('',(#71,#74),#85,.T.);
#71 = FACE_BOUND('',#72,.T.);
#72 = EDGE_LOOP('',(#73));
#73 = ORIENTED_EDGE('',*,*,#38,.T.);
#74 = FACE_BOUND('',#75,.T.);
#75 = EDGE_LOOP('',(#76));
#76 = ORIENTED_EDGE('',*,*,#77,.F.);
#77 = EDGE_CURVE('',#78,#78,#80,.T.);
#78 = VERTEX_POINT('',#79);
#79 = CARTESIAN_POINT('',(2.22,2.065014825803E-015,3.1));
#80 = CIRCLE('',#81,1.3);
#81 = AXIS2_PLACEMENT_3D('',#82,#83,#84);
#82 = CARTESIAN_POINT('',(2.22,7.993605777301E-016,1.8));
#83 = DIRECTION('',(1.,0.E+000,-0.E+000));
#84 = DIRECTION('',(0.E+000,9.735801908251E-016,1.));
#85 = PLANE('',#86);
#86 = AXIS2_PLACEMENT_3D('',#87,#88,#89);
#87 = CARTESIAN_POINT('',(2.22,7.993605777301E-016,1.8));
#88 = DIRECTION('',(1.,0.E+000,0.E+000));
#89 = DIRECTION('',(0.E+000,9.71233271924E-016,1.));
#90 = ADVANCED_FACE('',(#91),#111,.T.);
#91 = FACE_BOUND('',#92,.F.);
#92 = EDGE_LOOP('',(#93,#94,#103,#110));
#93 = ORIENTED_EDGE('',*,*,#57,.F.);
#94 = ORIENTED_EDGE('',*,*,#95,.T.);
#95 = EDGE_CURVE('',#58,#96,#98,.T.);
#96 = VERTEX_POINT('',#97);
#97 = CARTESIAN_POINT('',(0.94,1.558753126574E-015,2.58));
#98 = CIRCLE('',#99,0.52);
#99 = AXIS2_PLACEMENT_3D('',#100,#101,#102);
#100 = CARTESIAN_POINT('',(1.46,1.558753126574E-015,2.58));
#101 = DIRECTION('',(0.E+000,-1.,9.735801908251E-016));
#102 = DIRECTION('',(0.E+000,9.735801908251E-016,1.));
#103 = ORIENTED_EDGE('',*,*,#104,.F.);
#104 = EDGE_CURVE('',#96,#96,#105,.T.);
#105 = CIRCLE('',#106,0.78);
#106 = AXIS2_PLACEMENT_3D('',#107,#108,#109);
#107 = CARTESIAN_POINT('',(0.94,7.993605777301E-016,1.8));
#108 = DIRECTION('',(1.,0.E+000,-0.E+000));
#109 = DIRECTION('',(0.E+000,9.735801908251E-016,1.));
#110 = ORIENTED_EDGE('',*,*,#95,.F.);
#111 = TOROIDAL_SURFACE('',#112,0.78,0.52);
#112 = AXIS2_PLACEMENT_3D('',#113,#114,#115);
#113 = CARTESIAN_POINT('',(1.46,7.993605777301E-016,1.8));
#114 = DIRECTION('',(-1.,0.E+000,0.E+000));
#115 = DIRECTION('',(0.E+000,9.735801908251E-016,1.));
#116 = ADVANCED_FACE('',(#117),#136,.T.);
#117 = FACE_BOUND('',#118,.T.);
#118 = EDGE_LOOP('',(#119,#120,#128,#135));
#119 = ORIENTED_EDGE('',*,*,#77,.T.);
#120 = ORIENTED_EDGE('',*,*,#121,.T.);
#121 = EDGE_CURVE('',#78,#122,#124,.T.);
#122 = VERTEX_POINT('',#123);
#123 = CARTESIAN_POINT('',(3.62,2.065014825803E-015,3.1));
#124 = LINE('',#125,#126);
#125 = CARTESIAN_POINT('',(0.94,2.065014825803E-015,3.1));
#126 = VECTOR('',#127,1.);
#127 = DIRECTION('',(1.,0.E+000,0.E+000));
#128 = ORIENTED_EDGE('',*,*,#129,.F.);
#129 = EDGE_CURVE('',#122,#122,#130,.T.);
#130 = CIRCLE('',#131,1.3);
#131 = AXIS2_PLACEMENT_3D('',#132,#133,#134);
#132 = CARTESIAN_POINT('',(3.62,7.993605777301E-016,1.8));
#133 = DIRECTION('',(1.,0.E+000,-0.E+000));
#134 = DIRECTION('',(0.E+000,9.735801908251E-016,1.));
#135 = ORIENTED_EDGE('',*,*,#121,.F.);
#136 = CYLINDRICAL_SURFACE('',#137,1.3);
#137 = AXIS2_PLACEMENT_3D('',#138,#139,#140);
#138 = CARTESIAN_POINT('',(0.94,7.993605777301E-016,1.8));
#139 = DIRECTION('',(1.,0.E+000,0.E+000));
#140 = DIRECTION('',(0.E+000,9.735801908251E-016,1.));
#141 = ADVANCED_FACE('',(#142,#145),#156,.F.);
#142 = FACE_BOUND('',#143,.T.);
#143 = EDGE_LOOP('',(#144));
#144 = ORIENTED_EDGE('',*,*,#104,.F.);
#145 = FACE_BOUND('',#146,.T.);
#146 = EDGE_LOOP('',(#147));
#147 = ORIENTED_EDGE('',*,*,#148,.T.);
#148 = EDGE_CURVE('',#149,#149,#151,.T.);
#149 = VERTEX_POINT('',#150);
#150 = CARTESIAN_POINT('',(0.94,7.660538869914E-016,1.45));
#151 = CIRCLE('',#152,0.35);
#152 = AXIS2_PLACEMENT_3D('',#153,#154,#155);
#153 = CARTESIAN_POINT('',(0.94,8.437694987151E-016,1.8));
#154 = DIRECTION('',(1.,0.E+000,0.E+000));
#155 = DIRECTION('',(0.E+000,-2.22044604925E-016,-1.));
#156 = PLANE('',#157);
#157 = AXIS2_PLACEMENT_3D('',#158,#159,#160);
#158 = CARTESIAN_POINT('',(0.94,7.993605777301E-016,1.8));
#159 = DIRECTION('',(1.,0.E+000,0.E+000));
#160 = DIRECTION('',(0.E+000,9.735801908251E-016,1.));
#161 = ADVANCED_FACE('',(#162),#182,.T.);
#162 = FACE_BOUND('',#163,.F.);
#163 = EDGE_LOOP('',(#164,#173,#180,#181));
#164 = ORIENTED_EDGE('',*,*,#165,.F.);
#165 = EDGE_CURVE('',#166,#122,#168,.T.);
#166 = VERTEX_POINT('',#167);
#167 = CARTESIAN_POINT('',(4.14,1.558753126574E-015,2.58));
#168 = CIRCLE('',#169,0.52);
#169 = AXIS2_PLACEMENT_3D('',#170,#171,#172);
#170 = CARTESIAN_POINT('',(3.62,1.558753126574E-015,2.58));
#171 = DIRECTION('',(0.E+000,-1.,9.735801908251E-016));
#172 = DIRECTION('',(0.E+000,9.735801908251E-016,1.));
#173 = ORIENTED_EDGE('',*,*,#174,.T.);
#174 = EDGE_CURVE('',#166,#166,#175,.T.);
#175 = CIRCLE('',#176,0.78);
#176 = AXIS2_PLACEMENT_3D('',#177,#178,#179);
#177 = CARTESIAN_POINT('',(4.14,7.993605777301E-016,1.8));
#178 = DIRECTION('',(1.,0.E+000,-0.E+000));
#179 = DIRECTION('',(0.E+000,9.735801908251E-016,1.));
#180 = ORIENTED_EDGE('',*,*,#165,.T.);
#181 = ORIENTED_EDGE('',*,*,#129,.F.);
#182 = TOROIDAL_SURFACE('',#183,0.78,0.52);
#183 = AXIS2_PLACEMENT_3D('',#184,#185,#186);
#184 = CARTESIAN_POINT('',(3.62,7.993605777301E-016,1.8));
#185 = DIRECTION('',(-1.,0.E+000,0.E+000));
#186 = DIRECTION('',(0.E+000,9.735801908251E-016,1.));
#187 = ADVANCED_FACE('',(#188),#207,.T.);
#188 = FACE_BOUND('',#189,.T.);
#189 = EDGE_LOOP('',(#190,#199,#205,#206));
#190 = ORIENTED_EDGE('',*,*,#191,.F.);
#191 = EDGE_CURVE('',#192,#192,#194,.T.);
#192 = VERTEX_POINT('',#193);
#193 = CARTESIAN_POINT('',(0.7,7.660538869914E-016,1.45));
#194 = CIRCLE('',#195,0.35);
#195 = AXIS2_PLACEMENT_3D('',#196,#197,#198);
#196 = CARTESIAN_POINT('',(0.7,8.437694987151E-016,1.8));
#197 = DIRECTION('',(-1.,-4.078893220341E-032,-1.836970198721E-016));
#198 = DIRECTION('',(-1.836970198721E-016,2.22044604925E-016,1.));
#199 = ORIENTED_EDGE('',*,*,#200,.T.);
#200 = EDGE_CURVE('',#192,#149,#201,.T.);
#201 = LINE('',#202,#203);
#202 = CARTESIAN_POINT('',(0.7,7.660538869914E-016,1.45));
#203 = VECTOR('',#204,1.);
#204 = DIRECTION('',(1.,0.E+000,0.E+000));
#205 = ORIENTED_EDGE('',*,*,#148,.F.);
#206 = ORIENTED_EDGE('',*,*,#200,.F.);
#207 = CYLINDRICAL_SURFACE('',#208,0.35);
#208 = AXIS2_PLACEMENT_3D('',#209,#210,#211);
#209 = CARTESIAN_POINT('',(0.7,8.437694987151E-016,1.8));
#210 = DIRECTION('',(1.,0.E+000,0.E+000));
#211 = DIRECTION('',(0.E+000,-2.22044604925E-016,-1.));
#212 = ADVANCED_FACE('',(#213,#216),#227,.T.);
#213 = FACE_BOUND('',#214,.F.);
#214 = EDGE_LOOP('',(#215));
#215 = ORIENTED_EDGE('',*,*,#174,.F.);
#216 = FACE_BOUND('',#217,.F.);
#217 = EDGE_LOOP('',(#218));
#218 = ORIENTED_EDGE('',*,*,#219,.T.);
#219 = EDGE_CURVE('',#220,#220,#222,.T.);
#220 = VERTEX_POINT('',#221);
#221 = CARTESIAN_POINT('',(4.14,7.660538869914E-016,1.45));
#222 = CIRCLE('',#223,0.35);
#223 = AXIS2_PLACEMENT_3D('',#224,#225,#226);
#224 = CARTESIAN_POINT('',(4.14,8.437694987151E-016,1.8));
#225 = DIRECTION('',(1.,0.E+000,0.E+000));
#226 = DIRECTION('',(0.E+000,-2.22044604925E-016,-1.));
#227 = PLANE('',#228);
#228 = AXIS2_PLACEMENT_3D('',#229,#230,#231);
#229 = CARTESIAN_POINT('',(4.14,7.993605777301E-016,1.8));
#230 = DIRECTION('',(1.,0.E+000,0.E+000));
#231 = DIRECTION('',(0.E+000,9.735801908251E-016,1.));
#232 = ADVANCED_FACE('',(#233),#253,.T.);
#233 = FACE_BOUND('',#234,.T.);
#234 = EDGE_LOOP('',(#235,#244,#245,#246));
#235 = ORIENTED_EDGE('',*,*,#236,.T.);
#236 = EDGE_CURVE('',#237,#192,#239,.T.);
#237 = VERTEX_POINT('',#238);
#238 = CARTESIAN_POINT('',(0.35,6.883382752676E-016,1.1));
#239 = CIRCLE('',#240,0.35);
#240 = AXIS2_PLACEMENT_3D('',#241,#242,#243);
#241 = CARTESIAN_POINT('',(0.7,8.169261891781E-016,1.1));
#242 = DIRECTION('',(0.E+000,1.,-2.22044604925E-016));
#243 = DIRECTION('',(1.,0.E+000,0.E+000));
#244 = ORIENTED_EDGE('',*,*,#191,.T.);
#245 = ORIENTED_EDGE('',*,*,#236,.F.);
#246 = ORIENTED_EDGE('',*,*,#247,.T.);
#247 = EDGE_CURVE('',#237,#237,#248,.T.);
#248 = CIRCLE('',#249,0.35);
#249 = AXIS2_PLACEMENT_3D('',#250,#251,#252);
#250 = CARTESIAN_POINT('',(0.E+000,6.883382752676E-016,1.1));
#251 = DIRECTION('',(-0.E+000,2.22044604925E-016,1.));
#252 = DIRECTION('',(1.,0.E+000,0.E+000));
#253 = TOROIDAL_SURFACE('',#254,0.7,0.35);
#254 = AXIS2_PLACEMENT_3D('',#255,#256,#257);
#255 = CARTESIAN_POINT('',(0.7,6.883382752676E-016,1.1));
#256 = DIRECTION('',(0.E+000,1.,-2.22044604925E-016));
#257 = DIRECTION('',(1.,0.E+000,0.E+000));
#258 = ADVANCED_FACE('',(#259),#278,.T.);
#259 = FACE_BOUND('',#260,.T.);
#260 = EDGE_LOOP('',(#261,#262,#270,#277));
#261 = ORIENTED_EDGE('',*,*,#219,.T.);
#262 = ORIENTED_EDGE('',*,*,#263,.T.);
#263 = EDGE_CURVE('',#220,#264,#266,.T.);
#264 = VERTEX_POINT('',#265);
#265 = CARTESIAN_POINT('',(4.38,7.660538869914E-016,1.45));
#266 = LINE('',#267,#268);
#267 = CARTESIAN_POINT('',(0.7,7.660538869914E-016,1.45));
#268 = VECTOR('',#269,1.);
#269 = DIRECTION('',(1.,0.E+000,0.E+000));
#270 = ORIENTED_EDGE('',*,*,#271,.F.);
#271 = EDGE_CURVE('',#264,#264,#272,.T.);
#272 = CIRCLE('',#273,0.35);
#273 = AXIS2_PLACEMENT_3D('',#274,#275,#276);
#274 = CARTESIAN_POINT('',(4.38,8.437694987151E-016,1.8));
#275 = DIRECTION('',(1.,0.E+000,0.E+000));
#276 = DIRECTION('',(0.E+000,-2.22044604925E-016,-1.));
#277 = ORIENTED_EDGE('',*,*,#263,.F.);
#278 = CYLINDRICAL_SURFACE('',#279,0.35);
#279 = AXIS2_PLACEMENT_3D('',#280,#281,#282);
#280 = CARTESIAN_POINT('',(0.7,8.437694987151E-016,1.8));
#281 = DIRECTION('',(1.,0.E+000,0.E+000));
#282 = DIRECTION('',(0.E+000,-2.22044604925E-016,-1.));
#283 = ADVANCED_FACE('',(#284),#303,.T.);
#284 = FACE_BOUND('',#285,.T.);
#285 = EDGE_LOOP('',(#286,#294,#295,#296));
#286 = ORIENTED_EDGE('',*,*,#287,.T.);
#287 = EDGE_CURVE('',#288,#237,#290,.T.);
#288 = VERTEX_POINT('',#289);
#289 = CARTESIAN_POINT('',(0.35,-1.967475784028E-016,-2.5));
#290 = LINE('',#291,#292);
#291 = CARTESIAN_POINT('',(0.35,6.883382752676E-016,1.1));
#292 = VECTOR('',#293,1.);
#293 = DIRECTION('',(0.E+000,2.22044604925E-016,1.));
#294 = ORIENTED_EDGE('',*,*,#247,.F.);
#295 = ORIENTED_EDGE('',*,*,#287,.F.);
#296 = ORIENTED_EDGE('',*,*,#297,.T.);
#297 = EDGE_CURVE('',#288,#288,#298,.T.);
#298 = CIRCLE('',#299,0.35);
#299 = AXIS2_PLACEMENT_3D('',#300,#301,#302);
#300 = CARTESIAN_POINT('',(0.E+000,-1.110223024625E-016,-2.5));
#301 = DIRECTION('',(-0.E+000,2.22044604925E-016,1.));
#302 = DIRECTION('',(1.,0.E+000,0.E+000));
#303 = CYLINDRICAL_SURFACE('',#304,0.35);
#304 = AXIS2_PLACEMENT_3D('',#305,#306,#307);
#305 = CARTESIAN_POINT('',(0.E+000,6.883382752676E-016,1.1));
#306 = DIRECTION('',(0.E+000,2.22044604925E-016,1.));
#307 = DIRECTION('',(1.,0.E+000,0.E+000));
#308 = ADVANCED_FACE('',(#309),#329,.T.);
#309 = FACE_BOUND('',#310,.T.);
#310 = EDGE_LOOP('',(#311,#320,#327,#328));
#311 = ORIENTED_EDGE('',*,*,#312,.T.);
#312 = EDGE_CURVE('',#264,#313,#315,.T.);
#313 = VERTEX_POINT('',#314);
#314 = CARTESIAN_POINT('',(4.73,6.883382752676E-016,1.1));
#315 = CIRCLE('',#316,0.35);
#316 = AXIS2_PLACEMENT_3D('',#317,#318,#319);
#317 = CARTESIAN_POINT('',(4.38,8.169261891781E-016,1.1));
#318 = DIRECTION('',(0.E+000,1.,-2.22044604925E-016));
#319 = DIRECTION('',(1.,0.E+000,0.E+000));
#320 = ORIENTED_EDGE('',*,*,#321,.T.);
#321 = EDGE_CURVE('',#313,#313,#322,.T.);
#322 = CIRCLE('',#323,0.35);
#323 = AXIS2_PLACEMENT_3D('',#324,#325,#326);
#324 = CARTESIAN_POINT('',(5.08,6.883382752676E-016,1.1));
#325 = DIRECTION('',(-2.449293598295E-016,2.22044604925E-016,1.));
#326 = DIRECTION('',(1.,5.438524293788E-032,2.449293598295E-016));
#327 = ORIENTED_EDGE('',*,*,#312,.F.);
#328 = ORIENTED_EDGE('',*,*,#271,.T.);
#329 = TOROIDAL_SURFACE('',#330,0.7,0.35);
#330 = AXIS2_PLACEMENT_3D('',#331,#332,#333);
#331 = CARTESIAN_POINT('',(4.38,6.883382752676E-016,1.1));
#332 = DIRECTION('',(0.E+000,1.,-2.22044604925E-016));
#333 = DIRECTION('',(1.,0.E+000,0.E+000));
#334 = ADVANCED_FACE('',(#335),#338,.T.);
#335 = FACE_BOUND('',#336,.F.);
#336 = EDGE_LOOP('',(#337));
#337 = ORIENTED_EDGE('',*,*,#297,.T.);
#338 = PLANE('',#339);
#339 = AXIS2_PLACEMENT_3D('',#340,#341,#342);
#340 = CARTESIAN_POINT('',(0.35,-1.110223024625E-016,-2.5));
#341 = DIRECTION('',(0.E+000,0.E+000,-1.));
#342 = DIRECTION('',(-1.,0.E+000,0.E+000));
#343 = ADVANCED_FACE('',(#344),#363,.T.);
#344 = FACE_BOUND('',#345,.T.);
#345 = EDGE_LOOP('',(#346,#354,#361,#362));
#346 = ORIENTED_EDGE('',*,*,#347,.T.);
#347 = EDGE_CURVE('',#313,#348,#350,.T.);
#348 = VERTEX_POINT('',#349);
#349 = CARTESIAN_POINT('',(4.73,-1.967475784028E-016,-2.5));
#350 = LINE('',#351,#352);
#351 = CARTESIAN_POINT('',(4.73,6.883382752676E-016,1.1));
#352 = VECTOR('',#353,1.);
#353 = DIRECTION('',(0.E+000,-2.22044604925E-016,-1.));
#354 = ORIENTED_EDGE('',*,*,#355,.F.);
#355 = EDGE_CURVE('',#348,#348,#356,.T.);
#356 = CIRCLE('',#357,0.35);
#357 = AXIS2_PLACEMENT_3D('',#358,#359,#360);
#358 = CARTESIAN_POINT('',(5.08,-1.110223024625E-016,-2.5));
#359 = DIRECTION('',(-0.E+000,-2.22044604925E-016,-1.));
#360 = DIRECTION('',(-1.,0.E+000,0.E+000));
#361 = ORIENTED_EDGE('',*,*,#347,.F.);
#362 = ORIENTED_EDGE('',*,*,#321,.F.);
#363 = CYLINDRICAL_SURFACE('',#364,0.35);
#364 = AXIS2_PLACEMENT_3D('',#365,#366,#367);
#365 = CARTESIAN_POINT('',(5.08,6.883382752676E-016,1.1));
#366 = DIRECTION('',(0.E+000,-2.22044604925E-016,-1.));
#367 = DIRECTION('',(-1.,0.E+000,0.E+000));
#368 = ADVANCED_FACE('',(#369),#372,.F.);
#369 = FACE_BOUND('',#370,.T.);
#370 = EDGE_LOOP('',(#371));
#371 = ORIENTED_EDGE('',*,*,#355,.T.);
#372 = PLANE('',#373);
#373 = AXIS2_PLACEMENT_3D('',#374,#375,#376);
#374 = CARTESIAN_POINT('',(4.73,-1.110223024625E-016,-2.5));
#375 = DIRECTION('',(0.E+000,0.E+000,1.));
#376 = DIRECTION('',(1.,0.E+000,0.E+000));
#377 = ( GEOMETRIC_REPRESENTATION_CONTEXT(3) 
GLOBAL_UNCERTAINTY_ASSIGNED_CONTEXT((#381)) GLOBAL_UNIT_ASSIGNED_CONTEXT
((#378,#379,#380)) REPRESENTATION_CONTEXT('Context #1',
  '3D Context with UNIT and UNCERTAINTY') );
#378 = ( LENGTH_UNIT() NAMED_UNIT(*) SI_UNIT(.MILLI.,.METRE.) );
#379 = ( NAMED_UNIT(*) PLANE_ANGLE_UNIT() SI_UNIT($,.RADIAN.) );
#380 = ( NAMED_UNIT(*) SI_UNIT($,.STERADIAN.) SOLID_ANGLE_UNIT() );
#381 = UNCERTAINTY_MEASURE_WITH_UNIT(LENGTH_MEASURE(1.E-007),#378,
  'distance_accuracy_value','confusion accuracy');
#382 = PRODUCT_RELATED_PRODUCT_CATEGORY('part',$,(#7));
#383 = MECHANICAL_DESIGN_GEOMETRIC_PRESENTATION_REPRESENTATION('',(#384,
    #392,#399,#406,#414,#421,#428,#435,#443,#450,#457,#464,#471,#478,
    #485,#492),#377);
#384 = STYLED_ITEM('color',(#385),#17);
#385 = PRESENTATION_STYLE_ASSIGNMENT((#386));
#386 = SURFACE_STYLE_USAGE(.BOTH.,#387);
#387 = SURFACE_SIDE_STYLE('',(#388));
#388 = SURFACE_STYLE_FILL_AREA(#389);
#389 = FILL_AREA_STYLE('',(#390));
#390 = FILL_AREA_STYLE_COLOUR('',#391);
#391 = COLOUR_RGB('',0.699999988079,0.10000000149,5.000000074506E-002);
#392 = STYLED_ITEM('color',(#393),#50);
#393 = PRESENTATION_STYLE_ASSIGNMENT((#394));
#394 = SURFACE_STYLE_USAGE(.BOTH.,#395);
#395 = SURFACE_SIDE_STYLE('',(#396));
#396 = SURFACE_STYLE_FILL_AREA(#397);
#397 = FILL_AREA_STYLE('',(#398));
#398 = FILL_AREA_STYLE_COLOUR('',#391);
#399 = STYLED_ITEM('color',(#400),#70);
#400 = PRESENTATION_STYLE_ASSIGNMENT((#401));
#401 = SURFACE_STYLE_USAGE(.BOTH.,#402);
#402 = SURFACE_SIDE_STYLE('',(#403));
#403 = SURFACE_STYLE_FILL_AREA(#404);
#404 = FILL_AREA_STYLE('',(#405));
#405 = FILL_AREA_STYLE_COLOUR('',#391);
#406 = STYLED_ITEM('color',(#407),#90);
#407 = PRESENTATION_STYLE_ASSIGNMENT((#408));
#408 = SURFACE_STYLE_USAGE(.BOTH.,#409);
#409 = SURFACE_SIDE_STYLE('',(#410));
#410 = SURFACE_STYLE_FILL_AREA(#411);
#411 = FILL_AREA_STYLE('',(#412));
#412 = FILL_AREA_STYLE_COLOUR('',#413);
#413 = COLOUR_RGB('',0.E+000,0.631244003773,0.748015999794);
#414 = STYLED_ITEM('color',(#415),#116);
#415 = PRESENTATION_STYLE_ASSIGNMENT((#416));
#416 = SURFACE_STYLE_USAGE(.BOTH.,#417);
#417 = SURFACE_SIDE_STYLE('',(#418));
#418 = SURFACE_STYLE_FILL_AREA(#419);
#419 = FILL_AREA_STYLE('',(#420));
#420 = FILL_AREA_STYLE_COLOUR('',#413);
#421 = STYLED_ITEM('color',(#422),#141);
#422 = PRESENTATION_STYLE_ASSIGNMENT((#423));
#423 = SURFACE_STYLE_USAGE(.BOTH.,#424);
#424 = SURFACE_SIDE_STYLE('',(#425));
#425 = SURFACE_STYLE_FILL_AREA(#426);
#426 = FILL_AREA_STYLE('',(#427));
#427 = FILL_AREA_STYLE_COLOUR('',#413);
#428 = STYLED_ITEM('color',(#429),#161);
#429 = PRESENTATION_STYLE_ASSIGNMENT((#430));
#430 = SURFACE_STYLE_USAGE(.BOTH.,#431);
#431 = SURFACE_SIDE_STYLE('',(#432));
#432 = SURFACE_STYLE_FILL_AREA(#433);
#433 = FILL_AREA_STYLE('',(#434));
#434 = FILL_AREA_STYLE_COLOUR('',#413);
#435 = STYLED_ITEM('color',(#436),#187);
#436 = PRESENTATION_STYLE_ASSIGNMENT((#437));
#437 = SURFACE_STYLE_USAGE(.BOTH.,#438);
#438 = SURFACE_SIDE_STYLE('',(#439));
#439 = SURFACE_STYLE_FILL_AREA(#440);
#440 = FILL_AREA_STYLE('',(#441));
#441 = FILL_AREA_STYLE_COLOUR('',#442);
#442 = COLOUR_RGB('',0.824000000954,0.819999992847,0.78100001812);
#443 = STYLED_ITEM('color',(#444),#212);
#444 = PRESENTATION_STYLE_ASSIGNMENT((#445));
#445 = SURFACE_STYLE_USAGE(.BOTH.,#446);
#446 = SURFACE_SIDE_STYLE('',(#447));
#447 = SURFACE_STYLE_FILL_AREA(#448);
#448 = FILL_AREA_STYLE('',(#449));
#449 = FILL_AREA_STYLE_COLOUR('',#413);
#450 = STYLED_ITEM('color',(#451),#232);
#451 = PRESENTATION_STYLE_ASSIGNMENT((#452));
#452 = SURFACE_STYLE_USAGE(.BOTH.,#453);
#453 = SURFACE_SIDE_STYLE('',(#454));
#454 = SURFACE_STYLE_FILL_AREA(#455);
#455 = FILL_AREA_STYLE('',(#456));
#456 = FILL_AREA_STYLE_COLOUR('',#442);
#457 = STYLED_ITEM('color',(#458),#258);
#458 = PRESENTATION_STYLE_ASSIGNMENT((#459));
#459 = SURFACE_STYLE_USAGE(.BOTH.,#460);
#460 = SURFACE_SIDE_STYLE('',(#461));
#461 = SURFACE_STYLE_FILL_AREA(#462);
#462 = FILL_AREA_STYLE('',(#463));
#463 = FILL_AREA_STYLE_COLOUR('',#442);
#464 = STYLED_ITEM('color',(#465),#283);
#465 = PRESENTATION_STYLE_ASSIGNMENT((#466));
#466 = SURFACE_STYLE_USAGE(.BOTH.,#467);
#467 = SURFACE_SIDE_STYLE('',(#468));
#468 = SURFACE_STYLE_FILL_AREA(#469);
#469 = FILL_AREA_STYLE('',(#470));
#470 = FILL_AREA_STYLE_COLOUR('',#442);
#471 = STYLED_ITEM('color',(#472),#308);
#472 = PRESENTATION_STYLE_ASSIGNMENT((#473));
#473 = SURFACE_STYLE_USAGE(.BOTH.,#474);
#474 = SURFACE_SIDE_STYLE('',(#475));
#475 = SURFACE_STYLE_FILL_AREA(#476);
#476 = FILL_AREA_STYLE('',(#477));
#477 = FILL_AREA_STYLE_COLOUR('',#442);
#478 = STYLED_ITEM('color',(#479),#334);
#479 = PRESENTATION_STYLE_ASSIGNMENT((#480));
#480 = SURFACE_STYLE_USAGE(.BOTH.,#481);
#481 = SURFACE_SIDE_STYLE('',(#482));
#482 = SURFACE_STYLE_FILL_AREA(#483);
#483 = FILL_AREA_STYLE('',(#484));
#484 = FILL_AREA_STYLE_COLOUR('',#442);
#485 = STYLED_ITEM('color',(#486),#343);
#486 = PRESENTATION_STYLE_ASSIGNMENT((#487));
#487 = SURFACE_STYLE_USAGE(.BOTH.,#488);
#488 = SURFACE_SIDE_STYLE('',(#489));
#489 = SURFACE_STYLE_FILL_AREA(#490);
#490 = FILL_AREA_STYLE('',(#491));
#491 = FILL_AREA_STYLE_COLOUR('',#442);
#492 = STYLED_ITEM('color',(#493),#368);
#493 = PRESENTATION_STYLE_ASSIGNMENT((#494));
#494 = SURFACE_STYLE_USAGE(.BOTH.,#495);
#495 = SURFACE_SIDE_STYLE('',(#496));
#496 = SURFACE_STYLE_FILL_AREA(#497);
#497 = FILL_AREA_STYLE('',(#498));
#498 = FILL_AREA_STYLE_COLOUR('',#442);
ENDSEC;
END-ISO-10303-21;
