ISO-10303-21;
HEADER;
/* Crystal_C26-LF_D2.1mm_L6.5mm_Vertical.step 3D STEP model for use in ECAD systems
 * Copyright (C) 2019, kicad StepUp
 * 
 * This work is licensed under the [Creative Commons CC-BY-SA 4.0 License](https://creativecommons.org/licenses/by-sa/4.0/legalcode), 
 * with the following exception:
 * To the extent that the creation of electronic designs that use 'Licensed Material' can be considered to be 'Adapted Material', 
 * then the copyright holder waives article 3 of the license with respect to these designs and any generated files which use data provided 
 * as part of the 'Licensed Material'.
 * You are free to use the library data in your own projects without the obligation to share your project files under this or any other license agreement.
 * However, if you wish to redistribute these libraries, or parts thereof (including in modified form) as a collection then the exception above does not apply. 
 * Please refer to https://github.com/KiCad/kicad-packages3D/blob/master/LICENSE.md for further clarification of the exception.
 * Disclaimer of Warranties and Limitation of Liability.
 * These libraries are provided in the hope that they will be useful, but are provided without warranty of any kind, express or implied.
 * *USE 3D CAD DATA AT YOUR OWN RISK*
 * *DO NOT RELY UPON ANY INFORMATION FOUND HERE WITHOUT INDEPENDENT VERIFICATION.*
 * 
 */

FILE_DESCRIPTION(
/* description */ ('model of Crystal_C26-LF_D2.1mm_L6.5mm_Vertical'),
/* implementation_level */ '2;1');

FILE_NAME(
/* name */ 'Crystal_C26-LF_D2.1mm_L6.5mm_Vertical.step',
/* time_stamp */ '2019-07-07T07:25:01',
/* author */ ('kicad StepUp','ksu'),
/* organization */ ('FreeCAD'),
/* preprocessor_version */ 'OCC',
/* originating_system */ 'kicad StepUp',
/* authorisation */ '');

FILE_SCHEMA(('AUTOMOTIVE_DESIGN { 1 0 10303 214 1 1 1 1 }'));
ENDSEC;

DATA;
#1 = APPLICATION_PROTOCOL_DEFINITION('international standard',
'automotive_design',2000,#2);
#2 = APPLICATION_CONTEXT(
'core data for automotive mechanical design processes');
#3 = SHAPE_DEFINITION_REPRESENTATION(#4,#10);
#4 = PRODUCT_DEFINITION_SHAPE('','',#5);
#5 = PRODUCT_DEFINITION('design','',#6,#9);
#6 = PRODUCT_DEFINITION_FORMATION('','',#7);
#7 = PRODUCT('C26_LF_Vertical','C26_LF_Vertical','',(#8));
#8 = PRODUCT_CONTEXT('',#2,'mechanical');
#9 = PRODUCT_DEFINITION_CONTEXT('part definition',#2,'design');
#10 = ADVANCED_BREP_SHAPE_REPRESENTATION('',(#11,#15),#366);
#11 = AXIS2_PLACEMENT_3D('',#12,#13,#14);
#12 = CARTESIAN_POINT('',(0.E+000,0.E+000,0.E+000));
#13 = DIRECTION('',(0.E+000,0.E+000,1.));
#14 = DIRECTION('',(1.,0.E+000,-0.E+000));
#15 = MANIFOLD_SOLID_BREP('',#16);
#16 = CLOSED_SHELL('',(#17,#50,#59,#87,#112,#143,#168,#193,#218,#246,
#271,#296,#322,#348,#357));
#17 = ADVANCED_FACE('',(#18),#45,.T.);
#18 = FACE_BOUND('',#19,.T.);
#19 = EDGE_LOOP('',(#20,#30,#37,#38));
#20 = ORIENTED_EDGE('',*,*,#21,.T.);
#21 = EDGE_CURVE('',#22,#24,#26,.T.);
#22 = VERTEX_POINT('',#23);
#23 = CARTESIAN_POINT('',(0.15,-3.673940397442E-017,-3.));
#24 = VERTEX_POINT('',#25);
#25 = CARTESIAN_POINT('',(0.15,0.E+000,0.E+000));
#26 = LINE('',#27,#28);
#27 = CARTESIAN_POINT('',(0.15,0.E+000,-3.));
#28 = VECTOR('',#29,1.);
#29 = DIRECTION('',(0.E+000,0.E+000,1.));
#30 = ORIENTED_EDGE('',*,*,#31,.F.);
#31 = EDGE_CURVE('',#24,#24,#32,.T.);
#32 = CIRCLE('',#33,0.15);
#33 = AXIS2_PLACEMENT_3D('',#34,#35,#36);
#34 = CARTESIAN_POINT('',(0.E+000,0.E+000,0.E+000));
#35 = DIRECTION('',(0.E+000,0.E+000,1.));
#36 = DIRECTION('',(1.,0.E+000,0.E+000));
#37 = ORIENTED_EDGE('',*,*,#21,.F.);
#38 = ORIENTED_EDGE('',*,*,#39,.T.);
#39 = EDGE_CURVE('',#22,#22,#40,.T.);
#40 = CIRCLE('',#41,0.15);
#41 = AXIS2_PLACEMENT_3D('',#42,#43,#44);
#42 = CARTESIAN_POINT('',(0.E+000,0.E+000,-3.));
#43 = DIRECTION('',(0.E+000,0.E+000,1.));
#44 = DIRECTION('',(1.,0.E+000,0.E+000));
#45 = CYLINDRICAL_SURFACE('',#46,0.15);
#46 = AXIS2_PLACEMENT_3D('',#47,#48,#49);
#47 = CARTESIAN_POINT('',(0.E+000,0.E+000,-3.));
#48 = DIRECTION('',(0.E+000,0.E+000,1.));
#49 = DIRECTION('',(1.,0.E+000,0.E+000));
#50 = ADVANCED_FACE('',(#51),#54,.F.);
#51 = FACE_BOUND('',#52,.F.);
#52 = EDGE_LOOP('',(#53));
#53 = ORIENTED_EDGE('',*,*,#39,.T.);
#54 = PLANE('',#55);
#55 = AXIS2_PLACEMENT_3D('',#56,#57,#58);
#56 = CARTESIAN_POINT('',(-1.780521005911E-017,2.779371033817E-018,-3.)
);
#57 = DIRECTION('',(0.E+000,0.E+000,1.));
#58 = DIRECTION('',(1.,0.E+000,0.E+000));
#59 = ADVANCED_FACE('',(#60),#79,.T.);
#60 = FACE_BOUND('',#61,.T.);
#61 = EDGE_LOOP('',(#62,#70,#77,#78));
#62 = ORIENTED_EDGE('',*,*,#63,.T.);
#63 = EDGE_CURVE('',#24,#64,#66,.T.);
#64 = VERTEX_POINT('',#65);
#65 = CARTESIAN_POINT('',(0.75,0.E+000,1.));
#66 = LINE('',#67,#68);
#67 = CARTESIAN_POINT('',(0.15,0.E+000,0.E+000));
#68 = VECTOR('',#69,1.);
#69 = DIRECTION('',(0.514495755428,0.E+000,0.857492925713));
#70 = ORIENTED_EDGE('',*,*,#71,.F.);
#71 = EDGE_CURVE('',#64,#64,#72,.T.);
#72 = CIRCLE('',#73,0.15);
#73 = AXIS2_PLACEMENT_3D('',#74,#75,#76);
#74 = CARTESIAN_POINT('',(0.6,0.E+000,1.));
#75 = DIRECTION('',(5.551115123126E-017,-0.E+000,1.));
#76 = DIRECTION('',(1.,0.E+000,-5.551115123126E-017));
#77 = ORIENTED_EDGE('',*,*,#63,.F.);
#78 = ORIENTED_EDGE('',*,*,#31,.T.);
#79 = SURFACE_OF_LINEAR_EXTRUSION('',#80,#85);
#80 = CIRCLE('',#81,0.15);
#81 = AXIS2_PLACEMENT_3D('',#82,#83,#84);
#82 = CARTESIAN_POINT('',(0.E+000,0.E+000,0.E+000));
#83 = DIRECTION('',(5.551115123126E-017,-0.E+000,1.));
#84 = DIRECTION('',(1.,0.E+000,-5.551115123126E-017));
#85 = VECTOR('',#86,1.);
#86 = DIRECTION('',(0.514495755428,0.E+000,0.857492925713));
#87 = ADVANCED_FACE('',(#88),#107,.T.);
#88 = FACE_BOUND('',#89,.T.);
#89 = EDGE_LOOP('',(#90,#91,#99,#106));
#90 = ORIENTED_EDGE('',*,*,#71,.T.);
#91 = ORIENTED_EDGE('',*,*,#92,.T.);
#92 = EDGE_CURVE('',#64,#93,#95,.T.);
#93 = VERTEX_POINT('',#94);
#94 = CARTESIAN_POINT('',(0.75,0.E+000,2.));
#95 = LINE('',#96,#97);
#96 = CARTESIAN_POINT('',(0.75,0.E+000,1.));
#97 = VECTOR('',#98,1.);
#98 = DIRECTION('',(0.E+000,0.E+000,1.));
#99 = ORIENTED_EDGE('',*,*,#100,.F.);
#100 = EDGE_CURVE('',#93,#93,#101,.T.);
#101 = CIRCLE('',#102,0.15);
#102 = AXIS2_PLACEMENT_3D('',#103,#104,#105);
#103 = CARTESIAN_POINT('',(0.6,0.E+000,2.));
#104 = DIRECTION('',(0.E+000,0.E+000,1.));
#105 = DIRECTION('',(1.,0.E+000,0.E+000));
#106 = ORIENTED_EDGE('',*,*,#92,.F.);
#107 = CYLINDRICAL_SURFACE('',#108,0.15);
#108 = AXIS2_PLACEMENT_3D('',#109,#110,#111);
#109 = CARTESIAN_POINT('',(0.6,0.E+000,1.));
#110 = DIRECTION('',(0.E+000,0.E+000,1.));
#111 = DIRECTION('',(1.,0.E+000,0.E+000));
#112 = ADVANCED_FACE('',(#113,#124,#127),#138,.F.);
#113 = FACE_BOUND('',#114,.F.);
#114 = EDGE_LOOP('',(#115));
#115 = ORIENTED_EDGE('',*,*,#116,.T.);
#116 = EDGE_CURVE('',#117,#117,#119,.T.);
#117 = VERTEX_POINT('',#118);
#118 = CARTESIAN_POINT('',(2.,0.E+000,2.));
#119 = CIRCLE('',#120,1.05);
#120 = AXIS2_PLACEMENT_3D('',#121,#122,#123);
#121 = CARTESIAN_POINT('',(0.95,0.E+000,2.));
#122 = DIRECTION('',(0.E+000,0.E+000,1.));
#123 = DIRECTION('',(1.,0.E+000,0.E+000));
#124 = FACE_BOUND('',#125,.F.);
#125 = EDGE_LOOP('',(#126));
#126 = ORIENTED_EDGE('',*,*,#100,.F.);
#127 = FACE_BOUND('',#128,.F.);
#128 = EDGE_LOOP('',(#129));
#129 = ORIENTED_EDGE('',*,*,#130,.F.);
#130 = EDGE_CURVE('',#131,#131,#133,.T.);
#131 = VERTEX_POINT('',#132);
#132 = CARTESIAN_POINT('',(1.45,0.E+000,2.));
#133 = CIRCLE('',#134,0.15);
#134 = AXIS2_PLACEMENT_3D('',#135,#136,#137);
#135 = CARTESIAN_POINT('',(1.3,0.E+000,2.));
#136 = DIRECTION('',(0.E+000,0.E+000,1.));
#137 = DIRECTION('',(1.,0.E+000,0.E+000));
#138 = PLANE('',#139);
#139 = AXIS2_PLACEMENT_3D('',#140,#141,#142);
#140 = CARTESIAN_POINT('',(0.95,3.853260801433E-017,2.));
#141 = DIRECTION('',(0.E+000,0.E+000,1.));
#142 = DIRECTION('',(1.,0.E+000,0.E+000));
#143 = ADVANCED_FACE('',(#144),#163,.T.);
#144 = FACE_BOUND('',#145,.F.);
#145 = EDGE_LOOP('',(#146,#147,#155,#162));
#146 = ORIENTED_EDGE('',*,*,#116,.F.);
#147 = ORIENTED_EDGE('',*,*,#148,.T.);
#148 = EDGE_CURVE('',#117,#149,#151,.T.);
#149 = VERTEX_POINT('',#150);
#150 = CARTESIAN_POINT('',(2.,0.E+000,2.2));
#151 = LINE('',#152,#153);
#152 = CARTESIAN_POINT('',(2.,0.E+000,2.));
#153 = VECTOR('',#154,1.);
#154 = DIRECTION('',(0.E+000,0.E+000,1.));
#155 = ORIENTED_EDGE('',*,*,#156,.T.);
#156 = EDGE_CURVE('',#149,#149,#157,.T.);
#157 = CIRCLE('',#158,1.05);
#158 = AXIS2_PLACEMENT_3D('',#159,#160,#161);
#159 = CARTESIAN_POINT('',(0.95,0.E+000,2.2));
#160 = DIRECTION('',(0.E+000,0.E+000,1.));
#161 = DIRECTION('',(1.,0.E+000,0.E+000));
#162 = ORIENTED_EDGE('',*,*,#148,.F.);
#163 = CYLINDRICAL_SURFACE('',#164,1.05);
#164 = AXIS2_PLACEMENT_3D('',#165,#166,#167);
#165 = CARTESIAN_POINT('',(0.95,0.E+000,2.));
#166 = DIRECTION('',(-0.E+000,-0.E+000,-1.));
#167 = DIRECTION('',(1.,0.E+000,0.E+000));
#168 = ADVANCED_FACE('',(#169),#188,.T.);
#169 = FACE_BOUND('',#170,.T.);
#170 = EDGE_LOOP('',(#171,#180,#186,#187));
#171 = ORIENTED_EDGE('',*,*,#172,.T.);
#172 = EDGE_CURVE('',#173,#173,#175,.T.);
#173 = VERTEX_POINT('',#174);
#174 = CARTESIAN_POINT('',(1.45,0.E+000,1.));
#175 = CIRCLE('',#176,0.15);
#176 = AXIS2_PLACEMENT_3D('',#177,#178,#179);
#177 = CARTESIAN_POINT('',(1.3,0.E+000,1.));
#178 = DIRECTION('',(-5.551115123126E-017,0.E+000,1.));
#179 = DIRECTION('',(1.,0.E+000,5.551115123126E-017));
#180 = ORIENTED_EDGE('',*,*,#181,.T.);
#181 = EDGE_CURVE('',#173,#131,#182,.T.);
#182 = LINE('',#183,#184);
#183 = CARTESIAN_POINT('',(1.45,0.E+000,1.));
#184 = VECTOR('',#185,1.);
#185 = DIRECTION('',(0.E+000,0.E+000,1.));
#186 = ORIENTED_EDGE('',*,*,#130,.F.);
#187 = ORIENTED_EDGE('',*,*,#181,.F.);
#188 = CYLINDRICAL_SURFACE('',#189,0.15);
#189 = AXIS2_PLACEMENT_3D('',#190,#191,#192);
#190 = CARTESIAN_POINT('',(1.3,0.E+000,1.));
#191 = DIRECTION('',(0.E+000,0.E+000,1.));
#192 = DIRECTION('',(1.,0.E+000,0.E+000));
#193 = ADVANCED_FACE('',(#194),#213,.T.);
#194 = FACE_BOUND('',#195,.F.);
#195 = EDGE_LOOP('',(#196,#197,#205,#212));
#196 = ORIENTED_EDGE('',*,*,#156,.F.);
#197 = ORIENTED_EDGE('',*,*,#198,.T.);
#198 = EDGE_CURVE('',#149,#199,#201,.T.);
#199 = VERTEX_POINT('',#200);
#200 = CARTESIAN_POINT('',(2.,0.E+000,2.3));
#201 = LINE('',#202,#203);
#202 = CARTESIAN_POINT('',(2.,0.E+000,2.));
#203 = VECTOR('',#204,1.);
#204 = DIRECTION('',(0.E+000,0.E+000,1.));
#205 = ORIENTED_EDGE('',*,*,#206,.T.);
#206 = EDGE_CURVE('',#199,#199,#207,.T.);
#207 = CIRCLE('',#208,1.05);
#208 = AXIS2_PLACEMENT_3D('',#209,#210,#211);
#209 = CARTESIAN_POINT('',(0.95,0.E+000,2.3));
#210 = DIRECTION('',(0.E+000,0.E+000,1.));
#211 = DIRECTION('',(1.,0.E+000,0.E+000));
#212 = ORIENTED_EDGE('',*,*,#198,.F.);
#213 = CYLINDRICAL_SURFACE('',#214,1.05);
#214 = AXIS2_PLACEMENT_3D('',#215,#216,#217);
#215 = CARTESIAN_POINT('',(0.95,0.E+000,2.));
#216 = DIRECTION('',(-0.E+000,-0.E+000,-1.));
#217 = DIRECTION('',(1.,0.E+000,0.E+000));
#218 = ADVANCED_FACE('',(#219),#238,.T.);
#219 = FACE_BOUND('',#220,.T.);
#220 = EDGE_LOOP('',(#221,#229,#230,#231));
#221 = ORIENTED_EDGE('',*,*,#222,.T.);
#222 = EDGE_CURVE('',#223,#173,#225,.T.);
#223 = VERTEX_POINT('',#224);
#224 = CARTESIAN_POINT('',(2.05,0.E+000,0.E+000));
#225 = LINE('',#226,#227);
#226 = CARTESIAN_POINT('',(2.05,0.E+000,0.E+000));
#227 = VECTOR('',#228,1.);
#228 = DIRECTION('',(-0.514495755428,0.E+000,0.857492925713));
#229 = ORIENTED_EDGE('',*,*,#172,.F.);
#230 = ORIENTED_EDGE('',*,*,#222,.F.);
#231 = ORIENTED_EDGE('',*,*,#232,.T.);
#232 = EDGE_CURVE('',#223,#223,#233,.T.);
#233 = CIRCLE('',#234,0.15);
#234 = AXIS2_PLACEMENT_3D('',#235,#236,#237);
#235 = CARTESIAN_POINT('',(1.9,0.E+000,0.E+000));
#236 = DIRECTION('',(0.E+000,0.E+000,1.));
#237 = DIRECTION('',(1.,0.E+000,0.E+000));
#238 = SURFACE_OF_LINEAR_EXTRUSION('',#239,#244);
#239 = CIRCLE('',#240,0.15);
#240 = AXIS2_PLACEMENT_3D('',#241,#242,#243);
#241 = CARTESIAN_POINT('',(1.9,0.E+000,0.E+000));
#242 = DIRECTION('',(-5.551115123126E-017,0.E+000,1.));
#243 = DIRECTION('',(1.,0.E+000,5.551115123126E-017));
#244 = VECTOR('',#245,1.);
#245 = DIRECTION('',(-0.514495755428,0.E+000,0.857492925713));
#246 = ADVANCED_FACE('',(#247),#266,.T.);
#247 = FACE_BOUND('',#248,.F.);
#248 = EDGE_LOOP('',(#249,#250,#258,#265));
#249 = ORIENTED_EDGE('',*,*,#206,.F.);
#250 = ORIENTED_EDGE('',*,*,#251,.T.);
#251 = EDGE_CURVE('',#199,#252,#254,.T.);
#252 = VERTEX_POINT('',#253);
#253 = CARTESIAN_POINT('',(2.,3.112920478513E-034,7.8));
#254 = LINE('',#255,#256);
#255 = CARTESIAN_POINT('',(2.,0.E+000,2.2));
#256 = VECTOR('',#257,1.);
#257 = DIRECTION('',(0.E+000,0.E+000,1.));
#258 = ORIENTED_EDGE('',*,*,#259,.T.);
#259 = EDGE_CURVE('',#252,#252,#260,.T.);
#260 = CIRCLE('',#261,1.05);
#261 = AXIS2_PLACEMENT_3D('',#262,#263,#264);
#262 = CARTESIAN_POINT('',(0.95,-5.851683774188E-033,7.8));
#263 = DIRECTION('',(-1.863333581871E-033,-1.245168191405E-033,1.));
#264 = DIRECTION('',(1.,5.869500782894E-033,1.863333581871E-033));
#265 = ORIENTED_EDGE('',*,*,#251,.F.);
#266 = CYLINDRICAL_SURFACE('',#267,1.05);
#267 = AXIS2_PLACEMENT_3D('',#268,#269,#270);
#268 = CARTESIAN_POINT('',(0.95,0.E+000,2.2));
#269 = DIRECTION('',(-0.E+000,-0.E+000,-1.));
#270 = DIRECTION('',(1.,0.E+000,0.E+000));
#271 = ADVANCED_FACE('',(#272),#291,.T.);
#272 = FACE_BOUND('',#273,.T.);
#273 = EDGE_LOOP('',(#274,#282,#283,#284));
#274 = ORIENTED_EDGE('',*,*,#275,.T.);
#275 = EDGE_CURVE('',#276,#223,#278,.T.);
#276 = VERTEX_POINT('',#277);
#277 = CARTESIAN_POINT('',(2.05,0.E+000,-2.925));
#278 = LINE('',#279,#280);
#279 = CARTESIAN_POINT('',(2.05,0.E+000,-3.));
#280 = VECTOR('',#281,1.);
#281 = DIRECTION('',(0.E+000,0.E+000,1.));
#282 = ORIENTED_EDGE('',*,*,#232,.F.);
#283 = ORIENTED_EDGE('',*,*,#275,.F.);
#284 = ORIENTED_EDGE('',*,*,#285,.T.);
#285 = EDGE_CURVE('',#276,#276,#286,.T.);
#286 = CIRCLE('',#287,0.15);
#287 = AXIS2_PLACEMENT_3D('',#288,#289,#290);
#288 = CARTESIAN_POINT('',(1.9,0.E+000,-2.925));
#289 = DIRECTION('',(0.E+000,0.E+000,1.));
#290 = DIRECTION('',(1.,0.E+000,0.E+000));
#291 = CYLINDRICAL_SURFACE('',#292,0.15);
#292 = AXIS2_PLACEMENT_3D('',#293,#294,#295);
#293 = CARTESIAN_POINT('',(1.9,0.E+000,-3.));
#294 = DIRECTION('',(0.E+000,0.E+000,1.));
#295 = DIRECTION('',(1.,0.E+000,0.E+000));
#296 = ADVANCED_FACE('',(#297),#317,.T.);
#297 = FACE_BOUND('',#298,.T.);
#298 = EDGE_LOOP('',(#299,#308,#309,#310));
#299 = ORIENTED_EDGE('',*,*,#300,.F.);
#300 = EDGE_CURVE('',#252,#301,#303,.T.);
#301 = VERTEX_POINT('',#302);
#302 = CARTESIAN_POINT('',(1.75,-1.467375195724E-033,8.05));
#303 = CIRCLE('',#304,0.25);
#304 = AXIS2_PLACEMENT_3D('',#305,#306,#307);
#305 = CARTESIAN_POINT('',(1.75,-1.393258041473E-033,7.8));
#306 = DIRECTION('',(5.573032165893E-033,-1.,-1.245168191405E-033));
#307 = DIRECTION('',(1.,5.573032165893E-033,1.863333581871E-033));
#308 = ORIENTED_EDGE('',*,*,#259,.T.);
#309 = ORIENTED_EDGE('',*,*,#300,.T.);
#310 = ORIENTED_EDGE('',*,*,#311,.F.);
#311 = EDGE_CURVE('',#301,#301,#312,.T.);
#312 = CIRCLE('',#313,0.8);
#313 = AXIS2_PLACEMENT_3D('',#314,#315,#316);
#314 = CARTESIAN_POINT('',(0.95,-6.162975822039E-033,8.05));
#315 = DIRECTION('',(-1.863333581871E-033,-1.245168191405E-033,1.));
#316 = DIRECTION('',(1.,5.869500782894E-033,1.863333581871E-033));
#317 = TOROIDAL_SURFACE('',#318,0.8,0.25);
#318 = AXIS2_PLACEMENT_3D('',#319,#320,#321);
#319 = CARTESIAN_POINT('',(0.95,-5.851683774188E-033,7.8));
#320 = DIRECTION('',(-1.863333581871E-033,-1.245168191405E-033,1.));
#321 = DIRECTION('',(1.,5.869500782894E-033,1.863333581871E-033));
#322 = ADVANCED_FACE('',(#323),#343,.T.);
#323 = FACE_BOUND('',#324,.F.);
#324 = EDGE_LOOP('',(#325,#334,#335,#336));
#325 = ORIENTED_EDGE('',*,*,#326,.F.);
#326 = EDGE_CURVE('',#276,#327,#329,.T.);
#327 = VERTEX_POINT('',#328);
#328 = CARTESIAN_POINT('',(1.975,0.E+000,-3.));
#329 = CIRCLE('',#330,7.5E-002);
#330 = AXIS2_PLACEMENT_3D('',#331,#332,#333);
#331 = CARTESIAN_POINT('',(1.975,0.E+000,-2.925));
#332 = DIRECTION('',(-0.E+000,1.,0.E+000));
#333 = DIRECTION('',(1.,0.E+000,0.E+000));
#334 = ORIENTED_EDGE('',*,*,#285,.T.);
#335 = ORIENTED_EDGE('',*,*,#326,.T.);
#336 = ORIENTED_EDGE('',*,*,#337,.F.);
#337 = EDGE_CURVE('',#327,#327,#338,.T.);
#338 = CIRCLE('',#339,7.5E-002);
#339 = AXIS2_PLACEMENT_3D('',#340,#341,#342);
#340 = CARTESIAN_POINT('',(1.9,0.E+000,-3.));
#341 = DIRECTION('',(0.E+000,0.E+000,1.));
#342 = DIRECTION('',(1.,0.E+000,0.E+000));
#343 = TOROIDAL_SURFACE('',#344,7.5E-002,7.5E-002);
#344 = AXIS2_PLACEMENT_3D('',#345,#346,#347);
#345 = CARTESIAN_POINT('',(1.9,0.E+000,-2.925));
#346 = DIRECTION('',(-0.E+000,-0.E+000,-1.));
#347 = DIRECTION('',(1.,0.E+000,0.E+000));
#348 = ADVANCED_FACE('',(#349),#352,.T.);
#349 = FACE_BOUND('',#350,.T.);
#350 = EDGE_LOOP('',(#351));
#351 = ORIENTED_EDGE('',*,*,#311,.T.);
#352 = PLANE('',#353);
#353 = AXIS2_PLACEMENT_3D('',#354,#355,#356);
#354 = CARTESIAN_POINT('',(0.95,3.853260801433E-017,8.05));
#355 = DIRECTION('',(-1.863333581871E-033,-1.245168191405E-033,1.));
#356 = DIRECTION('',(1.,0.E+000,1.863333581871E-033));
#357 = ADVANCED_FACE('',(#358),#361,.F.);
#358 = FACE_BOUND('',#359,.F.);
#359 = EDGE_LOOP('',(#360));
#360 = ORIENTED_EDGE('',*,*,#337,.T.);
#361 = PLANE('',#362);
#362 = AXIS2_PLACEMENT_3D('',#363,#364,#365);
#363 = CARTESIAN_POINT('',(1.9,2.779371033817E-018,-3.));
#364 = DIRECTION('',(0.E+000,0.E+000,1.));
#365 = DIRECTION('',(1.,0.E+000,0.E+000));
#366 = ( GEOMETRIC_REPRESENTATION_CONTEXT(3)
GLOBAL_UNCERTAINTY_ASSIGNED_CONTEXT((#370)) GLOBAL_UNIT_ASSIGNED_CONTEXT
((#367,#368,#369)) REPRESENTATION_CONTEXT('Context #1',
'3D Context with UNIT and UNCERTAINTY') );
#367 = ( LENGTH_UNIT() NAMED_UNIT(*) SI_UNIT(.MILLI.,.METRE.) );
#368 = ( NAMED_UNIT(*) PLANE_ANGLE_UNIT() SI_UNIT($,.RADIAN.) );
#369 = ( NAMED_UNIT(*) SI_UNIT($,.STERADIAN.) SOLID_ANGLE_UNIT() );
#370 = UNCERTAINTY_MEASURE_WITH_UNIT(LENGTH_MEASURE(1.E-007),#367,
'distance_accuracy_value','confusion accuracy');
#371 = PRODUCT_RELATED_PRODUCT_CATEGORY('part',$,(#7));
#372 = MECHANICAL_DESIGN_GEOMETRIC_PRESENTATION_REPRESENTATION('',(#373,
#381,#388,#395,#402,#410,#417,#424,#431,#438,#446,#453,#460,#467,
#474),#366);
#373 = STYLED_ITEM('color',(#374),#17);
#374 = PRESENTATION_STYLE_ASSIGNMENT((#375));
#375 = SURFACE_STYLE_USAGE(.BOTH.,#376);
#376 = SURFACE_SIDE_STYLE('',(#377));
#377 = SURFACE_STYLE_FILL_AREA(#378);
#378 = FILL_AREA_STYLE('',(#379));
#379 = FILL_AREA_STYLE_COLOUR('',#380);
#380 = COLOUR_RGB('',0.507539987564,0.507539987564,0.507539987564);
#381 = STYLED_ITEM('color',(#382),#50);
#382 = PRESENTATION_STYLE_ASSIGNMENT((#383));
#383 = SURFACE_STYLE_USAGE(.BOTH.,#384);
#384 = SURFACE_SIDE_STYLE('',(#385));
#385 = SURFACE_STYLE_FILL_AREA(#386);
#386 = FILL_AREA_STYLE('',(#387));
#387 = FILL_AREA_STYLE_COLOUR('',#380);
#388 = STYLED_ITEM('color',(#389),#59);
#389 = PRESENTATION_STYLE_ASSIGNMENT((#390));
#390 = SURFACE_STYLE_USAGE(.BOTH.,#391);
#391 = SURFACE_SIDE_STYLE('',(#392));
#392 = SURFACE_STYLE_FILL_AREA(#393);
#393 = FILL_AREA_STYLE('',(#394));
#394 = FILL_AREA_STYLE_COLOUR('',#380);
#395 = STYLED_ITEM('color',(#396),#87);
#396 = PRESENTATION_STYLE_ASSIGNMENT((#397));
#397 = SURFACE_STYLE_USAGE(.BOTH.,#398);
#398 = SURFACE_SIDE_STYLE('',(#399));
#399 = SURFACE_STYLE_FILL_AREA(#400);
#400 = FILL_AREA_STYLE('',(#401));
#401 = FILL_AREA_STYLE_COLOUR('',#380);
#402 = STYLED_ITEM('color',(#403),#112);
#403 = PRESENTATION_STYLE_ASSIGNMENT((#404));
#404 = SURFACE_STYLE_USAGE(.BOTH.,#405);
#405 = SURFACE_SIDE_STYLE('',(#406));
#406 = SURFACE_STYLE_FILL_AREA(#407);
#407 = FILL_AREA_STYLE('',(#408));
#408 = FILL_AREA_STYLE_COLOUR('',#409);
#409 = COLOUR_RGB('',0.379000008106,0.270000010729,0.215000003576);
#410 = STYLED_ITEM('color',(#411),#143);
#411 = PRESENTATION_STYLE_ASSIGNMENT((#412));
#412 = SURFACE_STYLE_USAGE(.BOTH.,#413);
#413 = SURFACE_SIDE_STYLE('',(#414));
#414 = SURFACE_STYLE_FILL_AREA(#415);
#415 = FILL_AREA_STYLE('',(#416));
#416 = FILL_AREA_STYLE_COLOUR('',#409);
#417 = STYLED_ITEM('color',(#418),#168);
#418 = PRESENTATION_STYLE_ASSIGNMENT((#419));
#419 = SURFACE_STYLE_USAGE(.BOTH.,#420);
#420 = SURFACE_SIDE_STYLE('',(#421));
#421 = SURFACE_STYLE_FILL_AREA(#422);
#422 = FILL_AREA_STYLE('',(#423));
#423 = FILL_AREA_STYLE_COLOUR('',#380);
#424 = STYLED_ITEM('color',(#425),#193);
#425 = PRESENTATION_STYLE_ASSIGNMENT((#426));
#426 = SURFACE_STYLE_USAGE(.BOTH.,#427);
#427 = SURFACE_SIDE_STYLE('',(#428));
#428 = SURFACE_STYLE_FILL_AREA(#429);
#429 = FILL_AREA_STYLE('',(#430));
#430 = FILL_AREA_STYLE_COLOUR('',#409);
#431 = STYLED_ITEM('color',(#432),#218);
#432 = PRESENTATION_STYLE_ASSIGNMENT((#433));
#433 = SURFACE_STYLE_USAGE(.BOTH.,#434);
#434 = SURFACE_SIDE_STYLE('',(#435));
#435 = SURFACE_STYLE_FILL_AREA(#436);
#436 = FILL_AREA_STYLE('',(#437));
#437 = FILL_AREA_STYLE_COLOUR('',#380);
#438 = STYLED_ITEM('color',(#439),#246);
#439 = PRESENTATION_STYLE_ASSIGNMENT((#440));
#440 = SURFACE_STYLE_USAGE(.BOTH.,#441);
#441 = SURFACE_SIDE_STYLE('',(#442));
#442 = SURFACE_STYLE_FILL_AREA(#443);
#443 = FILL_AREA_STYLE('',(#444));
#444 = FILL_AREA_STYLE_COLOUR('',#445);
#445 = COLOUR_RGB('',0.372321993113,0.371574014425,0.373172998428);
#446 = STYLED_ITEM('color',(#447),#271);
#447 = PRESENTATION_STYLE_ASSIGNMENT((#448));
#448 = SURFACE_STYLE_USAGE(.BOTH.,#449);
#449 = SURFACE_SIDE_STYLE('',(#450));
#450 = SURFACE_STYLE_FILL_AREA(#451);
#451 = FILL_AREA_STYLE('',(#452));
#452 = FILL_AREA_STYLE_COLOUR('',#380);
#453 = STYLED_ITEM('color',(#454),#296);
#454 = PRESENTATION_STYLE_ASSIGNMENT((#455));
#455 = SURFACE_STYLE_USAGE(.BOTH.,#456);
#456 = SURFACE_SIDE_STYLE('',(#457));
#457 = SURFACE_STYLE_FILL_AREA(#458);
#458 = FILL_AREA_STYLE('',(#459));
#459 = FILL_AREA_STYLE_COLOUR('',#445);
#460 = STYLED_ITEM('color',(#461),#322);
#461 = PRESENTATION_STYLE_ASSIGNMENT((#462));
#462 = SURFACE_STYLE_USAGE(.BOTH.,#463);
#463 = SURFACE_SIDE_STYLE('',(#464));
#464 = SURFACE_STYLE_FILL_AREA(#465);
#465 = FILL_AREA_STYLE('',(#466));
#466 = FILL_AREA_STYLE_COLOUR('',#380);
#467 = STYLED_ITEM('color',(#468),#348);
#468 = PRESENTATION_STYLE_ASSIGNMENT((#469));
#469 = SURFACE_STYLE_USAGE(.BOTH.,#470);
#470 = SURFACE_SIDE_STYLE('',(#471));
#471 = SURFACE_STYLE_FILL_AREA(#472);
#472 = FILL_AREA_STYLE('',(#473));
#473 = FILL_AREA_STYLE_COLOUR('',#445);
#474 = STYLED_ITEM('color',(#475),#357);
#475 = PRESENTATION_STYLE_ASSIGNMENT((#476));
#476 = SURFACE_STYLE_USAGE(.BOTH.,#477);
#477 = SURFACE_SIDE_STYLE('',(#478));
#478 = SURFACE_STYLE_FILL_AREA(#479);
#479 = FILL_AREA_STYLE('',(#480));
#480 = FILL_AREA_STYLE_COLOUR('',#380);
ENDSEC;
END-ISO-10303-21;
