ISO-10303-21;
HEADER;
/* Buzzer_TDK_PS1240P02BT.step 3D STEP model for use in ECAD systems
 * Copyright (C) 2018, kicad StepUp
 * 
 * This work is licensed under the [Creative Commons CC-BY-SA 4.0 License](https://creativecommons.org/licenses/by-sa/4.0/legalcode), 
 * with the following exception:
 * To the extent that the creation of electronic designs that use 'Licensed Material' can be considered to be 'Adapted Material', 
 * then the copyright holder waives article 3 of the license with respect to these designs and any generated files which use data provided 
 * as part of the 'Licensed Material'.
 * You are free to use the library data in your own projects without the obligation to share your project files under this or any other license agreement.
 * However, if you wish to redistribute these libraries, or parts thereof (including in modified form) as a collection then the exception above does not apply. 
 * Please refer to https://github.com/KiCad/kicad-packages3D/blob/master/LICENSE.md for further clarification of the exception.
 * Disclaimer of Warranties and Limitation of Liability.
 * These libraries are provided in the hope that they will be useful, but are provided without warranty of any kind, express or implied.
 * *USE 3D CAD DATA AT YOUR OWN RISK*
 * *DO NOT RELY UPON ANY INFORMATION FOUND HERE WITHOUT INDEPENDENT VERIFICATION.*
 * 
 */

FILE_DESCRIPTION(
/* description */ ('model of Buzzer_TDK_PS1240P02BT'),
/* implementation_level */ '2;1');

FILE_NAME(
/* name */ 'Buzzer_TDK_PS1240P02BT.step',
/* time_stamp */ '2018-11-19T22:36:25',
/* author */ ('kicad StepUp','ksu'),
/* organization */ ('FreeCAD'),
/* preprocessor_version */ 'OCC',
/* originating_system */ 'kicad StepUp',
/* authorisation */ '');

FILE_SCHEMA(('AUTOMOTIVE_DESIGN { 1 0 10303 214 1 1 1 1 }'));
ENDSEC;

DATA;
#1 = APPLICATION_PROTOCOL_DEFINITION('international standard',
'automotive_design',2000,#2);
#2 = APPLICATION_CONTEXT(
'core data for automotive mechanical design processes');
#3 = SHAPE_DEFINITION_REPRESENTATION(#4,#10);
#4 = PRODUCT_DEFINITION_SHAPE('','',#5);
#5 = PRODUCT_DEFINITION('design','',#6,#9);
#6 = PRODUCT_DEFINITION_FORMATION('','',#7);
#7 = PRODUCT('Buzzer_TDK_PS1240P02BT','Buzzer_TDK_PS1240P02BT','',(#8));
#8 = PRODUCT_CONTEXT('',#2,'mechanical');
#9 = PRODUCT_DEFINITION_CONTEXT('part definition',#2,'design');
#10 = ADVANCED_BREP_SHAPE_REPRESENTATION('',(#11,#15),#307);
#11 = AXIS2_PLACEMENT_3D('',#12,#13,#14);
#12 = CARTESIAN_POINT('',(0.E+000,0.E+000,0.E+000));
#13 = DIRECTION('',(0.E+000,0.E+000,1.));
#14 = DIRECTION('',(1.,0.E+000,-0.E+000));
#15 = MANIFOLD_SOLID_BREP('',#16);
#16 = CLOSED_SHELL('',(#17,#51,#76,#85,#116,#142,#167,#192,#218,#244,
#253,#273,#298));
#17 = ADVANCED_FACE('',(#18),#46,.T.);
#18 = FACE_BOUND('',#19,.F.);
#19 = EDGE_LOOP('',(#20,#31,#38,#39));
#20 = ORIENTED_EDGE('',*,*,#21,.F.);
#21 = EDGE_CURVE('',#22,#24,#26,.T.);
#22 = VERTEX_POINT('',#23);
#23 = CARTESIAN_POINT('',(0.325,0.E+000,-14.87));
#24 = VERTEX_POINT('',#25);
#25 = CARTESIAN_POINT('',(0.195,0.E+000,-15.));
#26 = CIRCLE('',#27,0.13);
#27 = AXIS2_PLACEMENT_3D('',#28,#29,#30);
#28 = CARTESIAN_POINT('',(0.195,0.E+000,-14.87));
#29 = DIRECTION('',(-0.E+000,1.,0.E+000));
#30 = DIRECTION('',(1.,0.E+000,0.E+000));
#31 = ORIENTED_EDGE('',*,*,#32,.T.);
#32 = EDGE_CURVE('',#22,#22,#33,.T.);
#33 = CIRCLE('',#34,0.325);
#34 = AXIS2_PLACEMENT_3D('',#35,#36,#37);
#35 = CARTESIAN_POINT('',(0.E+000,0.E+000,-14.87));
#36 = DIRECTION('',(0.E+000,0.E+000,1.));
#37 = DIRECTION('',(1.,0.E+000,0.E+000));
#38 = ORIENTED_EDGE('',*,*,#21,.T.);
#39 = ORIENTED_EDGE('',*,*,#40,.F.);
#40 = EDGE_CURVE('',#24,#24,#41,.T.);
#41 = CIRCLE('',#42,0.195);
#42 = AXIS2_PLACEMENT_3D('',#43,#44,#45);
#43 = CARTESIAN_POINT('',(0.E+000,0.E+000,-15.));
#44 = DIRECTION('',(0.E+000,0.E+000,1.));
#45 = DIRECTION('',(1.,0.E+000,0.E+000));
#46 = TOROIDAL_SURFACE('',#47,0.195,0.13);
#47 = AXIS2_PLACEMENT_3D('',#48,#49,#50);
#48 = CARTESIAN_POINT('',(0.E+000,0.E+000,-14.87));
#49 = DIRECTION('',(-0.E+000,-0.E+000,-1.));
#50 = DIRECTION('',(1.,0.E+000,0.E+000));
#51 = ADVANCED_FACE('',(#52),#71,.T.);
#52 = FACE_BOUND('',#53,.T.);
#53 = EDGE_LOOP('',(#54,#63,#69,#70));
#54 = ORIENTED_EDGE('',*,*,#55,.F.);
#55 = EDGE_CURVE('',#56,#56,#58,.T.);
#56 = VERTEX_POINT('',#57);
#57 = CARTESIAN_POINT('',(0.325,0.E+000,3.E-002));
#58 = CIRCLE('',#59,0.325);
#59 = AXIS2_PLACEMENT_3D('',#60,#61,#62);
#60 = CARTESIAN_POINT('',(0.E+000,0.E+000,3.E-002));
#61 = DIRECTION('',(0.E+000,0.E+000,1.));
#62 = DIRECTION('',(1.,0.E+000,0.E+000));
#63 = ORIENTED_EDGE('',*,*,#64,.T.);
#64 = EDGE_CURVE('',#56,#22,#65,.T.);
#65 = LINE('',#66,#67);
#66 = CARTESIAN_POINT('',(0.325,0.E+000,1.03));
#67 = VECTOR('',#68,1.);
#68 = DIRECTION('',(-0.E+000,-0.E+000,-1.));
#69 = ORIENTED_EDGE('',*,*,#32,.T.);
#70 = ORIENTED_EDGE('',*,*,#64,.F.);
#71 = CYLINDRICAL_SURFACE('',#72,0.325);
#72 = AXIS2_PLACEMENT_3D('',#73,#74,#75);
#73 = CARTESIAN_POINT('',(0.E+000,0.E+000,1.03));
#74 = DIRECTION('',(0.E+000,0.E+000,1.));
#75 = DIRECTION('',(1.,0.E+000,0.E+000));
#76 = ADVANCED_FACE('',(#77),#80,.F.);
#77 = FACE_BOUND('',#78,.F.);
#78 = EDGE_LOOP('',(#79));
#79 = ORIENTED_EDGE('',*,*,#40,.T.);
#80 = PLANE('',#81);
#81 = AXIS2_PLACEMENT_3D('',#82,#83,#84);
#82 = CARTESIAN_POINT('',(-1.64355785161E-017,3.168571525336E-018,-15.)
);
#83 = DIRECTION('',(0.E+000,0.E+000,1.));
#84 = DIRECTION('',(1.,0.E+000,0.E+000));
#85 = ADVANCED_FACE('',(#86,#97,#100),#111,.F.);
#86 = FACE_BOUND('',#87,.F.);
#87 = EDGE_LOOP('',(#88));
#88 = ORIENTED_EDGE('',*,*,#89,.T.);
#89 = EDGE_CURVE('',#90,#90,#92,.T.);
#90 = VERTEX_POINT('',#91);
#91 = CARTESIAN_POINT('',(8.2,1.336382355046E-051,3.E-002));
#92 = CIRCLE('',#93,5.7);
#93 = AXIS2_PLACEMENT_3D('',#94,#95,#96);
#94 = CARTESIAN_POINT('',(2.5,0.E+000,3.E-002));
#95 = DIRECTION('',(-1.141291818896E-034,2.080404723854E-035,1.));
#96 = DIRECTION('',(1.,1.672564737805E-052,1.141291818896E-034));
#97 = FACE_BOUND('',#98,.F.);
#98 = EDGE_LOOP('',(#99));
#99 = ORIENTED_EDGE('',*,*,#55,.F.);
#100 = FACE_BOUND('',#101,.F.);
#101 = EDGE_LOOP('',(#102));
#102 = ORIENTED_EDGE('',*,*,#103,.F.);
#103 = EDGE_CURVE('',#104,#104,#106,.T.);
#104 = VERTEX_POINT('',#105);
#105 = CARTESIAN_POINT('',(5.325,0.E+000,3.E-002));
#106 = CIRCLE('',#107,0.325);
#107 = AXIS2_PLACEMENT_3D('',#108,#109,#110);
#108 = CARTESIAN_POINT('',(5.,0.E+000,3.E-002));
#109 = DIRECTION('',(0.E+000,0.E+000,1.));
#110 = DIRECTION('',(1.,0.E+000,0.E+000));
#111 = PLANE('',#112);
#112 = AXIS2_PLACEMENT_3D('',#113,#114,#115);
#113 = CARTESIAN_POINT('',(2.5,-1.70226710729E-017,3.E-002));
#114 = DIRECTION('',(-1.141291818896E-034,2.080404723854E-035,1.));
#115 = DIRECTION('',(1.,0.E+000,1.141291818896E-034));
#116 = ADVANCED_FACE('',(#117),#137,.T.);
#117 = FACE_BOUND('',#118,.F.);
#118 = EDGE_LOOP('',(#119,#128,#135,#136));
#119 = ORIENTED_EDGE('',*,*,#120,.F.);
#120 = EDGE_CURVE('',#121,#90,#123,.T.);
#121 = VERTEX_POINT('',#122);
#122 = CARTESIAN_POINT('',(8.5,6.241214171563E-036,0.33));
#123 = CIRCLE('',#124,0.3);
#124 = AXIS2_PLACEMENT_3D('',#125,#126,#127);
#125 = CARTESIAN_POINT('',(8.2,3.120607085781E-037,0.33));
#126 = DIRECTION('',(1.040202361927E-036,1.,-2.080404723854E-035));
#127 = DIRECTION('',(1.,-1.040202361927E-036,1.141291818896E-034));
#128 = ORIENTED_EDGE('',*,*,#129,.T.);
#129 = EDGE_CURVE('',#121,#121,#130,.T.);
#130 = CIRCLE('',#131,6.);
#131 = AXIS2_PLACEMENT_3D('',#132,#133,#134);
#132 = CARTESIAN_POINT('',(2.5,6.241214171563E-036,0.33));
#133 = DIRECTION('',(-1.141291818896E-034,2.080404723854E-035,1.));
#134 = DIRECTION('',(1.,1.672564737805E-052,1.141291818896E-034));
#135 = ORIENTED_EDGE('',*,*,#120,.T.);
#136 = ORIENTED_EDGE('',*,*,#89,.F.);
#137 = TOROIDAL_SURFACE('',#138,5.7,0.3);
#138 = AXIS2_PLACEMENT_3D('',#139,#140,#141);
#139 = CARTESIAN_POINT('',(2.5,6.241214171563E-036,0.33));
#140 = DIRECTION('',(1.141291818896E-034,-2.080404723854E-035,-1.));
#141 = DIRECTION('',(1.,1.672564737805E-052,1.141291818896E-034));
#142 = ADVANCED_FACE('',(#143),#162,.T.);
#143 = FACE_BOUND('',#144,.T.);
#144 = EDGE_LOOP('',(#145,#146,#154,#161));
#145 = ORIENTED_EDGE('',*,*,#103,.F.);
#146 = ORIENTED_EDGE('',*,*,#147,.T.);
#147 = EDGE_CURVE('',#104,#148,#150,.T.);
#148 = VERTEX_POINT('',#149);
#149 = CARTESIAN_POINT('',(5.325,0.E+000,-14.87));
#150 = LINE('',#151,#152);
#151 = CARTESIAN_POINT('',(5.325,0.E+000,1.03));
#152 = VECTOR('',#153,1.);
#153 = DIRECTION('',(-0.E+000,-0.E+000,-1.));
#154 = ORIENTED_EDGE('',*,*,#155,.T.);
#155 = EDGE_CURVE('',#148,#148,#156,.T.);
#156 = CIRCLE('',#157,0.325);
#157 = AXIS2_PLACEMENT_3D('',#158,#159,#160);
#158 = CARTESIAN_POINT('',(5.,0.E+000,-14.87));
#159 = DIRECTION('',(0.E+000,0.E+000,1.));
#160 = DIRECTION('',(1.,0.E+000,0.E+000));
#161 = ORIENTED_EDGE('',*,*,#147,.F.);
#162 = CYLINDRICAL_SURFACE('',#163,0.325);
#163 = AXIS2_PLACEMENT_3D('',#164,#165,#166);
#164 = CARTESIAN_POINT('',(5.,0.E+000,1.03));
#165 = DIRECTION('',(0.E+000,0.E+000,1.));
#166 = DIRECTION('',(1.,0.E+000,0.E+000));
#167 = ADVANCED_FACE('',(#168),#187,.T.);
#168 = FACE_BOUND('',#169,.F.);
#169 = EDGE_LOOP('',(#170,#178,#185,#186));
#170 = ORIENTED_EDGE('',*,*,#171,.T.);
#171 = EDGE_CURVE('',#121,#172,#174,.T.);
#172 = VERTEX_POINT('',#173);
#173 = CARTESIAN_POINT('',(8.5,-3.082081072377E-035,5.048518518519));
#174 = LINE('',#175,#176);
#175 = CARTESIAN_POINT('',(8.5,0.E+000,3.E-002));
#176 = VECTOR('',#177,1.);
#177 = DIRECTION('',(0.E+000,0.E+000,1.));
#178 = ORIENTED_EDGE('',*,*,#179,.T.);
#179 = EDGE_CURVE('',#172,#172,#180,.T.);
#180 = CIRCLE('',#181,6.);
#181 = AXIS2_PLACEMENT_3D('',#182,#183,#184);
#182 = CARTESIAN_POINT('',(2.5,-3.082081072377E-035,5.048518518519));
#183 = DIRECTION('',(-1.141291818896E-034,2.080404723854E-035,1.));
#184 = DIRECTION('',(1.,2.374348891328E-069,1.141291818896E-034));
#185 = ORIENTED_EDGE('',*,*,#171,.F.);
#186 = ORIENTED_EDGE('',*,*,#129,.F.);
#187 = CYLINDRICAL_SURFACE('',#188,6.);
#188 = AXIS2_PLACEMENT_3D('',#189,#190,#191);
#189 = CARTESIAN_POINT('',(2.5,0.E+000,3.E-002));
#190 = DIRECTION('',(-0.E+000,-0.E+000,-1.));
#191 = DIRECTION('',(1.,0.E+000,0.E+000));
#192 = ADVANCED_FACE('',(#193),#213,.T.);
#193 = FACE_BOUND('',#194,.F.);
#194 = EDGE_LOOP('',(#195,#204,#205,#206));
#195 = ORIENTED_EDGE('',*,*,#196,.F.);
#196 = EDGE_CURVE('',#148,#197,#199,.T.);
#197 = VERTEX_POINT('',#198);
#198 = CARTESIAN_POINT('',(5.195,0.E+000,-15.));
#199 = CIRCLE('',#200,0.13);
#200 = AXIS2_PLACEMENT_3D('',#201,#202,#203);
#201 = CARTESIAN_POINT('',(5.195,0.E+000,-14.87));
#202 = DIRECTION('',(-0.E+000,1.,0.E+000));
#203 = DIRECTION('',(1.,0.E+000,0.E+000));
#204 = ORIENTED_EDGE('',*,*,#155,.T.);
#205 = ORIENTED_EDGE('',*,*,#196,.T.);
#206 = ORIENTED_EDGE('',*,*,#207,.F.);
#207 = EDGE_CURVE('',#197,#197,#208,.T.);
#208 = CIRCLE('',#209,0.195);
#209 = AXIS2_PLACEMENT_3D('',#210,#211,#212);
#210 = CARTESIAN_POINT('',(5.,0.E+000,-15.));
#211 = DIRECTION('',(0.E+000,0.E+000,1.));
#212 = DIRECTION('',(1.,0.E+000,0.E+000));
#213 = TOROIDAL_SURFACE('',#214,0.195,0.13);
#214 = AXIS2_PLACEMENT_3D('',#215,#216,#217);
#215 = CARTESIAN_POINT('',(5.,0.E+000,-14.87));
#216 = DIRECTION('',(-0.E+000,-0.E+000,-1.));
#217 = DIRECTION('',(1.,0.E+000,0.E+000));
#218 = ADVANCED_FACE('',(#219),#239,.T.);
#219 = FACE_BOUND('',#220,.T.);
#220 = EDGE_LOOP('',(#221,#230,#231,#232));
#221 = ORIENTED_EDGE('',*,*,#222,.F.);
#222 = EDGE_CURVE('',#172,#223,#225,.T.);
#223 = VERTEX_POINT('',#224);
#224 = CARTESIAN_POINT('',(7.018518518519,0.E+000,6.53));
#225 = CIRCLE('',#226,1.481481481481);
#226 = AXIS2_PLACEMENT_3D('',#227,#228,#229);
#227 = CARTESIAN_POINT('',(7.018518518519,-3.082081072377E-035,
5.048518518519));
#228 = DIRECTION('',(0.E+000,-1.,2.080404723854E-035));
#229 = DIRECTION('',(1.,2.374348891328E-069,1.141291818896E-034));
#230 = ORIENTED_EDGE('',*,*,#179,.T.);
#231 = ORIENTED_EDGE('',*,*,#222,.T.);
#232 = ORIENTED_EDGE('',*,*,#233,.F.);
#233 = EDGE_CURVE('',#223,#223,#234,.T.);
#234 = CIRCLE('',#235,4.518518518519);
#235 = AXIS2_PLACEMENT_3D('',#236,#237,#238);
#236 = CARTESIAN_POINT('',(2.5,0.E+000,6.53));
#237 = DIRECTION('',(-1.141291818896E-034,2.080404723854E-035,1.));
#238 = DIRECTION('',(1.,2.374348891328E-069,1.141291818896E-034));
#239 = TOROIDAL_SURFACE('',#240,4.518518518519,1.481481481481);
#240 = AXIS2_PLACEMENT_3D('',#241,#242,#243);
#241 = CARTESIAN_POINT('',(2.5,-3.082081072377E-035,5.048518518519));
#242 = DIRECTION('',(-1.141291818896E-034,2.080404723854E-035,1.));
#243 = DIRECTION('',(1.,2.374348891328E-069,1.141291818896E-034));
#244 = ADVANCED_FACE('',(#245),#248,.F.);
#245 = FACE_BOUND('',#246,.F.);
#246 = EDGE_LOOP('',(#247));
#247 = ORIENTED_EDGE('',*,*,#207,.T.);
#248 = PLANE('',#249);
#249 = AXIS2_PLACEMENT_3D('',#250,#251,#252);
#250 = CARTESIAN_POINT('',(5.,-6.257374253906E-017,-15.));
#251 = DIRECTION('',(0.E+000,0.E+000,1.));
#252 = DIRECTION('',(1.,0.E+000,0.E+000));
#253 = ADVANCED_FACE('',(#254,#257),#268,.T.);
#254 = FACE_BOUND('',#255,.T.);
#255 = EDGE_LOOP('',(#256));
#256 = ORIENTED_EDGE('',*,*,#233,.T.);
#257 = FACE_BOUND('',#258,.T.);
#258 = EDGE_LOOP('',(#259));
#259 = ORIENTED_EDGE('',*,*,#260,.T.);
#260 = EDGE_CURVE('',#261,#261,#263,.T.);
#261 = VERTEX_POINT('',#262);
#262 = CARTESIAN_POINT('',(3.5,0.E+000,6.53));
#263 = CIRCLE('',#264,1.);
#264 = AXIS2_PLACEMENT_3D('',#265,#266,#267);
#265 = CARTESIAN_POINT('',(2.5,0.E+000,6.53));
#266 = DIRECTION('',(0.E+000,0.E+000,-1.));
#267 = DIRECTION('',(1.,0.E+000,0.E+000));
#268 = PLANE('',#269);
#269 = AXIS2_PLACEMENT_3D('',#270,#271,#272);
#270 = CARTESIAN_POINT('',(2.5,-1.70226710729E-017,6.53));
#271 = DIRECTION('',(-1.141291818896E-034,2.080404723854E-035,1.));
#272 = DIRECTION('',(1.,0.E+000,1.141291818896E-034));
#273 = ADVANCED_FACE('',(#274),#293,.F.);
#274 = FACE_BOUND('',#275,.T.);
#275 = EDGE_LOOP('',(#276,#285,#291,#292));
#276 = ORIENTED_EDGE('',*,*,#277,.F.);
#277 = EDGE_CURVE('',#278,#278,#280,.T.);
#278 = VERTEX_POINT('',#279);
#279 = CARTESIAN_POINT('',(3.5,0.E+000,6.33));
#280 = CIRCLE('',#281,1.);
#281 = AXIS2_PLACEMENT_3D('',#282,#283,#284);
#282 = CARTESIAN_POINT('',(2.5,0.E+000,6.33));
#283 = DIRECTION('',(0.E+000,0.E+000,1.));
#284 = DIRECTION('',(1.,0.E+000,0.E+000));
#285 = ORIENTED_EDGE('',*,*,#286,.T.);
#286 = EDGE_CURVE('',#278,#261,#287,.T.);
#287 = LINE('',#288,#289);
#288 = CARTESIAN_POINT('',(3.5,0.E+000,1.33));
#289 = VECTOR('',#290,1.);
#290 = DIRECTION('',(0.E+000,0.E+000,1.));
#291 = ORIENTED_EDGE('',*,*,#260,.F.);
#292 = ORIENTED_EDGE('',*,*,#286,.F.);
#293 = CYLINDRICAL_SURFACE('',#294,1.);
#294 = AXIS2_PLACEMENT_3D('',#295,#296,#297);
#295 = CARTESIAN_POINT('',(2.5,0.E+000,1.33));
#296 = DIRECTION('',(-0.E+000,-0.E+000,-1.));
#297 = DIRECTION('',(1.,0.E+000,0.E+000));
#298 = ADVANCED_FACE('',(#299),#302,.T.);
#299 = FACE_BOUND('',#300,.T.);
#300 = EDGE_LOOP('',(#301));
#301 = ORIENTED_EDGE('',*,*,#277,.T.);
#302 = PLANE('',#303);
#303 = AXIS2_PLACEMENT_3D('',#304,#305,#306);
#304 = CARTESIAN_POINT('',(2.5,8.737595245399E-017,6.33));
#305 = DIRECTION('',(-2.465190328816E-031,-8.160931734719E-033,1.));
#306 = DIRECTION('',(1.,0.E+000,2.465190328816E-031));
#307 = ( GEOMETRIC_REPRESENTATION_CONTEXT(3)
GLOBAL_UNCERTAINTY_ASSIGNED_CONTEXT((#311)) GLOBAL_UNIT_ASSIGNED_CONTEXT
((#308,#309,#310)) REPRESENTATION_CONTEXT('Context #1',
'3D Context with UNIT and UNCERTAINTY') );
#308 = ( LENGTH_UNIT() NAMED_UNIT(*) SI_UNIT(.MILLI.,.METRE.) );
#309 = ( NAMED_UNIT(*) PLANE_ANGLE_UNIT() SI_UNIT($,.RADIAN.) );
#310 = ( NAMED_UNIT(*) SI_UNIT($,.STERADIAN.) SOLID_ANGLE_UNIT() );
#311 = UNCERTAINTY_MEASURE_WITH_UNIT(LENGTH_MEASURE(1.E-007),#308,
'distance_accuracy_value','confusion accuracy');
#312 = PRODUCT_RELATED_PRODUCT_CATEGORY('part',$,(#7));
#313 = MECHANICAL_DESIGN_GEOMETRIC_PRESENTATION_REPRESENTATION('',(#314,
#322,#329,#336,#344,#351,#358,#365,#372,#379,#386,#393,#400),#307);
#314 = STYLED_ITEM('color',(#315),#17);
#315 = PRESENTATION_STYLE_ASSIGNMENT((#316));
#316 = SURFACE_STYLE_USAGE(.BOTH.,#317);
#317 = SURFACE_SIDE_STYLE('',(#318));
#318 = SURFACE_STYLE_FILL_AREA(#319);
#319 = FILL_AREA_STYLE('',(#320));
#320 = FILL_AREA_STYLE_COLOUR('',#321);
#321 = COLOUR_RGB('',0.824000000954,0.819999992847,0.78100001812);
#322 = STYLED_ITEM('color',(#323),#51);
#323 = PRESENTATION_STYLE_ASSIGNMENT((#324));
#324 = SURFACE_STYLE_USAGE(.BOTH.,#325);
#325 = SURFACE_SIDE_STYLE('',(#326));
#326 = SURFACE_STYLE_FILL_AREA(#327);
#327 = FILL_AREA_STYLE('',(#328));
#328 = FILL_AREA_STYLE_COLOUR('',#321);
#329 = STYLED_ITEM('color',(#330),#76);
#330 = PRESENTATION_STYLE_ASSIGNMENT((#331));
#331 = SURFACE_STYLE_USAGE(.BOTH.,#332);
#332 = SURFACE_SIDE_STYLE('',(#333));
#333 = SURFACE_STYLE_FILL_AREA(#334);
#334 = FILL_AREA_STYLE('',(#335));
#335 = FILL_AREA_STYLE_COLOUR('',#321);
#336 = STYLED_ITEM('color',(#337),#85);
#337 = PRESENTATION_STYLE_ASSIGNMENT((#338));
#338 = SURFACE_STYLE_USAGE(.BOTH.,#339);
#339 = SURFACE_SIDE_STYLE('',(#340));
#340 = SURFACE_STYLE_FILL_AREA(#341);
#341 = FILL_AREA_STYLE('',(#342));
#342 = FILL_AREA_STYLE_COLOUR('',#343);
#343 = COLOUR_RGB('',0.148000001907,0.144999995828,0.144999995828);
#344 = STYLED_ITEM('color',(#345),#116);
#345 = PRESENTATION_STYLE_ASSIGNMENT((#346));
#346 = SURFACE_STYLE_USAGE(.BOTH.,#347);
#347 = SURFACE_SIDE_STYLE('',(#348));
#348 = SURFACE_STYLE_FILL_AREA(#349);
#349 = FILL_AREA_STYLE('',(#350));
#350 = FILL_AREA_STYLE_COLOUR('',#343);
#351 = STYLED_ITEM('color',(#352),#142);
#352 = PRESENTATION_STYLE_ASSIGNMENT((#353));
#353 = SURFACE_STYLE_USAGE(.BOTH.,#354);
#354 = SURFACE_SIDE_STYLE('',(#355));
#355 = SURFACE_STYLE_FILL_AREA(#356);
#356 = FILL_AREA_STYLE('',(#357));
#357 = FILL_AREA_STYLE_COLOUR('',#321);
#358 = STYLED_ITEM('color',(#359),#167);
#359 = PRESENTATION_STYLE_ASSIGNMENT((#360));
#360 = SURFACE_STYLE_USAGE(.BOTH.,#361);
#361 = SURFACE_SIDE_STYLE('',(#362));
#362 = SURFACE_STYLE_FILL_AREA(#363);
#363 = FILL_AREA_STYLE('',(#364));
#364 = FILL_AREA_STYLE_COLOUR('',#343);
#365 = STYLED_ITEM('color',(#366),#192);
#366 = PRESENTATION_STYLE_ASSIGNMENT((#367));
#367 = SURFACE_STYLE_USAGE(.BOTH.,#368);
#368 = SURFACE_SIDE_STYLE('',(#369));
#369 = SURFACE_STYLE_FILL_AREA(#370);
#370 = FILL_AREA_STYLE('',(#371));
#371 = FILL_AREA_STYLE_COLOUR('',#321);
#372 = STYLED_ITEM('color',(#373),#218);
#373 = PRESENTATION_STYLE_ASSIGNMENT((#374));
#374 = SURFACE_STYLE_USAGE(.BOTH.,#375);
#375 = SURFACE_SIDE_STYLE('',(#376));
#376 = SURFACE_STYLE_FILL_AREA(#377);
#377 = FILL_AREA_STYLE('',(#378));
#378 = FILL_AREA_STYLE_COLOUR('',#343);
#379 = STYLED_ITEM('color',(#380),#244);
#380 = PRESENTATION_STYLE_ASSIGNMENT((#381));
#381 = SURFACE_STYLE_USAGE(.BOTH.,#382);
#382 = SURFACE_SIDE_STYLE('',(#383));
#383 = SURFACE_STYLE_FILL_AREA(#384);
#384 = FILL_AREA_STYLE('',(#385));
#385 = FILL_AREA_STYLE_COLOUR('',#321);
#386 = STYLED_ITEM('color',(#387),#253);
#387 = PRESENTATION_STYLE_ASSIGNMENT((#388));
#388 = SURFACE_STYLE_USAGE(.BOTH.,#389);
#389 = SURFACE_SIDE_STYLE('',(#390));
#390 = SURFACE_STYLE_FILL_AREA(#391);
#391 = FILL_AREA_STYLE('',(#392));
#392 = FILL_AREA_STYLE_COLOUR('',#343);
#393 = STYLED_ITEM('color',(#394),#273);
#394 = PRESENTATION_STYLE_ASSIGNMENT((#395));
#395 = SURFACE_STYLE_USAGE(.BOTH.,#396);
#396 = SURFACE_SIDE_STYLE('',(#397));
#397 = SURFACE_STYLE_FILL_AREA(#398);
#398 = FILL_AREA_STYLE('',(#399));
#399 = FILL_AREA_STYLE_COLOUR('',#343);
#400 = STYLED_ITEM('color',(#401),#298);
#401 = PRESENTATION_STYLE_ASSIGNMENT((#402));
#402 = SURFACE_STYLE_USAGE(.BOTH.,#403);
#403 = SURFACE_SIDE_STYLE('',(#404));
#404 = SURFACE_STYLE_FILL_AREA(#405);
#405 = FILL_AREA_STYLE('',(#406));
#406 = FILL_AREA_STYLE_COLOUR('',#407);
#407 = COLOUR_RGB('',0.809000015259,0.425999999046,0.148000001907);
ENDSEC;
END-ISO-10303-21;
