ISO-10303-21;
HEADER;
/* RV_Disc_D21.5mm_W11.4mm_P10mm.step 3D STEP model for use in ECAD systems
 * Copyright (C) 2018, kicad StepUp
 * 
 * This work is licensed under the [Creative Commons CC-BY-SA 4.0 License](https://creativecommons.org/licenses/by-sa/4.0/legalcode), 
 * with the following exception:
 * To the extent that the creation of electronic designs that use 'Licensed Material' can be considered to be 'Adapted Material', 
 * then the copyright holder waives article 3 of the license with respect to these designs and any generated files which use data provided 
 * as part of the 'Licensed Material'.
 * You are free to use the library data in your own projects without the obligation to share your project files under this or any other license agreement.
 * However, if you wish to redistribute these libraries, or parts thereof (including in modified form) as a collection then the exception above does not apply. 
 * Please refer to https://github.com/KiCad/kicad-packages3D/blob/master/LICENSE.md for further clarification of the exception.
 * Disclaimer of Warranties and Limitation of Liability.
 * These libraries are provided in the hope that they will be useful, but are provided without warranty of any kind, express or implied.
 * *USE 3D CAD DATA AT YOUR OWN RISK*
 * *DO NOT RELY UPON ANY INFORMATION FOUND HERE WITHOUT INDEPENDENT VERIFICATION.*
 * 
 */

FILE_DESCRIPTION(
/* description */ ('model of RV_Disc_D21.5mm_W11.4mm_P10mm'),
/* implementation_level */ '2;1');

FILE_NAME(
/* name */ 'RV_Disc_D21.5mm_W11.4mm_P10mm.step',
/* time_stamp */ '2018-11-11T21:02:10',
/* author */ ('kicad StepUp','ksu'),
/* organization */ ('FreeCAD'),
/* preprocessor_version */ 'OCC',
/* originating_system */ 'kicad StepUp',
/* authorisation */ '');

FILE_SCHEMA(('AUTOMOTIVE_DESIGN { 1 0 10303 214 1 1 1 1 }'));
ENDSEC;

DATA;
#1 = APPLICATION_PROTOCOL_DEFINITION('international standard',
'automotive_design',2000,#2);
#2 = APPLICATION_CONTEXT(
'core data for automotive mechanical design processes');
#3 = SHAPE_DEFINITION_REPRESENTATION(#4,#10);
#4 = PRODUCT_DEFINITION_SHAPE('','',#5);
#5 = PRODUCT_DEFINITION('design','',#6,#9);
#6 = PRODUCT_DEFINITION_FORMATION('','',#7);
#7 = PRODUCT('RV_Disc_D215mm_W114mm_P10mm','RV_Disc_D215mm_W114mm_P10mm'
,'',(#8));
#8 = PRODUCT_CONTEXT('',#2,'mechanical');
#9 = PRODUCT_DEFINITION_CONTEXT('part definition',#2,'design');
#10 = ADVANCED_BREP_SHAPE_REPRESENTATION('',(#11,#15),#418);
#11 = AXIS2_PLACEMENT_3D('',#12,#13,#14);
#12 = CARTESIAN_POINT('',(0.E+000,0.E+000,0.E+000));
#13 = DIRECTION('',(0.E+000,0.E+000,1.));
#14 = DIRECTION('',(1.,0.E+000,-0.E+000));
#15 = MANIFOLD_SOLID_BREP('',#16);
#16 = CLOSED_SHELL('',(#17,#50,#168,#278,#287,#313,#322,#348,#374,#400,
#409));
#17 = ADVANCED_FACE('',(#18),#45,.T.);
#18 = FACE_BOUND('',#19,.F.);
#19 = EDGE_LOOP('',(#20,#30,#37,#38));
#20 = ORIENTED_EDGE('',*,*,#21,.T.);
#21 = EDGE_CURVE('',#22,#24,#26,.T.);
#22 = VERTEX_POINT('',#23);
#23 = CARTESIAN_POINT('',(15.75,-3.310975609756,10.78));
#24 = VERTEX_POINT('',#25);
#25 = CARTESIAN_POINT('',(15.75,-3.589024390244,10.78));
#26 = LINE('',#27,#28);
#27 = CARTESIAN_POINT('',(15.75,2.25,10.78));
#28 = VECTOR('',#29,1.);
#29 = DIRECTION('',(0.E+000,-1.,0.E+000));
#30 = ORIENTED_EDGE('',*,*,#31,.T.);
#31 = EDGE_CURVE('',#24,#24,#32,.T.);
#32 = CIRCLE('',#33,10.75);
#33 = AXIS2_PLACEMENT_3D('',#34,#35,#36);
#34 = CARTESIAN_POINT('',(5.,-3.589024390244,10.78));
#35 = DIRECTION('',(0.E+000,-1.,0.E+000));
#36 = DIRECTION('',(1.,0.E+000,0.E+000));
#37 = ORIENTED_EDGE('',*,*,#21,.F.);
#38 = ORIENTED_EDGE('',*,*,#39,.F.);
#39 = EDGE_CURVE('',#22,#22,#40,.T.);
#40 = CIRCLE('',#41,10.75);
#41 = AXIS2_PLACEMENT_3D('',#42,#43,#44);
#42 = CARTESIAN_POINT('',(5.,-3.310975609756,10.78));
#43 = DIRECTION('',(0.E+000,-1.,0.E+000));
#44 = DIRECTION('',(1.,0.E+000,0.E+000));
#45 = CYLINDRICAL_SURFACE('',#46,10.75);
#46 = AXIS2_PLACEMENT_3D('',#47,#48,#49);
#47 = CARTESIAN_POINT('',(5.,2.25,10.78));
#48 = DIRECTION('',(0.E+000,1.,0.E+000));
#49 = DIRECTION('',(1.,0.E+000,0.E+000));
#50 = ADVANCED_FACE('',(#51,#71),#151,.T.);
#51 = FACE_BOUND('',#52,.F.);
#52 = EDGE_LOOP('',(#53,#54,#63,#70));
#53 = ORIENTED_EDGE('',*,*,#39,.T.);
#54 = ORIENTED_EDGE('',*,*,#55,.T.);
#55 = EDGE_CURVE('',#22,#56,#58,.T.);
#56 = VERTEX_POINT('',#57);
#57 = CARTESIAN_POINT('',(10.189024390244,2.25,10.78));
#58 = CIRCLE('',#59,5.560975609756);
#59 = AXIS2_PLACEMENT_3D('',#60,#61,#62);
#60 = CARTESIAN_POINT('',(10.189024390244,-3.310975609756,10.78));
#61 = DIRECTION('',(0.E+000,0.E+000,1.));
#62 = DIRECTION('',(1.,0.E+000,0.E+000));
#63 = ORIENTED_EDGE('',*,*,#64,.F.);
#64 = EDGE_CURVE('',#56,#56,#65,.T.);
#65 = CIRCLE('',#66,5.189024390244);
#66 = AXIS2_PLACEMENT_3D('',#67,#68,#69);
#67 = CARTESIAN_POINT('',(5.,2.25,10.78));
#68 = DIRECTION('',(0.E+000,-1.,0.E+000));
#69 = DIRECTION('',(1.,0.E+000,0.E+000));
#70 = ORIENTED_EDGE('',*,*,#55,.F.);
#71 = FACE_BOUND('',#72,.F.);
#72 = EDGE_LOOP('',(#73,#97));
#73 = ORIENTED_EDGE('',*,*,#74,.T.);
#74 = EDGE_CURVE('',#75,#77,#79,.T.);
#75 = VERTEX_POINT('',#76);
#76 = CARTESIAN_POINT('',(0.45,0.E+000,2.26218516386));
#77 = VERTEX_POINT('',#78);
#78 = CARTESIAN_POINT('',(6.114446058478E-002,-0.445826597389,
2.136418515446));
#79 = B_SPLINE_CURVE_WITH_KNOTS('',6,(#80,#81,#82,#83,#84,#85,#86,#87,
#88,#89,#90,#91,#92,#93,#94,#95,#96),.UNSPECIFIED.,.F.,.F.,(7,5,5,7)
,(0.E+000,0.244285003333,0.621082746978,1.),.UNSPECIFIED.);
#80 = CARTESIAN_POINT('',(0.45,-2.775557561563E-016,2.26218516386));
#81 = CARTESIAN_POINT('',(0.45,-2.366153106684E-002,2.242305573991));
#82 = CARTESIAN_POINT('',(0.448506943023,-4.761116584856E-002,
2.223257925719));
#83 = CARTESIAN_POINT('',(0.445452997795,-7.176039032814E-002,
2.205151757894));
#84 = CARTESIAN_POINT('',(0.440768158813,-9.599741902888E-002,
2.188112079244));
#85 = CARTESIAN_POINT('',(0.434391565615,-0.120185788058,2.172272962564)
);
#86 = CARTESIAN_POINT('',(0.413775479264,-0.181146552125,2.135402780828)
);
#87 = CARTESIAN_POINT('',(0.397141819123,-0.217643433119,2.116206502768)
);
#88 = CARTESIAN_POINT('',(0.37624189701,-0.253022278655,2.100708368906)
);
#89 = CARTESIAN_POINT('',(0.351080917034,-0.286504641104,2.089431084676)
);
#90 = CARTESIAN_POINT('',(0.321971258725,-0.317209511512,2.08276636786)
);
#91 = CARTESIAN_POINT('',(0.25707339015,-0.371780583601,2.078767265257)
);
#92 = CARTESIAN_POINT('',(0.221221809749,-0.395629813494,2.081483920864)
);
#93 = CARTESIAN_POINT('',(0.182780678257,-0.415205712856,2.088998425607)
);
#94 = CARTESIAN_POINT('',(0.142684523643,-0.430096353821,2.101011640682)
);
#95 = CARTESIAN_POINT('',(0.101864465547,-0.440241908739,2.117018189144)
);
#96 = CARTESIAN_POINT('',(6.114446058478E-002,-0.445826597389,
2.136418515446));
#97 = ORIENTED_EDGE('',*,*,#98,.T.);
#98 = EDGE_CURVE('',#77,#75,#99,.T.);
#99 = B_SPLINE_CURVE_WITH_KNOTS('',8,(#100,#101,#102,#103,#104,#105,#106
,#107,#108,#109,#110,#111,#112,#113,#114,#115,#116,#117,#118,#119,
#120,#121,#122,#123,#124,#125,#126,#127,#128,#129,#130,#131,#132,
#133,#134,#135,#136,#137,#138,#139,#140,#141,#142,#143,#144,#145,
#146,#147,#148,#149,#150),.UNSPECIFIED.,.F.,.F.,(9,7,7,7,7,7,7,9),(
0.E+000,0.247377441899,0.38876041262,0.443935483897,0.565173831717,
0.750484097599,0.847378973288,1.),.UNSPECIFIED.);
#100 = CARTESIAN_POINT('',(6.114446058478E-002,-0.445826597389,
2.136418515446));
#101 = CARTESIAN_POINT('',(-1.264833536434E-002,-0.455947170567,
2.171575788179));
#102 = CARTESIAN_POINT('',(-8.569618320066E-002,-0.451743830922,
2.21714196644));
#103 = CARTESIAN_POINT('',(-0.154935209678,-0.434591799935,
2.270390945525));
#104 = CARTESIAN_POINT('',(-0.21826185285,-0.406451470544,2.328932071463
));
#105 = CARTESIAN_POINT('',(-0.274388485789,-0.369256444081,
2.390900138534));
#106 = CARTESIAN_POINT('',(-0.322562688648,-0.324744291177,
2.454804798207));
#107 = CARTESIAN_POINT('',(-0.362349050902,-0.27427675006,2.519562055444
));
#108 = CARTESIAN_POINT('',(-0.410833780518,-0.187163576874,2.62123217));
#109 = CARTESIAN_POINT('',(-0.425518286484,-0.153914621814,
2.658124201082));
#110 = CARTESIAN_POINT('',(-0.437154024971,-0.119320288074,
2.694729825944));
#111 = CARTESIAN_POINT('',(-0.445626629216,-8.360193149576E-002,
2.730827968062));
#112 = CARTESIAN_POINT('',(-0.450810152125,-4.698792779464E-002,
2.766172070902));
#113 = CARTESIAN_POINT('',(-0.452567394176,-9.722710770669E-003,
2.800479005887));
#114 = CARTESIAN_POINT('',(-0.450748296367,2.792339018326E-002,
2.83341471224));
#115 = CARTESIAN_POINT('',(-0.443015853039,8.036388921605E-002,
2.876737564052));
#116 = CARTESIAN_POINT('',(-0.440275608459,9.509324144767E-002,
2.888626494407));
#117 = CARTESIAN_POINT('',(-0.436956192743,0.109812578362,2.900218973683
));
#118 = CARTESIAN_POINT('',(-0.433048019647,0.124500967164,2.911488152806
));
#119 = CARTESIAN_POINT('',(-0.428541740947,0.139135467503,2.922404801545
));
#120 = CARTESIAN_POINT('',(-0.423428598977,0.153691065104,2.932937390345
));
#121 = CARTESIAN_POINT('',(-0.417700779158,0.168140605402,2.943052172176
));
#122 = CARTESIAN_POINT('',(-0.397400819304,0.213907708259,2.973941961091
));
#123 = CARTESIAN_POINT('',(-0.3804405087,0.244729764769,2.992995741559)
);
#124 = CARTESIAN_POINT('',(-0.360400623725,0.274592940684,3.00947809901)
);
#125 = CARTESIAN_POINT('',(-0.337265389017,0.303087063663,3.022929688467
));
#126 = CARTESIAN_POINT('',(-0.311116311957,0.329733477868,3.032859440996
));
#127 = CARTESIAN_POINT('',(-0.282183810089,0.354021530705,3.038819613398
));
#128 = CARTESIAN_POINT('',(-0.250887458004,0.375475028186,3.040515276688
));
#129 = CARTESIAN_POINT('',(-0.167339531137,0.421697761661,3.034000574824
));
#130 = CARTESIAN_POINT('',(-0.112882509619,0.442156832557,3.020091434943
));
#131 = CARTESIAN_POINT('',(-5.675925356907E-002,0.45396153161,
2.996269111886));
#132 = CARTESIAN_POINT('',(-1.215744000005E-003,0.457370827951,
2.964118258942));
#133 = CARTESIAN_POINT('',(5.226206852801E-002,0.45334524793,
2.925745386041));
#134 = CARTESIAN_POINT('',(0.102765521296,0.442921224564,2.882967860171)
);
#135 = CARTESIAN_POINT('',(0.149861064725,0.427042503417,2.837184539801)
);
#136 = CARTESIAN_POINT('',(0.216145676384,0.395495051048,2.764224170238)
);
#137 = CARTESIAN_POINT('',(0.237942479427,0.383334352673,2.738576726933)
);
#138 = CARTESIAN_POINT('',(0.258744289643,0.36993392792,2.712466020955)
);
#139 = CARTESIAN_POINT('',(0.278520707675,0.355372385282,2.686011100855)
);
#140 = CARTESIAN_POINT('',(0.297242432545,0.339719111267,2.659318953867)
);
#141 = CARTESIAN_POINT('',(0.314879723944,0.323035623163,2.632486700904)
);
#142 = CARTESIAN_POINT('',(0.331400864519,0.305376921818,2.605603791563)
);
#143 = CARTESIAN_POINT('',(0.370979830087,0.257520698128,2.536462877371)
);
#144 = CARTESIAN_POINT('',(0.392319577549,0.225968330834,2.494276881273)
);
#145 = CARTESIAN_POINT('',(0.410663217442,0.192325409917,2.452512138376)
);
#146 = CARTESIAN_POINT('',(0.42583712672,0.156772561181,2.41148945178));
#147 = CARTESIAN_POINT('',(0.437625007601,0.11950392175,2.371550030677)
);
#148 = CARTESIAN_POINT('',(0.445773627826,8.074894613825E-002,
2.333067787995));
#149 = CARTESIAN_POINT('',(0.45,4.079346549275E-002,2.296458405142));
#150 = CARTESIAN_POINT('',(0.45,-2.775557561563E-016,2.26218516386));
#151 = SURFACE_OF_REVOLUTION('',#152,#165);
#152 = B_SPLINE_CURVE_WITH_KNOTS('',6,(#153,#154,#155,#156,#157,#158,
#159,#160,#161,#162,#163,#164),.UNSPECIFIED.,.F.,.F.,(7,5,7),(
0.E+000,0.785398163397,1.570796326795),.UNSPECIFIED.);
#153 = CARTESIAN_POINT('',(15.75,-3.310975609756,10.78));
#154 = CARTESIAN_POINT('',(15.75,-2.583045604656,10.78));
#155 = CARTESIAN_POINT('',(15.635657470698,-1.855116815399,10.78));
#156 = CARTESIAN_POINT('',(15.406969433272,-1.149632005217,10.78));
#157 = CARTESIAN_POINT('',(15.069823202008,-0.489072049872,10.78));
#158 = CARTESIAN_POINT('',(14.635952196751,0.10650371108,10.78));
#159 = CARTESIAN_POINT('',(13.60650371108,1.135952196751,10.78));
#160 = CARTESIAN_POINT('',(13.010927950128,1.569823202008,10.78));
#161 = CARTESIAN_POINT('',(12.350367994783,1.906969433271,10.78));
#162 = CARTESIAN_POINT('',(11.644883184601,2.135657470698,10.78));
#163 = CARTESIAN_POINT('',(10.916954395344,2.25,10.78));
#164 = CARTESIAN_POINT('',(10.189024390244,2.25,10.78));
#165 = AXIS1_PLACEMENT('',#166,#167);
#166 = CARTESIAN_POINT('',(5.,-3.310975609756,10.78));
#167 = DIRECTION('',(0.E+000,1.,0.E+000));
#168 = ADVANCED_FACE('',(#169,#189),#261,.T.);
#169 = FACE_BOUND('',#170,.T.);
#170 = EDGE_LOOP('',(#171,#172,#181,#188));
#171 = ORIENTED_EDGE('',*,*,#31,.T.);
#172 = ORIENTED_EDGE('',*,*,#173,.T.);
#173 = EDGE_CURVE('',#24,#174,#176,.T.);
#174 = VERTEX_POINT('',#175);
#175 = CARTESIAN_POINT('',(10.189024390244,-9.15,10.78));
#176 = CIRCLE('',#177,5.560975609756);
#177 = AXIS2_PLACEMENT_3D('',#178,#179,#180);
#178 = CARTESIAN_POINT('',(10.189024390244,-3.589024390244,10.78));
#179 = DIRECTION('',(0.E+000,0.E+000,-1.));
#180 = DIRECTION('',(1.,0.E+000,0.E+000));
#181 = ORIENTED_EDGE('',*,*,#182,.F.);
#182 = EDGE_CURVE('',#174,#174,#183,.T.);
#183 = CIRCLE('',#184,5.189024390244);
#184 = AXIS2_PLACEMENT_3D('',#185,#186,#187);
#185 = CARTESIAN_POINT('',(5.,-9.15,10.78));
#186 = DIRECTION('',(0.E+000,-1.,0.E+000));
#187 = DIRECTION('',(1.,0.E+000,0.E+000));
#188 = ORIENTED_EDGE('',*,*,#173,.F.);
#189 = FACE_BOUND('',#190,.T.);
#190 = EDGE_LOOP('',(#191,#221));
#191 = ORIENTED_EDGE('',*,*,#192,.T.);
#192 = EDGE_CURVE('',#193,#195,#197,.T.);
#193 = VERTEX_POINT('',#194);
#194 = CARTESIAN_POINT('',(10.45,-6.9,2.807975816472));
#195 = VERTEX_POINT('',#196);
#196 = CARTESIAN_POINT('',(9.64114903998,-6.628474700087,2.096633691647)
);
#197 = B_SPLINE_CURVE_WITH_KNOTS('',8,(#198,#199,#200,#201,#202,#203,
#204,#205,#206,#207,#208,#209,#210,#211,#212,#213,#214,#215,#216,
#217,#218,#219,#220),.UNSPECIFIED.,.F.,.F.,(9,7,7,9),(0.E+000,
0.21926792719,0.627355729273,1.),.UNSPECIFIED.);
#198 = CARTESIAN_POINT('',(10.45,-6.9,2.807975816472));
#199 = CARTESIAN_POINT('',(10.45,-6.871034768391,2.781974150777));
#200 = CARTESIAN_POINT('',(10.447869357621,-6.842345704101,
2.755197457775));
#201 = CARTESIAN_POINT('',(10.443678784129,-6.814056602124,
2.727799755088));
#202 = CARTESIAN_POINT('',(10.437493358594,-6.786283084602,
2.699917198319));
#203 = CARTESIAN_POINT('',(10.429373257409,-6.759134966656,
2.671671525601));
#204 = CARTESIAN_POINT('',(10.419374483815,-6.732718622221,
2.643173502132));
#205 = CARTESIAN_POINT('',(10.407549597416,-6.707139349871,
2.614526364727));
#206 = CARTESIAN_POINT('',(10.368634823998,-6.636653474251,2.53242001517
));
#207 = CARTESIAN_POINT('',(10.337200588544,-6.594130515418,
2.478905609467));
#208 = CARTESIAN_POINT('',(10.299960311551,-6.55554860608,2.425855067732
));
#209 = CARTESIAN_POINT('',(10.25720027259,-6.521655647255,2.373893044678
));
#210 = CARTESIAN_POINT('',(10.209302441379,-6.493333343455,
2.323769431561));
#211 = CARTESIAN_POINT('',(10.156830882555,-6.471574983864,
2.276394187896));
#212 = CARTESIAN_POINT('',(10.100610191866,-6.457435503597,
2.232865964536));
#213 = CARTESIAN_POINT('',(9.988146561673,-6.446937044256,2.15951037521)
);
#214 = CARTESIAN_POINT('',(9.932017743013,-6.449111179867,2.128617906636
));
#215 = CARTESIAN_POINT('',(9.874924878047,-6.45946202747,2.103360683633)
);
#216 = CARTESIAN_POINT('',(9.818723376331,-6.478523774522,2.085145104494
));
#217 = CARTESIAN_POINT('',(9.765468529484,-6.506192340004,2.075087909089
));
#218 = CARTESIAN_POINT('',(9.717187839677,-6.541604482816,2.073872871132
));
#219 = CARTESIAN_POINT('',(9.675477384027,-6.583105965678,2.081405988061
));
#220 = CARTESIAN_POINT('',(9.64114903998,-6.628474700087,2.096633691647)
);
#221 = ORIENTED_EDGE('',*,*,#222,.T.);
#222 = EDGE_CURVE('',#195,#193,#223,.T.);
#223 = B_SPLINE_CURVE_WITH_KNOTS('',8,(#224,#225,#226,#227,#228,#229,
#230,#231,#232,#233,#234,#235,#236,#237,#238,#239,#240,#241,#242,
#243,#244,#245,#246,#247,#248,#249,#250,#251,#252,#253,#254,#255,
#256,#257,#258,#259,#260),.UNSPECIFIED.,.F.,.F.,(9,7,7,7,7,9),(
0.E+000,0.140468287817,0.364171289847,0.632296403124,0.821692235442,
1.),.UNSPECIFIED.);
#224 = CARTESIAN_POINT('',(9.64114903998,-6.628474700087,2.096633691647)
);
#225 = CARTESIAN_POINT('',(9.621374225843,-6.654609321943,2.105405597677
));
#226 = CARTESIAN_POINT('',(9.604008248743,-6.682081204802,2.116748958101
));
#227 = CARTESIAN_POINT('',(9.589164553436,-6.710553240923,2.130507255423
));
#228 = CARTESIAN_POINT('',(9.576870487134,-6.739699205562,2.146478276489
));
#229 = CARTESIAN_POINT('',(9.567090964745,-6.769224226151,2.164440074969
));
#230 = CARTESIAN_POINT('',(9.559749837638,-6.798876489199,2.1841709867)
);
#231 = CARTESIAN_POINT('',(9.554748965919,-6.828450184929,2.205463697862
));
#232 = CARTESIAN_POINT('',(9.547583226589,-6.904488440466,2.264235983184
));
#233 = CARTESIAN_POINT('',(9.548858333531,-6.950538963406,2.303800654179
));
#234 = CARTESIAN_POINT('',(9.555370726013,-6.995313883144,2.34610779717)
);
#235 = CARTESIAN_POINT('',(9.566690904195,-7.038350333905,2.390521940395
));
#236 = CARTESIAN_POINT('',(9.582431110453,-7.079292017555,2.436479012411
));
#237 = CARTESIAN_POINT('',(9.602262657637,-7.117854231569,2.483478136186
));
#238 = CARTESIAN_POINT('',(9.625927627915,-7.153787091821,2.531065337305
));
#239 = CARTESIAN_POINT('',(9.686005944722,-7.226417242558,2.636006108012
));
#240 = CARTESIAN_POINT('',(9.72389781712,-7.26170460007,2.693213288646)
);
#241 = CARTESIAN_POINT('',(9.766657923844,-7.292386728836,2.749812459457
));
#242 = CARTESIAN_POINT('',(9.814122080752,-7.317881653969,2.804963063945
));
#243 = CARTESIAN_POINT('',(9.866020750313,-7.337337239808,2.857442140583
));
#244 = CARTESIAN_POINT('',(9.9218816088,-7.349704692071,2.905625342634)
);
#245 = CARTESIAN_POINT('',(9.980877942369,-7.353703551072,2.947412625808
));
#246 = CARTESIAN_POINT('',(10.084404425953,-7.344103946156,
3.003846427533));
#247 = CARTESIAN_POINT('',(10.128174788297,-7.335320616338,
3.022902321454));
#248 = CARTESIAN_POINT('',(10.171723461357,-7.321312283864,
3.036467747001));
#249 = CARTESIAN_POINT('',(10.213862800681,-7.302042147247,
3.043741035536));
#250 = CARTESIAN_POINT('',(10.253468950649,-7.277859304697,3.04444943009
));
#251 = CARTESIAN_POINT('',(10.289601631973,-7.24945324722,3.038846352126
));
#252 = CARTESIAN_POINT('',(10.321601830642,-7.217769797452,
3.027615672219));
#253 = CARTESIAN_POINT('',(10.375067538961,-7.152018163156,2.99679052395
));
#254 = CARTESIAN_POINT('',(10.397135564131,-7.118080658474,
2.977669155353));
#255 = CARTESIAN_POINT('',(10.415248058117,-7.082697025434,
2.955009122946));
#256 = CARTESIAN_POINT('',(10.429451362588,-7.046411661077,
2.929448940689));
#257 = CARTESIAN_POINT('',(10.439870731043,-7.00967867866,2.901551358708
));
#258 = CARTESIAN_POINT('',(10.44666644701,-6.972858706786,2.871779401344
));
#259 = CARTESIAN_POINT('',(10.45,-6.936229547656,2.840498552665));
#260 = CARTESIAN_POINT('',(10.45,-6.9,2.807975816472));
#261 = SURFACE_OF_REVOLUTION('',#262,#275);
#262 = B_SPLINE_CURVE_WITH_KNOTS('',6,(#263,#264,#265,#266,#267,#268,
#269,#270,#271,#272,#273,#274),.UNSPECIFIED.,.F.,.F.,(7,5,7),(
0.E+000,0.785398163397,1.570796326795),.UNSPECIFIED.);
#263 = CARTESIAN_POINT('',(15.75,-3.589024390244,10.78));
#264 = CARTESIAN_POINT('',(15.75,-4.316954395344,10.78));
#265 = CARTESIAN_POINT('',(15.635657470698,-5.044883184601,10.78));
#266 = CARTESIAN_POINT('',(15.406969433272,-5.750367994783,10.78));
#267 = CARTESIAN_POINT('',(15.069823202008,-6.410927950128,10.78));
#268 = CARTESIAN_POINT('',(14.635952196751,-7.00650371108,10.78));
#269 = CARTESIAN_POINT('',(13.60650371108,-8.035952196751,10.78));
#270 = CARTESIAN_POINT('',(13.010927950128,-8.469823202008,10.78));
#271 = CARTESIAN_POINT('',(12.350367994783,-8.806969433271,10.78));
#272 = CARTESIAN_POINT('',(11.644883184601,-9.035657470698,10.78));
#273 = CARTESIAN_POINT('',(10.916954395344,-9.15,10.78));
#274 = CARTESIAN_POINT('',(10.189024390244,-9.15,10.78));
#275 = AXIS1_PLACEMENT('',#276,#277);
#276 = CARTESIAN_POINT('',(5.,-3.589024390244,10.78));
#277 = DIRECTION('',(0.E+000,-1.,0.E+000));
#278 = ADVANCED_FACE('',(#279),#282,.F.);
#279 = FACE_BOUND('',#280,.F.);
#280 = EDGE_LOOP('',(#281));
#281 = ORIENTED_EDGE('',*,*,#64,.T.);
#282 = PLANE('',#283);
#283 = AXIS2_PLACEMENT_3D('',#284,#285,#286);
#284 = CARTESIAN_POINT('',(5.,2.25,10.78));
#285 = DIRECTION('',(-0.E+000,-1.,-0.E+000));
#286 = DIRECTION('',(0.E+000,0.E+000,-1.));
#287 = ADVANCED_FACE('',(#288),#308,.T.);
#288 = FACE_BOUND('',#289,.T.);
#289 = EDGE_LOOP('',(#290,#291,#299,#306,#307));
#290 = ORIENTED_EDGE('',*,*,#98,.T.);
#291 = ORIENTED_EDGE('',*,*,#292,.T.);
#292 = EDGE_CURVE('',#75,#293,#295,.T.);
#293 = VERTEX_POINT('',#294);
#294 = CARTESIAN_POINT('',(0.45,0.E+000,-2.82));
#295 = LINE('',#296,#297);
#296 = CARTESIAN_POINT('',(0.45,0.E+000,10.78));
#297 = VECTOR('',#298,1.);
#298 = DIRECTION('',(-0.E+000,-0.E+000,-1.));
#299 = ORIENTED_EDGE('',*,*,#300,.T.);
#300 = EDGE_CURVE('',#293,#293,#301,.T.);
#301 = CIRCLE('',#302,0.45);
#302 = AXIS2_PLACEMENT_3D('',#303,#304,#305);
#303 = CARTESIAN_POINT('',(0.E+000,0.E+000,-2.82));
#304 = DIRECTION('',(0.E+000,0.E+000,1.));
#305 = DIRECTION('',(1.,0.E+000,0.E+000));
#306 = ORIENTED_EDGE('',*,*,#292,.F.);
#307 = ORIENTED_EDGE('',*,*,#74,.T.);
#308 = CYLINDRICAL_SURFACE('',#309,0.45);
#309 = AXIS2_PLACEMENT_3D('',#310,#311,#312);
#310 = CARTESIAN_POINT('',(0.E+000,0.E+000,10.78));
#311 = DIRECTION('',(0.E+000,0.E+000,1.));
#312 = DIRECTION('',(1.,0.E+000,0.E+000));
#313 = ADVANCED_FACE('',(#314),#317,.T.);
#314 = FACE_BOUND('',#315,.T.);
#315 = EDGE_LOOP('',(#316));
#316 = ORIENTED_EDGE('',*,*,#182,.T.);
#317 = PLANE('',#318);
#318 = AXIS2_PLACEMENT_3D('',#319,#320,#321);
#319 = CARTESIAN_POINT('',(5.,-9.15,10.78));
#320 = DIRECTION('',(-0.E+000,-1.,-0.E+000));
#321 = DIRECTION('',(0.E+000,0.E+000,-1.));
#322 = ADVANCED_FACE('',(#323),#343,.T.);
#323 = FACE_BOUND('',#324,.T.);
#324 = EDGE_LOOP('',(#325,#326,#334,#341,#342));
#325 = ORIENTED_EDGE('',*,*,#192,.F.);
#326 = ORIENTED_EDGE('',*,*,#327,.T.);
#327 = EDGE_CURVE('',#193,#328,#330,.T.);
#328 = VERTEX_POINT('',#329);
#329 = CARTESIAN_POINT('',(10.45,-6.9,-2.82));
#330 = LINE('',#331,#332);
#331 = CARTESIAN_POINT('',(10.45,-6.9,10.78));
#332 = VECTOR('',#333,1.);
#333 = DIRECTION('',(-0.E+000,-0.E+000,-1.));
#334 = ORIENTED_EDGE('',*,*,#335,.T.);
#335 = EDGE_CURVE('',#328,#328,#336,.T.);
#336 = CIRCLE('',#337,0.45);
#337 = AXIS2_PLACEMENT_3D('',#338,#339,#340);
#338 = CARTESIAN_POINT('',(10.,-6.9,-2.82));
#339 = DIRECTION('',(0.E+000,0.E+000,1.));
#340 = DIRECTION('',(1.,0.E+000,0.E+000));
#341 = ORIENTED_EDGE('',*,*,#327,.F.);
#342 = ORIENTED_EDGE('',*,*,#222,.F.);
#343 = CYLINDRICAL_SURFACE('',#344,0.45);
#344 = AXIS2_PLACEMENT_3D('',#345,#346,#347);
#345 = CARTESIAN_POINT('',(10.,-6.9,10.78));
#346 = DIRECTION('',(0.E+000,0.E+000,1.));
#347 = DIRECTION('',(1.,0.E+000,0.E+000));
#348 = ADVANCED_FACE('',(#349),#369,.T.);
#349 = FACE_BOUND('',#350,.F.);
#350 = EDGE_LOOP('',(#351,#360,#361,#362));
#351 = ORIENTED_EDGE('',*,*,#352,.F.);
#352 = EDGE_CURVE('',#293,#353,#355,.T.);
#353 = VERTEX_POINT('',#354);
#354 = CARTESIAN_POINT('',(0.27,0.E+000,-3.));
#355 = CIRCLE('',#356,0.18);
#356 = AXIS2_PLACEMENT_3D('',#357,#358,#359);
#357 = CARTESIAN_POINT('',(0.27,0.E+000,-2.82));
#358 = DIRECTION('',(-0.E+000,1.,0.E+000));
#359 = DIRECTION('',(1.,0.E+000,0.E+000));
#360 = ORIENTED_EDGE('',*,*,#300,.T.);
#361 = ORIENTED_EDGE('',*,*,#352,.T.);
#362 = ORIENTED_EDGE('',*,*,#363,.F.);
#363 = EDGE_CURVE('',#353,#353,#364,.T.);
#364 = CIRCLE('',#365,0.27);
#365 = AXIS2_PLACEMENT_3D('',#366,#367,#368);
#366 = CARTESIAN_POINT('',(0.E+000,0.E+000,-3.));
#367 = DIRECTION('',(0.E+000,0.E+000,1.));
#368 = DIRECTION('',(1.,0.E+000,0.E+000));
#369 = TOROIDAL_SURFACE('',#370,0.27,0.18);
#370 = AXIS2_PLACEMENT_3D('',#371,#372,#373);
#371 = CARTESIAN_POINT('',(0.E+000,0.E+000,-2.82));
#372 = DIRECTION('',(-0.E+000,-0.E+000,-1.));
#373 = DIRECTION('',(1.,0.E+000,0.E+000));
#374 = ADVANCED_FACE('',(#375),#395,.T.);
#375 = FACE_BOUND('',#376,.F.);
#376 = EDGE_LOOP('',(#377,#386,#387,#388));
#377 = ORIENTED_EDGE('',*,*,#378,.F.);
#378 = EDGE_CURVE('',#328,#379,#381,.T.);
#379 = VERTEX_POINT('',#380);
#380 = CARTESIAN_POINT('',(10.27,-6.9,-3.));
#381 = CIRCLE('',#382,0.18);
#382 = AXIS2_PLACEMENT_3D('',#383,#384,#385);
#383 = CARTESIAN_POINT('',(10.27,-6.9,-2.82));
#384 = DIRECTION('',(-0.E+000,1.,0.E+000));
#385 = DIRECTION('',(1.,0.E+000,0.E+000));
#386 = ORIENTED_EDGE('',*,*,#335,.T.);
#387 = ORIENTED_EDGE('',*,*,#378,.T.);
#388 = ORIENTED_EDGE('',*,*,#389,.F.);
#389 = EDGE_CURVE('',#379,#379,#390,.T.);
#390 = CIRCLE('',#391,0.27);
#391 = AXIS2_PLACEMENT_3D('',#392,#393,#394);
#392 = CARTESIAN_POINT('',(10.,-6.9,-3.));
#393 = DIRECTION('',(0.E+000,0.E+000,1.));
#394 = DIRECTION('',(1.,0.E+000,0.E+000));
#395 = TOROIDAL_SURFACE('',#396,0.27,0.18);
#396 = AXIS2_PLACEMENT_3D('',#397,#398,#399);
#397 = CARTESIAN_POINT('',(10.,-6.9,-2.82));
#398 = DIRECTION('',(-0.E+000,-0.E+000,-1.));
#399 = DIRECTION('',(1.,0.E+000,0.E+000));
#400 = ADVANCED_FACE('',(#401),#404,.F.);
#401 = FACE_BOUND('',#402,.F.);
#402 = EDGE_LOOP('',(#403));
#403 = ORIENTED_EDGE('',*,*,#363,.T.);
#404 = PLANE('',#405);
#405 = AXIS2_PLACEMENT_3D('',#406,#407,#408);
#406 = CARTESIAN_POINT('',(-1.18701400394E-017,2.911085817041E-017,-3.)
);
#407 = DIRECTION('',(0.E+000,0.E+000,1.));
#408 = DIRECTION('',(1.,0.E+000,0.E+000));
#409 = ADVANCED_FACE('',(#410),#413,.F.);
#410 = FACE_BOUND('',#411,.F.);
#411 = EDGE_LOOP('',(#412));
#412 = ORIENTED_EDGE('',*,*,#389,.T.);
#413 = PLANE('',#414);
#414 = AXIS2_PLACEMENT_3D('',#415,#416,#417);
#415 = CARTESIAN_POINT('',(10.,-6.9,-3.));
#416 = DIRECTION('',(0.E+000,0.E+000,1.));
#417 = DIRECTION('',(1.,0.E+000,0.E+000));
#418 = ( GEOMETRIC_REPRESENTATION_CONTEXT(3)
GLOBAL_UNCERTAINTY_ASSIGNED_CONTEXT((#422)) GLOBAL_UNIT_ASSIGNED_CONTEXT
((#419,#420,#421)) REPRESENTATION_CONTEXT('Context #1',
'3D Context with UNIT and UNCERTAINTY') );
#419 = ( LENGTH_UNIT() NAMED_UNIT(*) SI_UNIT(.MILLI.,.METRE.) );
#420 = ( NAMED_UNIT(*) PLANE_ANGLE_UNIT() SI_UNIT($,.RADIAN.) );
#421 = ( NAMED_UNIT(*) SI_UNIT($,.STERADIAN.) SOLID_ANGLE_UNIT() );
#422 = UNCERTAINTY_MEASURE_WITH_UNIT(LENGTH_MEASURE(1.E-007),#419,
'distance_accuracy_value','confusion accuracy');
#423 = PRODUCT_RELATED_PRODUCT_CATEGORY('part',$,(#7));
#424 = MECHANICAL_DESIGN_GEOMETRIC_PRESENTATION_REPRESENTATION('',(#425,
#433,#440,#447,#454,#462,#469,#476,#483,#490,#497),#418);
#425 = STYLED_ITEM('color',(#426),#17);
#426 = PRESENTATION_STYLE_ASSIGNMENT((#427));
#427 = SURFACE_STYLE_USAGE(.BOTH.,#428);
#428 = SURFACE_SIDE_STYLE('',(#429));
#429 = SURFACE_STYLE_FILL_AREA(#430);
#430 = FILL_AREA_STYLE('',(#431));
#431 = FILL_AREA_STYLE_COLOUR('',#432);
#432 = COLOUR_RGB('',0.136999994516,0.402000010014,0.726999998093);
#433 = STYLED_ITEM('color',(#434),#50);
#434 = PRESENTATION_STYLE_ASSIGNMENT((#435));
#435 = SURFACE_STYLE_USAGE(.BOTH.,#436);
#436 = SURFACE_SIDE_STYLE('',(#437));
#437 = SURFACE_STYLE_FILL_AREA(#438);
#438 = FILL_AREA_STYLE('',(#439));
#439 = FILL_AREA_STYLE_COLOUR('',#432);
#440 = STYLED_ITEM('color',(#441),#168);
#441 = PRESENTATION_STYLE_ASSIGNMENT((#442));
#442 = SURFACE_STYLE_USAGE(.BOTH.,#443);
#443 = SURFACE_SIDE_STYLE('',(#444));
#444 = SURFACE_STYLE_FILL_AREA(#445);
#445 = FILL_AREA_STYLE('',(#446));
#446 = FILL_AREA_STYLE_COLOUR('',#432);
#447 = STYLED_ITEM('color',(#448),#278);
#448 = PRESENTATION_STYLE_ASSIGNMENT((#449));
#449 = SURFACE_STYLE_USAGE(.BOTH.,#450);
#450 = SURFACE_SIDE_STYLE('',(#451));
#451 = SURFACE_STYLE_FILL_AREA(#452);
#452 = FILL_AREA_STYLE('',(#453));
#453 = FILL_AREA_STYLE_COLOUR('',#432);
#454 = STYLED_ITEM('color',(#455),#287);
#455 = PRESENTATION_STYLE_ASSIGNMENT((#456));
#456 = SURFACE_STYLE_USAGE(.BOTH.,#457);
#457 = SURFACE_SIDE_STYLE('',(#458));
#458 = SURFACE_STYLE_FILL_AREA(#459);
#459 = FILL_AREA_STYLE('',(#460));
#460 = FILL_AREA_STYLE_COLOUR('',#461);
#461 = COLOUR_RGB('',0.824000000954,0.819999992847,0.78100001812);
#462 = STYLED_ITEM('color',(#463),#313);
#463 = PRESENTATION_STYLE_ASSIGNMENT((#464));
#464 = SURFACE_STYLE_USAGE(.BOTH.,#465);
#465 = SURFACE_SIDE_STYLE('',(#466));
#466 = SURFACE_STYLE_FILL_AREA(#467);
#467 = FILL_AREA_STYLE('',(#468));
#468 = FILL_AREA_STYLE_COLOUR('',#432);
#469 = STYLED_ITEM('color',(#470),#322);
#470 = PRESENTATION_STYLE_ASSIGNMENT((#471));
#471 = SURFACE_STYLE_USAGE(.BOTH.,#472);
#472 = SURFACE_SIDE_STYLE('',(#473));
#473 = SURFACE_STYLE_FILL_AREA(#474);
#474 = FILL_AREA_STYLE('',(#475));
#475 = FILL_AREA_STYLE_COLOUR('',#461);
#476 = STYLED_ITEM('color',(#477),#348);
#477 = PRESENTATION_STYLE_ASSIGNMENT((#478));
#478 = SURFACE_STYLE_USAGE(.BOTH.,#479);
#479 = SURFACE_SIDE_STYLE('',(#480));
#480 = SURFACE_STYLE_FILL_AREA(#481);
#481 = FILL_AREA_STYLE('',(#482));
#482 = FILL_AREA_STYLE_COLOUR('',#461);
#483 = STYLED_ITEM('color',(#484),#374);
#484 = PRESENTATION_STYLE_ASSIGNMENT((#485));
#485 = SURFACE_STYLE_USAGE(.BOTH.,#486);
#486 = SURFACE_SIDE_STYLE('',(#487));
#487 = SURFACE_STYLE_FILL_AREA(#488);
#488 = FILL_AREA_STYLE('',(#489));
#489 = FILL_AREA_STYLE_COLOUR('',#461);
#490 = STYLED_ITEM('color',(#491),#400);
#491 = PRESENTATION_STYLE_ASSIGNMENT((#492));
#492 = SURFACE_STYLE_USAGE(.BOTH.,#493);
#493 = SURFACE_SIDE_STYLE('',(#494));
#494 = SURFACE_STYLE_FILL_AREA(#495);
#495 = FILL_AREA_STYLE('',(#496));
#496 = FILL_AREA_STYLE_COLOUR('',#461);
#497 = STYLED_ITEM('color',(#498),#409);
#498 = PRESENTATION_STYLE_ASSIGNMENT((#499));
#499 = SURFACE_STYLE_USAGE(.BOTH.,#500);
#500 = SURFACE_SIDE_STYLE('',(#501));
#501 = SURFACE_STYLE_FILL_AREA(#502);
#502 = FILL_AREA_STYLE('',(#503));
#503 = FILL_AREA_STYLE_COLOUR('',#461);
ENDSEC;
END-ISO-10303-21;
