ISO-10303-21;
HEADER;
/* RV_Disc_D16.5mm_W6.7mm_P7.5mm.step 3D STEP model for use in ECAD systems
 * Copyright (C) 2019, kicad StepUp
 * 
 * This work is licensed under the [Creative Commons CC-BY-SA 4.0 License](https://creativecommons.org/licenses/by-sa/4.0/legalcode), 
 * with the following exception:
 * To the extent that the creation of electronic designs that use 'Licensed Material' can be considered to be 'Adapted Material', 
 * then the copyright holder waives article 3 of the license with respect to these designs and any generated files which use data provided 
 * as part of the 'Licensed Material'.
 * You are free to use the library data in your own projects without the obligation to share your project files under this or any other license agreement.
 * However, if you wish to redistribute these libraries, or parts thereof (including in modified form) as a collection then the exception above does not apply. 
 * Please refer to https://github.com/KiCad/kicad-packages3D/blob/master/LICENSE.md for further clarification of the exception.
 * Disclaimer of Warranties and Limitation of Liability.
 * These libraries are provided in the hope that they will be useful, but are provided without warranty of any kind, express or implied.
 * *USE 3D CAD DATA AT YOUR OWN RISK*
 * *DO NOT RELY UPON ANY INFORMATION FOUND HERE WITHOUT INDEPENDENT VERIFICATION.*
 * 
 * 
 * 
 * 
 * 
 * 
 * 
 * 
 * 
 * 
 * 
 * 
 * 
 * 
 * 
 * 
 * 
 * 
 * 
 * 
 * 
 * 
 * 
 * 
 * 
 * 
 * 
 * 
 * 
 * 
 * 
 * 
 * 
 * 
 * 
 * 
 * 
 * 
 * 
 * 
 * 
 * 
 * 
 */

FILE_DESCRIPTION(
/* description */ ('model of RV_Disc_D16.5mm_W6.7mm_P7.5mm'),
/* implementation_level */ '2;1');

FILE_NAME(
/* name */ 'RV_Disc_D16.5mm_W6.7mm_P7.5mm.step',
/* time_stamp */ '2019-11-14T12:30:24',
/* author */ ('kicad StepUp','ksu'),
/* organization */ ('FreeCAD'),
/* preprocessor_version */ 'OCC',
/* originating_system */ 'kicad StepUp',
/* authorisation */ '');

FILE_SCHEMA(('AUTOMOTIVE_DESIGN { 1 0 10303 214 1 1 1 1 }'));
ENDSEC;

DATA;
#1 = APPLICATION_PROTOCOL_DEFINITION('international standard',
'automotive_design',2000,#2);
#2 = APPLICATION_CONTEXT(
'core data for automotive mechanical design processes');
#3 = SHAPE_DEFINITION_REPRESENTATION(#4,#10);
#4 = PRODUCT_DEFINITION_SHAPE('','',#5);
#5 = PRODUCT_DEFINITION('design','',#6,#9);
#6 = PRODUCT_DEFINITION_FORMATION('','',#7);
#7 = PRODUCT('RV_Disc_D165mm_W67mm_P75mm','RV_Disc_D165mm_W67mm_P75mm',
'',(#8));
#8 = PRODUCT_CONTEXT('',#2,'mechanical');
#9 = PRODUCT_DEFINITION_CONTEXT('part definition',#2,'design');
#10 = ADVANCED_BREP_SHAPE_REPRESENTATION('',(#11,#15),#384);
#11 = AXIS2_PLACEMENT_3D('',#12,#13,#14);
#12 = CARTESIAN_POINT('',(0.,0.,0.));
#13 = DIRECTION('',(0.,0.,1.));
#14 = DIRECTION('',(1.,0.,-0.));
#15 = MANIFOLD_SOLID_BREP('',#16);
#16 = CLOSED_SHELL('',(#17,#50,#147,#244,#253,#279,#288,#314,#340,#366,
#375));
#17 = ADVANCED_FACE('',(#18),#45,.T.);
#18 = FACE_BOUND('',#19,.F.);
#19 = EDGE_LOOP('',(#20,#30,#37,#38));
#20 = ORIENTED_EDGE('',*,*,#21,.T.);
#21 = EDGE_CURVE('',#22,#24,#26,.T.);
#22 = VERTEX_POINT('',#23);
#23 = CARTESIAN_POINT('',(12.,-0.568292682927,8.28));
#24 = VERTEX_POINT('',#25);
#25 = CARTESIAN_POINT('',(12.,-0.731707317073,8.28));
#26 = LINE('',#27,#28);
#27 = CARTESIAN_POINT('',(12.,2.7,8.28));
#28 = VECTOR('',#29,1.);
#29 = DIRECTION('',(0.,-1.,0.));
#30 = ORIENTED_EDGE('',*,*,#31,.T.);
#31 = EDGE_CURVE('',#24,#24,#32,.T.);
#32 = CIRCLE('',#33,8.25);
#33 = AXIS2_PLACEMENT_3D('',#34,#35,#36);
#34 = CARTESIAN_POINT('',(3.75,-0.731707317073,8.28));
#35 = DIRECTION('',(0.,-1.,0.));
#36 = DIRECTION('',(1.,0.,0.));
#37 = ORIENTED_EDGE('',*,*,#21,.F.);
#38 = ORIENTED_EDGE('',*,*,#39,.F.);
#39 = EDGE_CURVE('',#22,#22,#40,.T.);
#40 = CIRCLE('',#41,8.25);
#41 = AXIS2_PLACEMENT_3D('',#42,#43,#44);
#42 = CARTESIAN_POINT('',(3.75,-0.568292682927,8.28));
#43 = DIRECTION('',(0.,-1.,0.));
#44 = DIRECTION('',(1.,0.,0.));
#45 = CYLINDRICAL_SURFACE('',#46,8.25);
#46 = AXIS2_PLACEMENT_3D('',#47,#48,#49);
#47 = CARTESIAN_POINT('',(3.75,2.7,8.28));
#48 = DIRECTION('',(0.,1.,0.));
#49 = DIRECTION('',(1.,0.,0.));
#50 = ADVANCED_FACE('',(#51,#71),#142,.T.);
#51 = FACE_BOUND('',#52,.F.);
#52 = EDGE_LOOP('',(#53,#54,#63,#70));
#53 = ORIENTED_EDGE('',*,*,#39,.T.);
#54 = ORIENTED_EDGE('',*,*,#55,.T.);
#55 = EDGE_CURVE('',#22,#56,#58,.T.);
#56 = VERTEX_POINT('',#57);
#57 = CARTESIAN_POINT('',(8.731707317073,2.7,8.28));
#58 = CIRCLE('',#59,3.268292682927);
#59 = AXIS2_PLACEMENT_3D('',#60,#61,#62);
#60 = CARTESIAN_POINT('',(8.731707317073,-0.568292682927,8.28));
#61 = DIRECTION('',(0.,0.,1.));
#62 = DIRECTION('',(1.,0.,0.));
#63 = ORIENTED_EDGE('',*,*,#64,.F.);
#64 = EDGE_CURVE('',#56,#56,#65,.T.);
#65 = CIRCLE('',#66,4.981707317073);
#66 = AXIS2_PLACEMENT_3D('',#67,#68,#69);
#67 = CARTESIAN_POINT('',(3.75,2.7,8.28));
#68 = DIRECTION('',(0.,-1.,0.));
#69 = DIRECTION('',(1.,0.,0.));
#70 = ORIENTED_EDGE('',*,*,#55,.F.);
#71 = FACE_BOUND('',#72,.F.);
#72 = EDGE_LOOP('',(#73,#107));
#73 = ORIENTED_EDGE('',*,*,#74,.T.);
#74 = EDGE_CURVE('',#75,#77,#79,.T.);
#75 = VERTEX_POINT('',#76);
#76 = CARTESIAN_POINT('',(0.405,0.,0.793046516336));
#77 = VERTEX_POINT('',#78);
#78 = CARTESIAN_POINT('',(-0.403151072583,-3.865504721914E-02,
1.201659948439));
#79 = B_SPLINE_CURVE_WITH_KNOTS('',6,(#80,#81,#82,#83,#84,#85,#86,#87,
#88,#89,#90,#91,#92,#93,#94,#95,#96,#97,#98,#99,#100,#101,#102,#103,
#104,#105,#106),.UNSPECIFIED.,.F.,.F.,(7,5,5,5,5,7),(0.,
8.707360829444E-02,0.318120126655,0.62375581724,0.86966814369,1.),
.UNSPECIFIED.);
#80 = CARTESIAN_POINT('',(0.405,-5.551115123126E-17,0.793046516336));
#81 = CARTESIAN_POINT('',(0.405,-1.812662047148E-02,0.789540978951));
#82 = CARTESIAN_POINT('',(0.404026450036,-3.628444503224E-02,
0.786603051308));
#83 = CARTESIAN_POINT('',(0.402073046885,-5.440297942885E-02,
0.784248514108));
#84 = CARTESIAN_POINT('',(0.399141216529,-7.241026323048E-02,
0.782487607491));
#85 = CARTESIAN_POINT('',(0.395240461806,-9.023418215495E-02,
0.781324783713));
#86 = CARTESIAN_POINT('',(0.377514770704,-0.154424043202,0.779255740854)
);
#87 = CARTESIAN_POINT('',(0.35794123572,-0.199267528949,0.781952337919)
);
#88 = CARTESIAN_POINT('',(0.332002903982,-0.240977110125,0.788825812117)
);
#89 = CARTESIAN_POINT('',(0.300449383272,-0.278374451647,0.799532097181)
);
#90 = CARTESIAN_POINT('',(0.264267392383,-0.310587656683,0.81354153817)
);
#91 = CARTESIAN_POINT('',(0.172025717091,-0.37204374236,0.852370366702)
);
#92 = CARTESIAN_POINT('',(0.113305197863,-0.396980069065,0.879225498334)
);
#93 = CARTESIAN_POINT('',(5.084423701598E-02,-0.410586373943,
0.909482188456));
#94 = CARTESIAN_POINT('',(-1.272316831373E-02,-0.412453379486,
0.941679893719));
#95 = CARTESIAN_POINT('',(-7.489158845406E-02,-0.402799628818,
0.974586368683));
#96 = CARTESIAN_POINT('',(-0.180363954236,-0.366024734476,1.033277761268
));
#97 = CARTESIAN_POINT('',(-0.224982061905,-0.34268489368,1.05919888556)
);
#98 = CARTESIAN_POINT('',(-0.265977653434,-0.312818465598,1.084301265171
));
#99 = CARTESIAN_POINT('',(-0.302210373594,-0.277092223447,1.108073197365
));
#100 = CARTESIAN_POINT('',(-0.332667770043,-0.23643637572,1.13004241598)
);
#101 = CARTESIAN_POINT('',(-0.369262855857,-0.168477941559,
1.160208213653));
#102 = CARTESIAN_POINT('',(-0.380102774383,-0.14388030754,1.170024912306
));
#103 = CARTESIAN_POINT('',(-0.388992259016,-0.118399787742,
1.179141969715));
#104 = CARTESIAN_POINT('',(-0.395837564823,-9.222862586688E-02,
1.187494424618));
#105 = CARTESIAN_POINT('',(-0.400570013097,-6.557409077919E-02,
1.195020006259));
#106 = CARTESIAN_POINT('',(-0.403151072583,-3.865504721914E-02,
1.201659948439));
#107 = ORIENTED_EDGE('',*,*,#108,.T.);
#108 = EDGE_CURVE('',#77,#75,#109,.T.);
#109 = B_SPLINE_CURVE_WITH_KNOTS('',7,(#110,#111,#112,#113,#114,#115,
#116,#117,#118,#119,#120,#121,#122,#123,#124,#125,#126,#127,#128,
#129,#130,#131,#132,#133,#134,#135,#136,#137,#138,#139,#140,#141),
.UNSPECIFIED.,.F.,.F.,(8,6,6,6,6,8),(0.,0.231315025577,0.376378611917,
0.662979083905,0.859720647961,1.),.UNSPECIFIED.);
#110 = CARTESIAN_POINT('',(-0.403151072583,-3.865504721914E-02,
1.201659948439));
#111 = CARTESIAN_POINT('',(-0.407330433823,4.933412448152E-03,
1.212411625083));
#112 = CARTESIAN_POINT('',(-0.406026895175,4.920970234118E-02,
1.220909072281));
#113 = CARTESIAN_POINT('',(-0.399084881039,9.331410723629E-02,
1.226919988845));
#114 = CARTESIAN_POINT('',(-0.386527941566,0.136345082861,1.230244136508
));
#115 = CARTESIAN_POINT('',(-0.368575779141,0.177402543706,1.230722017301
));
#116 = CARTESIAN_POINT('',(-0.345647814482,0.215643795815,1.228263079198
));
#117 = CARTESIAN_POINT('',(-0.301236197313,0.272118591597,1.219526017825
));
#118 = CARTESIAN_POINT('',(-0.282398525973,0.292499786318,1.21501324955)
);
#119 = CARTESIAN_POINT('',(-0.261988163704,0.311319288778,1.209360223445
));
#120 = CARTESIAN_POINT('',(-0.240175835315,0.328427079691,1.202588668502
));
#121 = CARTESIAN_POINT('',(-0.217149149846,0.343700535676,1.194736928323
));
#122 = CARTESIAN_POINT('',(-0.193106645389,0.357045434502,1.185859924969
));
#123 = CARTESIAN_POINT('',(-0.119146466539,0.390824040375,1.156606519217
));
#124 = CARTESIAN_POINT('',(-6.686663925944E-02,0.40547174631,
1.133459057139));
#125 = CARTESIAN_POINT('',(-1.296707067468E-02,0.411841446512,
1.107128227441));
#126 = CARTESIAN_POINT('',(4.09920595748E-02,0.409889911754,
1.078362058091));
#127 = CARTESIAN_POINT('',(9.361654948862E-02,0.399886393358,
1.048036292938));
#128 = CARTESIAN_POINT('',(0.143659250774,0.382281660365,1.017064807524)
);
#129 = CARTESIAN_POINT('',(0.221795105982,0.340776890818,0.965282827995)
);
#130 = CARTESIAN_POINT('',(0.251847466079,0.320582961683,0.944333331116)
);
#131 = CARTESIAN_POINT('',(0.279781909339,0.297283571203,0.923807455443)
);
#132 = CARTESIAN_POINT('',(0.305246613902,0.271110886909,0.90400853672)
);
#133 = CARTESIAN_POINT('',(0.32790351895,0.242343717914,0.88524159639));
#134 = CARTESIAN_POINT('',(0.34743836937,0.211315407322,0.867801974497)
);
#135 = CARTESIAN_POINT('',(0.375090488578,0.154966764785,0.840662202057)
);
#136 = CARTESIAN_POINT('',(0.384875193292,0.130564579479,0.830177574195)
);
#137 = CARTESIAN_POINT('',(0.392835878312,0.105359917577,0.820603548517)
);
#138 = CARTESIAN_POINT('',(0.398885834735,7.951580463664E-02,
0.812031497243));
#139 = CARTESIAN_POINT('',(0.402955946079,5.321088519612E-02,
0.804541427412));
#140 = CARTESIAN_POINT('',(0.405,2.663753946222E-02,0.798197994549));
#141 = CARTESIAN_POINT('',(0.405,-4.857225732735E-17,0.793046516336));
#142 = TOROIDAL_SURFACE('',#143,4.981707317073,3.268292682927);
#143 = AXIS2_PLACEMENT_3D('',#144,#145,#146);
#144 = CARTESIAN_POINT('',(3.75,-0.568292682927,8.28));
#145 = DIRECTION('',(0.,1.,0.));
#146 = DIRECTION('',(1.,0.,0.));
#147 = ADVANCED_FACE('',(#148,#168),#239,.T.);
#148 = FACE_BOUND('',#149,.T.);
#149 = EDGE_LOOP('',(#150,#151,#160,#167));
#150 = ORIENTED_EDGE('',*,*,#31,.T.);
#151 = ORIENTED_EDGE('',*,*,#152,.T.);
#152 = EDGE_CURVE('',#24,#153,#155,.T.);
#153 = VERTEX_POINT('',#154);
#154 = CARTESIAN_POINT('',(8.731707317073,-4.,8.28));
#155 = CIRCLE('',#156,3.268292682927);
#156 = AXIS2_PLACEMENT_3D('',#157,#158,#159);
#157 = CARTESIAN_POINT('',(8.731707317073,-0.731707317073,8.28));
#158 = DIRECTION('',(0.,0.,-1.));
#159 = DIRECTION('',(1.,0.,0.));
#160 = ORIENTED_EDGE('',*,*,#161,.F.);
#161 = EDGE_CURVE('',#153,#153,#162,.T.);
#162 = CIRCLE('',#163,4.981707317073);
#163 = AXIS2_PLACEMENT_3D('',#164,#165,#166);
#164 = CARTESIAN_POINT('',(3.75,-4.,8.28));
#165 = DIRECTION('',(0.,-1.,0.));
#166 = DIRECTION('',(1.,0.,0.));
#167 = ORIENTED_EDGE('',*,*,#152,.F.);
#168 = FACE_BOUND('',#169,.T.);
#169 = EDGE_LOOP('',(#170,#199));
#170 = ORIENTED_EDGE('',*,*,#171,.T.);
#171 = EDGE_CURVE('',#172,#174,#176,.T.);
#172 = VERTEX_POINT('',#173);
#173 = CARTESIAN_POINT('',(7.905,-1.3,1.210383852956));
#174 = VERTEX_POINT('',#175);
#175 = CARTESIAN_POINT('',(7.161185649439,-1.078122024857,0.788479632045
));
#176 = B_SPLINE_CURVE_WITH_KNOTS('',6,(#177,#178,#179,#180,#181,#182,
#183,#184,#185,#186,#187,#188,#189,#190,#191,#192,#193,#194,#195,
#196,#197,#198),.UNSPECIFIED.,.F.,.F.,(7,5,5,5,7),(0.,0.171633736036
,0.497609774211,0.816307170377,1.),.UNSPECIFIED.);
#177 = CARTESIAN_POINT('',(7.905,-1.3,1.210383852956));
#178 = CARTESIAN_POINT('',(7.905,-1.269871749647,1.204213344187));
#179 = CARTESIAN_POINT('',(7.902310469782,-1.239809128241,1.196881964422
));
#180 = CARTESIAN_POINT('',(7.896953477173,-1.210121514236,1.188465806811
));
#181 = CARTESIAN_POINT('',(7.889000729051,-1.181104737303,1.17904792814)
);
#182 = CARTESIAN_POINT('',(7.878565095398,-1.153034164516,1.168716217394
));
#183 = CARTESIAN_POINT('',(7.841533035672,-1.075112721507,1.136375176457
));
#184 = CARTESIAN_POINT('',(7.808842542324,-1.028374835348,1.112219330455
));
#185 = CARTESIAN_POINT('',(7.768716907307,-0.987644146604,1.085717151602
));
#186 = CARTESIAN_POINT('',(7.722567446789,-0.954256283251,1.057524176044
));
#187 = CARTESIAN_POINT('',(7.672002387976,-0.929130816511,1.028356730271
));
#188 = CARTESIAN_POINT('',(7.56666499483,-0.896828210514,0.970355859667)
);
#189 = CARTESIAN_POINT('',(7.512008283674,-0.889261609047,0.94152734626)
);
#190 = CARTESIAN_POINT('',(7.456367635093,-0.890590776456,0.913299891976
));
#191 = CARTESIAN_POINT('',(7.401448225547,-0.900958774514,0.886517977827
));
#192 = CARTESIAN_POINT('',(7.349022745646,-0.920131283643,0.862148526503
));
#193 = CARTESIAN_POINT('',(7.272983791945,-0.963089993999,0.829001100593
));
#194 = CARTESIAN_POINT('',(7.246574891503,-0.981480036641,0.817992370789
));
#195 = CARTESIAN_POINT('',(7.221888263958,-1.002410720638,0.808274019834
));
#196 = CARTESIAN_POINT('',(7.199243438705,-1.025680383273,0.80002100071)
);
#197 = CARTESIAN_POINT('',(7.178929845882,-1.051026102469,0.793385709163
));
#198 = CARTESIAN_POINT('',(7.161185649439,-1.078122024857,0.788479632045
));
#199 = ORIENTED_EDGE('',*,*,#200,.T.);
#200 = EDGE_CURVE('',#174,#172,#201,.T.);
#201 = B_SPLINE_CURVE_WITH_KNOTS('',8,(#202,#203,#204,#205,#206,#207,
#208,#209,#210,#211,#212,#213,#214,#215,#216,#217,#218,#219,#220,
#221,#222,#223,#224,#225,#226,#227,#228,#229,#230,#231,#232,#233,
#234,#235,#236,#237,#238),.UNSPECIFIED.,.F.,.F.,(9,7,7,7,7,9),(0.,
8.076117072905E-02,0.26484547139,0.453040702312,0.822872349161,1.),
.UNSPECIFIED.);
#202 = CARTESIAN_POINT('',(7.161185649439,-1.078122024857,0.788479632045
));
#203 = CARTESIAN_POINT('',(7.152727992673,-1.091037121466,0.786141182036
));
#204 = CARTESIAN_POINT('',(7.144826044449,-1.104331234017,0.784176799029
));
#205 = CARTESIAN_POINT('',(7.137501627299,-1.117974580567,0.782596693582
));
#206 = CARTESIAN_POINT('',(7.13077442698,-1.131935596032,0.781409497892)
);
#207 = CARTESIAN_POINT('',(7.124661823256,-1.14618113228,0.780622126856)
);
#208 = CARTESIAN_POINT('',(7.11917872068,-1.16067665822,0.780239639134)
);
#209 = CARTESIAN_POINT('',(7.114337379376,-1.1753864599,0.780265098213)
);
#210 = CARTESIAN_POINT('',(7.100596396094,-1.224207636238,0.781689442671
));
#211 = CARTESIAN_POINT('',(7.094426598026,-1.259072084707,0.784803970425
));
#212 = CARTESIAN_POINT('',(7.0917557449,-1.294423308274,0.790055872108)
);
#213 = CARTESIAN_POINT('',(7.092613445749,-1.329812341419,0.797397510034
));
#214 = CARTESIAN_POINT('',(7.09695252539,-1.364804618863,0.806727247671)
);
#215 = CARTESIAN_POINT('',(7.104660657119,-1.398993833989,0.817897498372
));
#216 = CARTESIAN_POINT('',(7.115572128049,-1.432010167691,0.830724328643
));
#217 = CARTESIAN_POINT('',(7.143697927816,-1.495739342707,0.859591673443
));
#218 = CARTESIAN_POINT('',(7.161050233092,-1.526390515187,0.875700288178
));
#219 = CARTESIAN_POINT('',(7.181323879425,-1.555137978765,0.893108933349
));
#220 = CARTESIAN_POINT('',(7.20427133559,-1.581688582645,0.911580580364)
);
#221 = CARTESIAN_POINT('',(7.229623078619,-1.605790523752,0.930867055068
));
#222 = CARTESIAN_POINT('',(7.257095993134,-1.627228966636,0.950717084699
));
#223 = CARTESIAN_POINT('',(7.286397404036,-1.645821211052,0.970882035534
));
#224 = CARTESIAN_POINT('',(7.377805052242,-1.692048463707,1.030888659808
));
#225 = CARTESIAN_POINT('',(7.444379930171,-1.71114373871,1.071004369607)
);
#226 = CARTESIAN_POINT('',(7.514582166524,-1.717394634758,1.1095557341)
);
#227 = CARTESIAN_POINT('',(7.585712099956,-1.709955584777,1.144639439858
));
#228 = CARTESIAN_POINT('',(7.654770382355,-1.688553652974,1.174515021555
));
#229 = CARTESIAN_POINT('',(7.718449566974,-1.653665964696,1.197875159386
));
#230 = CARTESIAN_POINT('',(7.773479398049,-1.607010167168,1.213974026695
));
#231 = CARTESIAN_POINT('',(7.838548517138,-1.524859275643,1.226908887751
));
#232 = CARTESIAN_POINT('',(7.857100722845,-1.496202117157,1.229413318722
));
#233 = CARTESIAN_POINT('',(7.872874718707,-1.465793389722,1.230221779317
));
#234 = CARTESIAN_POINT('',(7.885667394012,-1.433972933264,1.229357064683
));
#235 = CARTESIAN_POINT('',(7.89533360076,-1.40110544959,1.226867420324)
);
#236 = CARTESIAN_POINT('',(7.901787132678,-1.367568606527,1.222819697345
));
#237 = CARTESIAN_POINT('',(7.905,-1.333742432282,1.217294575345));
#238 = CARTESIAN_POINT('',(7.905,-1.3,1.210383852956));
#239 = TOROIDAL_SURFACE('',#240,4.981707317073,3.268292682927);
#240 = AXIS2_PLACEMENT_3D('',#241,#242,#243);
#241 = CARTESIAN_POINT('',(3.75,-0.731707317073,8.28));
#242 = DIRECTION('',(0.,-1.,0.));
#243 = DIRECTION('',(1.,0.,0.));
#244 = ADVANCED_FACE('',(#245),#248,.F.);
#245 = FACE_BOUND('',#246,.F.);
#246 = EDGE_LOOP('',(#247));
#247 = ORIENTED_EDGE('',*,*,#64,.T.);
#248 = PLANE('',#249);
#249 = AXIS2_PLACEMENT_3D('',#250,#251,#252);
#250 = CARTESIAN_POINT('',(3.75,2.7,8.28));
#251 = DIRECTION('',(-0.,-1.,-0.));
#252 = DIRECTION('',(0.,0.,-1.));
#253 = ADVANCED_FACE('',(#254),#274,.T.);
#254 = FACE_BOUND('',#255,.T.);
#255 = EDGE_LOOP('',(#256,#257,#265,#272,#273));
#256 = ORIENTED_EDGE('',*,*,#108,.T.);
#257 = ORIENTED_EDGE('',*,*,#258,.T.);
#258 = EDGE_CURVE('',#75,#259,#261,.T.);
#259 = VERTEX_POINT('',#260);
#260 = CARTESIAN_POINT('',(0.405,0.,-2.838));
#261 = LINE('',#262,#263);
#262 = CARTESIAN_POINT('',(0.405,0.,8.28));
#263 = VECTOR('',#264,1.);
#264 = DIRECTION('',(-0.,-0.,-1.));
#265 = ORIENTED_EDGE('',*,*,#266,.T.);
#266 = EDGE_CURVE('',#259,#259,#267,.T.);
#267 = CIRCLE('',#268,0.405);
#268 = AXIS2_PLACEMENT_3D('',#269,#270,#271);
#269 = CARTESIAN_POINT('',(0.,0.,-2.838));
#270 = DIRECTION('',(0.,0.,1.));
#271 = DIRECTION('',(1.,0.,0.));
#272 = ORIENTED_EDGE('',*,*,#258,.F.);
#273 = ORIENTED_EDGE('',*,*,#74,.T.);
#274 = CYLINDRICAL_SURFACE('',#275,0.405);
#275 = AXIS2_PLACEMENT_3D('',#276,#277,#278);
#276 = CARTESIAN_POINT('',(0.,0.,8.28));
#277 = DIRECTION('',(0.,0.,1.));
#278 = DIRECTION('',(1.,0.,0.));
#279 = ADVANCED_FACE('',(#280),#283,.T.);
#280 = FACE_BOUND('',#281,.T.);
#281 = EDGE_LOOP('',(#282));
#282 = ORIENTED_EDGE('',*,*,#161,.T.);
#283 = PLANE('',#284);
#284 = AXIS2_PLACEMENT_3D('',#285,#286,#287);
#285 = CARTESIAN_POINT('',(3.75,-4.,8.28));
#286 = DIRECTION('',(-0.,-1.,-0.));
#287 = DIRECTION('',(0.,0.,-1.));
#288 = ADVANCED_FACE('',(#289),#309,.T.);
#289 = FACE_BOUND('',#290,.T.);
#290 = EDGE_LOOP('',(#291,#292,#300,#307,#308));
#291 = ORIENTED_EDGE('',*,*,#171,.F.);
#292 = ORIENTED_EDGE('',*,*,#293,.T.);
#293 = EDGE_CURVE('',#172,#294,#296,.T.);
#294 = VERTEX_POINT('',#295);
#295 = CARTESIAN_POINT('',(7.905,-1.3,-2.838));
#296 = LINE('',#297,#298);
#297 = CARTESIAN_POINT('',(7.905,-1.3,8.28));
#298 = VECTOR('',#299,1.);
#299 = DIRECTION('',(-0.,-0.,-1.));
#300 = ORIENTED_EDGE('',*,*,#301,.T.);
#301 = EDGE_CURVE('',#294,#294,#302,.T.);
#302 = CIRCLE('',#303,0.405);
#303 = AXIS2_PLACEMENT_3D('',#304,#305,#306);
#304 = CARTESIAN_POINT('',(7.5,-1.3,-2.838));
#305 = DIRECTION('',(-2.023953447831E-29,5.210177192437E-30,1.));
#306 = DIRECTION('',(1.,2.084070876975E-30,2.023953447831E-29));
#307 = ORIENTED_EDGE('',*,*,#293,.F.);
#308 = ORIENTED_EDGE('',*,*,#200,.F.);
#309 = CYLINDRICAL_SURFACE('',#310,0.405);
#310 = AXIS2_PLACEMENT_3D('',#311,#312,#313);
#311 = CARTESIAN_POINT('',(7.5,-1.3,8.28));
#312 = DIRECTION('',(0.,0.,1.));
#313 = DIRECTION('',(1.,0.,0.));
#314 = ADVANCED_FACE('',(#315),#335,.T.);
#315 = FACE_BOUND('',#316,.F.);
#316 = EDGE_LOOP('',(#317,#326,#327,#328));
#317 = ORIENTED_EDGE('',*,*,#318,.F.);
#318 = EDGE_CURVE('',#259,#319,#321,.T.);
#319 = VERTEX_POINT('',#320);
#320 = CARTESIAN_POINT('',(0.243,0.,-3.));
#321 = CIRCLE('',#322,0.162);
#322 = AXIS2_PLACEMENT_3D('',#323,#324,#325);
#323 = CARTESIAN_POINT('',(0.243,0.,-2.838));
#324 = DIRECTION('',(-0.,1.,0.));
#325 = DIRECTION('',(1.,0.,0.));
#326 = ORIENTED_EDGE('',*,*,#266,.T.);
#327 = ORIENTED_EDGE('',*,*,#318,.T.);
#328 = ORIENTED_EDGE('',*,*,#329,.F.);
#329 = EDGE_CURVE('',#319,#319,#330,.T.);
#330 = CIRCLE('',#331,0.243);
#331 = AXIS2_PLACEMENT_3D('',#332,#333,#334);
#332 = CARTESIAN_POINT('',(0.,0.,-3.));
#333 = DIRECTION('',(0.,0.,1.));
#334 = DIRECTION('',(1.,0.,0.));
#335 = TOROIDAL_SURFACE('',#336,0.243,0.162);
#336 = AXIS2_PLACEMENT_3D('',#337,#338,#339);
#337 = CARTESIAN_POINT('',(0.,0.,-2.838));
#338 = DIRECTION('',(-0.,-0.,-1.));
#339 = DIRECTION('',(1.,0.,0.));
#340 = ADVANCED_FACE('',(#341),#361,.T.);
#341 = FACE_BOUND('',#342,.F.);
#342 = EDGE_LOOP('',(#343,#352,#353,#354));
#343 = ORIENTED_EDGE('',*,*,#344,.F.);
#344 = EDGE_CURVE('',#294,#345,#347,.T.);
#345 = VERTEX_POINT('',#346);
#346 = CARTESIAN_POINT('',(7.743,-1.3,-3.));
#347 = CIRCLE('',#348,0.162);
#348 = AXIS2_PLACEMENT_3D('',#349,#350,#351);
#349 = CARTESIAN_POINT('',(7.743,-1.3,-2.838));
#350 = DIRECTION('',(-2.084070876975E-30,1.,-5.210177192437E-30));
#351 = DIRECTION('',(1.,2.084070876975E-30,2.023953447831E-29));
#352 = ORIENTED_EDGE('',*,*,#301,.T.);
#353 = ORIENTED_EDGE('',*,*,#344,.T.);
#354 = ORIENTED_EDGE('',*,*,#355,.F.);
#355 = EDGE_CURVE('',#345,#345,#356,.T.);
#356 = CIRCLE('',#357,0.243);
#357 = AXIS2_PLACEMENT_3D('',#358,#359,#360);
#358 = CARTESIAN_POINT('',(7.5,-1.3,-3.));
#359 = DIRECTION('',(-2.023953447831E-29,5.210177192437E-30,1.));
#360 = DIRECTION('',(1.,2.084070876975E-30,2.023953447831E-29));
#361 = TOROIDAL_SURFACE('',#362,0.243,0.162);
#362 = AXIS2_PLACEMENT_3D('',#363,#364,#365);
#363 = CARTESIAN_POINT('',(7.5,-1.3,-2.838));
#364 = DIRECTION('',(2.023953447831E-29,-5.210177192437E-30,-1.));
#365 = DIRECTION('',(1.,2.084070876975E-30,2.023953447831E-29));
#366 = ADVANCED_FACE('',(#367),#370,.F.);
#367 = FACE_BOUND('',#368,.F.);
#368 = EDGE_LOOP('',(#369));
#369 = ORIENTED_EDGE('',*,*,#329,.T.);
#370 = PLANE('',#371);
#371 = AXIS2_PLACEMENT_3D('',#372,#373,#374);
#372 = CARTESIAN_POINT('',(-3.956713346468E-17,-3.343687300262E-18,-3.)
);
#373 = DIRECTION('',(0.,0.,1.));
#374 = DIRECTION('',(1.,0.,0.));
#375 = ADVANCED_FACE('',(#376),#379,.F.);
#376 = FACE_BOUND('',#377,.F.);
#377 = EDGE_LOOP('',(#378));
#378 = ORIENTED_EDGE('',*,*,#355,.T.);
#379 = PLANE('',#380);
#380 = AXIS2_PLACEMENT_3D('',#381,#382,#383);
#381 = CARTESIAN_POINT('',(7.5,-1.3,-3.));
#382 = DIRECTION('',(-2.023953447831E-29,5.210177192437E-30,1.));
#383 = DIRECTION('',(1.,0.,2.023953447831E-29));
#384 = ( GEOMETRIC_REPRESENTATION_CONTEXT(3)
GLOBAL_UNCERTAINTY_ASSIGNED_CONTEXT((#388)) GLOBAL_UNIT_ASSIGNED_CONTEXT
((#385,#386,#387)) REPRESENTATION_CONTEXT('Context #1',
'3D Context with UNIT and UNCERTAINTY') );
#385 = ( LENGTH_UNIT() NAMED_UNIT(*) SI_UNIT(.MILLI.,.METRE.) );
#386 = ( NAMED_UNIT(*) PLANE_ANGLE_UNIT() SI_UNIT($,.RADIAN.) );
#387 = ( NAMED_UNIT(*) SI_UNIT($,.STERADIAN.) SOLID_ANGLE_UNIT() );
#388 = UNCERTAINTY_MEASURE_WITH_UNIT(LENGTH_MEASURE(1.E-07),#385,
'distance_accuracy_value','confusion accuracy');
#389 = PRODUCT_RELATED_PRODUCT_CATEGORY('part',$,(#7));
#390 = MECHANICAL_DESIGN_GEOMETRIC_PRESENTATION_REPRESENTATION('',(#391,
#399,#406,#413,#420,#428,#435,#442,#449,#456,#463),#384);
#391 = STYLED_ITEM('color',(#392),#17);
#392 = PRESENTATION_STYLE_ASSIGNMENT((#393));
#393 = SURFACE_STYLE_USAGE(.BOTH.,#394);
#394 = SURFACE_SIDE_STYLE('',(#395));
#395 = SURFACE_STYLE_FILL_AREA(#396);
#396 = FILL_AREA_STYLE('',(#397));
#397 = FILL_AREA_STYLE_COLOUR('',#398);
#398 = COLOUR_RGB('',0.136999994516,0.402000010014,0.726999998093);
#399 = STYLED_ITEM('color',(#400),#50);
#400 = PRESENTATION_STYLE_ASSIGNMENT((#401));
#401 = SURFACE_STYLE_USAGE(.BOTH.,#402);
#402 = SURFACE_SIDE_STYLE('',(#403));
#403 = SURFACE_STYLE_FILL_AREA(#404);
#404 = FILL_AREA_STYLE('',(#405));
#405 = FILL_AREA_STYLE_COLOUR('',#398);
#406 = STYLED_ITEM('color',(#407),#147);
#407 = PRESENTATION_STYLE_ASSIGNMENT((#408));
#408 = SURFACE_STYLE_USAGE(.BOTH.,#409);
#409 = SURFACE_SIDE_STYLE('',(#410));
#410 = SURFACE_STYLE_FILL_AREA(#411);
#411 = FILL_AREA_STYLE('',(#412));
#412 = FILL_AREA_STYLE_COLOUR('',#398);
#413 = STYLED_ITEM('color',(#414),#244);
#414 = PRESENTATION_STYLE_ASSIGNMENT((#415));
#415 = SURFACE_STYLE_USAGE(.BOTH.,#416);
#416 = SURFACE_SIDE_STYLE('',(#417));
#417 = SURFACE_STYLE_FILL_AREA(#418);
#418 = FILL_AREA_STYLE('',(#419));
#419 = FILL_AREA_STYLE_COLOUR('',#398);
#420 = STYLED_ITEM('color',(#421),#253);
#421 = PRESENTATION_STYLE_ASSIGNMENT((#422));
#422 = SURFACE_STYLE_USAGE(.BOTH.,#423);
#423 = SURFACE_SIDE_STYLE('',(#424));
#424 = SURFACE_STYLE_FILL_AREA(#425);
#425 = FILL_AREA_STYLE('',(#426));
#426 = FILL_AREA_STYLE_COLOUR('',#427);
#427 = COLOUR_RGB('',0.824000000954,0.819999992847,0.78100001812);
#428 = STYLED_ITEM('color',(#429),#279);
#429 = PRESENTATION_STYLE_ASSIGNMENT((#430));
#430 = SURFACE_STYLE_USAGE(.BOTH.,#431);
#431 = SURFACE_SIDE_STYLE('',(#432));
#432 = SURFACE_STYLE_FILL_AREA(#433);
#433 = FILL_AREA_STYLE('',(#434));
#434 = FILL_AREA_STYLE_COLOUR('',#398);
#435 = STYLED_ITEM('color',(#436),#288);
#436 = PRESENTATION_STYLE_ASSIGNMENT((#437));
#437 = SURFACE_STYLE_USAGE(.BOTH.,#438);
#438 = SURFACE_SIDE_STYLE('',(#439));
#439 = SURFACE_STYLE_FILL_AREA(#440);
#440 = FILL_AREA_STYLE('',(#441));
#441 = FILL_AREA_STYLE_COLOUR('',#427);
#442 = STYLED_ITEM('color',(#443),#314);
#443 = PRESENTATION_STYLE_ASSIGNMENT((#444));
#444 = SURFACE_STYLE_USAGE(.BOTH.,#445);
#445 = SURFACE_SIDE_STYLE('',(#446));
#446 = SURFACE_STYLE_FILL_AREA(#447);
#447 = FILL_AREA_STYLE('',(#448));
#448 = FILL_AREA_STYLE_COLOUR('',#427);
#449 = STYLED_ITEM('color',(#450),#340);
#450 = PRESENTATION_STYLE_ASSIGNMENT((#451));
#451 = SURFACE_STYLE_USAGE(.BOTH.,#452);
#452 = SURFACE_SIDE_STYLE('',(#453));
#453 = SURFACE_STYLE_FILL_AREA(#454);
#454 = FILL_AREA_STYLE('',(#455));
#455 = FILL_AREA_STYLE_COLOUR('',#427);
#456 = STYLED_ITEM('color',(#457),#366);
#457 = PRESENTATION_STYLE_ASSIGNMENT((#458));
#458 = SURFACE_STYLE_USAGE(.BOTH.,#459);
#459 = SURFACE_SIDE_STYLE('',(#460));
#460 = SURFACE_STYLE_FILL_AREA(#461);
#461 = FILL_AREA_STYLE('',(#462));
#462 = FILL_AREA_STYLE_COLOUR('',#427);
#463 = STYLED_ITEM('color',(#464),#375);
#464 = PRESENTATION_STYLE_ASSIGNMENT((#465));
#465 = SURFACE_STYLE_USAGE(.BOTH.,#466);
#466 = SURFACE_SIDE_STYLE('',(#467));
#467 = SURFACE_STYLE_FILL_AREA(#468);
#468 = FILL_AREA_STYLE('',(#469));
#469 = FILL_AREA_STYLE_COLOUR('',#427);
ENDSEC;
END-ISO-10303-21;
