ISO-10303-21;
HEADER;
/* RV_Disc_D15.5mm_W4mm_P7.5mm.step 3D STEP model for use in ECAD systems
 * Copyright (C) 2018, kicad StepUp
 * 
 * This work is licensed under the [Creative Commons CC-BY-SA 4.0 License](https://creativecommons.org/licenses/by-sa/4.0/legalcode), 
 * with the following exception:
 * To the extent that the creation of electronic designs that use 'Licensed Material' can be considered to be 'Adapted Material', 
 * then the copyright holder waives article 3 of the license with respect to these designs and any generated files which use data provided 
 * as part of the 'Licensed Material'.
 * You are free to use the library data in your own projects without the obligation to share your project files under this or any other license agreement.
 * However, if you wish to redistribute these libraries, or parts thereof (including in modified form) as a collection then the exception above does not apply. 
 * Please refer to https://github.com/KiCad/kicad-packages3D/blob/master/LICENSE.md for further clarification of the exception.
 * Disclaimer of Warranties and Limitation of Liability.
 * These libraries are provided in the hope that they will be useful, but are provided without warranty of any kind, express or implied.
 * *USE 3D CAD DATA AT YOUR OWN RISK*
 * *DO NOT RELY UPON ANY INFORMATION FOUND HERE WITHOUT INDEPENDENT VERIFICATION.*
 * 
 */

FILE_DESCRIPTION(
/* description */ ('model of RV_Disc_D15.5mm_W4mm_P7.5mm'),
/* implementation_level */ '2;1');

FILE_NAME(
/* name */ 'RV_Disc_D15.5mm_W4mm_P7.5mm.step',
/* time_stamp */ '2018-11-11T20:59:08',
/* author */ ('kicad StepUp','ksu'),
/* organization */ ('FreeCAD'),
/* preprocessor_version */ 'OCC',
/* originating_system */ 'kicad StepUp',
/* authorisation */ '');

FILE_SCHEMA(('AUTOMOTIVE_DESIGN { 1 0 10303 214 1 1 1 1 }'));
ENDSEC;

DATA;
#1 = APPLICATION_PROTOCOL_DEFINITION('international standard',
'automotive_design',2000,#2);
#2 = APPLICATION_CONTEXT(
'core data for automotive mechanical design processes');
#3 = SHAPE_DEFINITION_REPRESENTATION(#4,#10);
#4 = PRODUCT_DEFINITION_SHAPE('','',#5);
#5 = PRODUCT_DEFINITION('design','',#6,#9);
#6 = PRODUCT_DEFINITION_FORMATION('','',#7);
#7 = PRODUCT('RV_Disc_D155mm_W4mm_P75mm','RV_Disc_D155mm_W4mm_P75mm','',
(#8));
#8 = PRODUCT_CONTEXT('',#2,'mechanical');
#9 = PRODUCT_DEFINITION_CONTEXT('part definition',#2,'design');
#10 = ADVANCED_BREP_SHAPE_REPRESENTATION('',(#11,#15),#381);
#11 = AXIS2_PLACEMENT_3D('',#12,#13,#14);
#12 = CARTESIAN_POINT('',(0.E+000,0.E+000,0.E+000));
#13 = DIRECTION('',(0.E+000,0.E+000,1.));
#14 = DIRECTION('',(1.,0.E+000,-0.E+000));
#15 = MANIFOLD_SOLID_BREP('',#16);
#16 = CLOSED_SHELL('',(#17,#50,#143,#241,#250,#276,#285,#311,#337,#363,
#372));
#17 = ADVANCED_FACE('',(#18),#45,.T.);
#18 = FACE_BOUND('',#19,.F.);
#19 = EDGE_LOOP('',(#20,#30,#37,#38));
#20 = ORIENTED_EDGE('',*,*,#21,.T.);
#21 = EDGE_CURVE('',#22,#24,#26,.T.);
#22 = VERTEX_POINT('',#23);
#23 = CARTESIAN_POINT('',(11.5,-0.676219512195,7.78));
#24 = VERTEX_POINT('',#25);
#25 = CARTESIAN_POINT('',(11.5,-0.773780487805,7.78));
#26 = LINE('',#27,#28);
#27 = CARTESIAN_POINT('',(11.5,1.275,7.78));
#28 = VECTOR('',#29,1.);
#29 = DIRECTION('',(0.E+000,-1.,0.E+000));
#30 = ORIENTED_EDGE('',*,*,#31,.T.);
#31 = EDGE_CURVE('',#24,#24,#32,.T.);
#32 = CIRCLE('',#33,7.75);
#33 = AXIS2_PLACEMENT_3D('',#34,#35,#36);
#34 = CARTESIAN_POINT('',(3.75,-0.773780487805,7.78));
#35 = DIRECTION('',(0.E+000,-1.,0.E+000));
#36 = DIRECTION('',(1.,0.E+000,0.E+000));
#37 = ORIENTED_EDGE('',*,*,#21,.F.);
#38 = ORIENTED_EDGE('',*,*,#39,.F.);
#39 = EDGE_CURVE('',#22,#22,#40,.T.);
#40 = CIRCLE('',#41,7.75);
#41 = AXIS2_PLACEMENT_3D('',#42,#43,#44);
#42 = CARTESIAN_POINT('',(3.75,-0.676219512195,7.78));
#43 = DIRECTION('',(0.E+000,-1.,0.E+000));
#44 = DIRECTION('',(1.,0.E+000,0.E+000));
#45 = CYLINDRICAL_SURFACE('',#46,7.75);
#46 = AXIS2_PLACEMENT_3D('',#47,#48,#49);
#47 = CARTESIAN_POINT('',(3.75,1.275,7.78));
#48 = DIRECTION('',(0.E+000,1.,0.E+000));
#49 = DIRECTION('',(1.,0.E+000,0.E+000));
#50 = ADVANCED_FACE('',(#51,#71),#138,.T.);
#51 = FACE_BOUND('',#52,.F.);
#52 = EDGE_LOOP('',(#53,#54,#63,#70));
#53 = ORIENTED_EDGE('',*,*,#39,.T.);
#54 = ORIENTED_EDGE('',*,*,#55,.T.);
#55 = EDGE_CURVE('',#22,#56,#58,.T.);
#56 = VERTEX_POINT('',#57);
#57 = CARTESIAN_POINT('',(9.548780487805,1.275,7.78));
#58 = CIRCLE('',#59,1.951219512195);
#59 = AXIS2_PLACEMENT_3D('',#60,#61,#62);
#60 = CARTESIAN_POINT('',(9.548780487805,-0.676219512195,7.78));
#61 = DIRECTION('',(0.E+000,0.E+000,1.));
#62 = DIRECTION('',(1.,0.E+000,0.E+000));
#63 = ORIENTED_EDGE('',*,*,#64,.F.);
#64 = EDGE_CURVE('',#56,#56,#65,.T.);
#65 = CIRCLE('',#66,5.798780487805);
#66 = AXIS2_PLACEMENT_3D('',#67,#68,#69);
#67 = CARTESIAN_POINT('',(3.75,1.275,7.78));
#68 = DIRECTION('',(0.E+000,-1.,0.E+000));
#69 = DIRECTION('',(1.,0.E+000,0.E+000));
#70 = ORIENTED_EDGE('',*,*,#55,.F.);
#71 = FACE_BOUND('',#72,.F.);
#72 = EDGE_LOOP('',(#73,#97));
#73 = ORIENTED_EDGE('',*,*,#74,.T.);
#74 = EDGE_CURVE('',#75,#77,#79,.T.);
#75 = VERTEX_POINT('',#76);
#76 = CARTESIAN_POINT('',(0.36,0.E+000,0.945476350848));
#77 = VERTEX_POINT('',#78);
#78 = CARTESIAN_POINT('',(-9.569189546713E-002,-0.347049075985,
1.083697714897));
#79 = B_SPLINE_CURVE_WITH_KNOTS('',6,(#80,#81,#82,#83,#84,#85,#86,#87,
#88,#89,#90,#91,#92,#93,#94,#95,#96),.UNSPECIFIED.,.F.,.F.,(7,5,5,7)
,(0.E+000,0.241432847565,0.621759694584,1.),.UNSPECIFIED.);
#80 = CARTESIAN_POINT('',(0.36,-5.551115123126E-017,0.945476350848));
#81 = CARTESIAN_POINT('',(0.36,-2.5256154089E-002,0.935060440335));
#82 = CARTESIAN_POINT('',(0.357873775716,-5.072605039387E-002,
0.926145178564));
#83 = CARTESIAN_POINT('',(0.353553694205,-7.618960309742E-002,
0.91885238762));
#84 = CARTESIAN_POINT('',(0.347001289821,-0.101395707582,0.913276738291)
);
#85 = CARTESIAN_POINT('',(0.338223094022,-0.126073767591,0.909474365463)
);
#86 = CARTESIAN_POINT('',(0.310058098737,-0.187549695948,0.90426485703)
);
#87 = CARTESIAN_POINT('',(0.287467059309,-0.223167184093,0.905492935631)
);
#88 = CARTESIAN_POINT('',(0.259773062682,-0.255699283338,0.911169758631)
);
#89 = CARTESIAN_POINT('',(0.227560858419,-0.28414989186,0.921004284031)
);
#90 = CARTESIAN_POINT('',(0.191644781382,-0.307727409892,0.934508946221)
);
#91 = CARTESIAN_POINT('',(0.11453926866,-0.343925398277,0.967655970311)
);
#92 = CARTESIAN_POINT('',(7.331103438969E-002,-0.356637281432,
0.987293499638));
#93 = CARTESIAN_POINT('',(3.031886433164E-002,-0.363390525334,
1.009476033605));
#94 = CARTESIAN_POINT('',(-1.314313837424E-002,-0.363823790194,
1.033471612972));
#95 = CARTESIAN_POINT('',(-5.557750064364E-002,-0.358109824282,
1.058476926198));
#96 = CARTESIAN_POINT('',(-9.569189546713E-002,-0.347049075985,
1.083697714897));
#97 = ORIENTED_EDGE('',*,*,#98,.T.);
#98 = EDGE_CURVE('',#77,#75,#99,.T.);
#99 = B_SPLINE_CURVE_WITH_KNOTS('',7,(#100,#101,#102,#103,#104,#105,#106
,#107,#108,#109,#110,#111,#112,#113,#114,#115,#116,#117,#118,#119,
#120,#121,#122,#123,#124,#125,#126,#127,#128,#129,#130,#131,#132,
#133,#134,#135,#136,#137),.UNSPECIFIED.,.F.,.F.,(8,6,6,6,6,6,8),(
0.E+000,0.159850226924,0.400129860861,0.544403296735,0.672618677735,
0.800626923909,1.),.UNSPECIFIED.);
#100 = CARTESIAN_POINT('',(-9.569189546713E-002,-0.347049075985,
1.083697714897));
#101 = CARTESIAN_POINT('',(-0.132235994504,-0.336972765898,
1.106673781321));
#102 = CARTESIAN_POINT('',(-0.167065146706,-0.322538598933,
1.129922344818));
#103 = CARTESIAN_POINT('',(-0.199626393339,-0.304125987615,
1.153128512359));
#104 = CARTESIAN_POINT('',(-0.229472724239,-0.282171887559,
1.176059814915));
#105 = CARTESIAN_POINT('',(-0.256254447666,-0.257133646246,
1.198541953508));
#106 = CARTESIAN_POINT('',(-0.279701021166,-0.229465567201,
1.220433599853));
#107 = CARTESIAN_POINT('',(-0.329494582949,-0.154730432559,
1.273417005482));
#108 = CARTESIAN_POINT('',(-0.351332930493,-0.104955451614,
1.303561295555));
#109 = CARTESIAN_POINT('',(-0.364394094927,-5.180682119354E-002,
1.33158268488));
#110 = CARTESIAN_POINT('',(-0.368156685835,3.150169222376E-003,
1.356979577305));
#111 = CARTESIAN_POINT('',(-0.362298709399,5.823354728064E-002,
1.379071579822));
#112 = CARTESIAN_POINT('',(-0.346746935394,0.111618199792,1.396824410172
));
#113 = CARTESIAN_POINT('',(-0.306865439068,0.191176295525,1.416208351943
));
#114 = CARTESIAN_POINT('',(-0.28853190112,0.219687214539,1.421443835479)
);
#115 = CARTESIAN_POINT('',(-0.266915080501,0.24641354417,1.424359681355)
);
#116 = CARTESIAN_POINT('',(-0.242179776957,0.270870863364,1.424641967035
));
#117 = CARTESIAN_POINT('',(-0.214611829688,0.292563880767,1.421984107756
));
#118 = CARTESIAN_POINT('',(-0.184636551944,0.311038225027,1.416161820434
));
#119 = CARTESIAN_POINT('',(-0.124528697103,0.339217227664,1.399131033212
));
#120 = CARTESIAN_POINT('',(-9.477042282143E-002,0.349675819778,
1.388589662342));
#121 = CARTESIAN_POINT('',(-6.394931921479E-002,0.357081110267,
1.375501087677));
#122 = CARTESIAN_POINT('',(-3.256916941282E-002,0.361266933009,
1.359971929938));
#123 = CARTESIAN_POINT('',(-1.19543200942E-003,0.362205880948,
1.342294685044));
#124 = CARTESIAN_POINT('',(2.959059706201E-002,0.360040018271,
1.322941658978));
#125 = CARTESIAN_POINT('',(8.886944198857E-002,0.350148140958,
1.282077353129));
#126 = CARTESIAN_POINT('',(0.117462951204,0.342414722858,1.260502441472)
);
#127 = CARTESIAN_POINT('',(0.144782179082,0.332127250572,1.238130139611)
);
#128 = CARTESIAN_POINT('',(0.170648485266,0.319522762857,1.215302530799)
);
#129 = CARTESIAN_POINT('',(0.194935089545,0.304814606131,1.19231744071)
);
#130 = CARTESIAN_POINT('',(0.217544959834,0.288180351513,1.169423746939)
);
#131 = CARTESIAN_POINT('',(0.270852138607,0.241072663809,1.111656700794)
);
#132 = CARTESIAN_POINT('',(0.298992071436,0.208088006986,1.077262281017)
);
#133 = CARTESIAN_POINT('',(0.322446833286,0.171392938166,1.044504148119)
);
#134 = CARTESIAN_POINT('',(0.340781663295,0.131510428238,1.014178109028)
);
#135 = CARTESIAN_POINT('',(0.353475047471,8.90621837476E-002,
0.987082363788));
#136 = CARTESIAN_POINT('',(0.36,4.487046711287E-002,0.963981415732));
#137 = CARTESIAN_POINT('',(0.36,-5.551115123126E-017,0.945476350848));
#138 = TOROIDAL_SURFACE('',#139,5.798780487805,1.951219512195);
#139 = AXIS2_PLACEMENT_3D('',#140,#141,#142);
#140 = CARTESIAN_POINT('',(3.75,-0.676219512195,7.78));
#141 = DIRECTION('',(0.E+000,1.,0.E+000));
#142 = DIRECTION('',(1.,0.E+000,0.E+000));
#143 = ADVANCED_FACE('',(#144,#164),#236,.T.);
#144 = FACE_BOUND('',#145,.T.);
#145 = EDGE_LOOP('',(#146,#147,#156,#163));
#146 = ORIENTED_EDGE('',*,*,#31,.T.);
#147 = ORIENTED_EDGE('',*,*,#148,.T.);
#148 = EDGE_CURVE('',#24,#149,#151,.T.);
#149 = VERTEX_POINT('',#150);
#150 = CARTESIAN_POINT('',(9.548780487805,-2.725,7.78));
#151 = CIRCLE('',#152,1.951219512195);
#152 = AXIS2_PLACEMENT_3D('',#153,#154,#155);
#153 = CARTESIAN_POINT('',(9.548780487805,-0.773780487805,7.78));
#154 = DIRECTION('',(0.E+000,0.E+000,-1.));
#155 = DIRECTION('',(1.,0.E+000,0.E+000));
#156 = ORIENTED_EDGE('',*,*,#157,.F.);
#157 = EDGE_CURVE('',#149,#149,#158,.T.);
#158 = CIRCLE('',#159,5.798780487805);
#159 = AXIS2_PLACEMENT_3D('',#160,#161,#162);
#160 = CARTESIAN_POINT('',(3.75,-2.725,7.78));
#161 = DIRECTION('',(0.E+000,-1.,0.E+000));
#162 = DIRECTION('',(1.,0.E+000,0.E+000));
#163 = ORIENTED_EDGE('',*,*,#148,.F.);
#164 = FACE_BOUND('',#165,.T.);
#165 = EDGE_LOOP('',(#166,#196));
#166 = ORIENTED_EDGE('',*,*,#167,.T.);
#167 = EDGE_CURVE('',#168,#170,#172,.T.);
#168 = VERTEX_POINT('',#169);
#169 = CARTESIAN_POINT('',(7.86,-1.45,1.352658908163));
#170 = VERTEX_POINT('',#171);
#171 = CARTESIAN_POINT('',(7.21414571553,-1.231168265441,0.908138519842)
);
#172 = B_SPLINE_CURVE_WITH_KNOTS('',8,(#173,#174,#175,#176,#177,#178,
#179,#180,#181,#182,#183,#184,#185,#186,#187,#188,#189,#190,#191,
#192,#193,#194,#195),.UNSPECIFIED.,.F.,.F.,(9,7,7,9),(0.E+000,
0.249728152253,0.760028280868,1.),.UNSPECIFIED.);
#173 = CARTESIAN_POINT('',(7.86,-1.45,1.352658908163));
#174 = CARTESIAN_POINT('',(7.86,-1.423095186435,1.340860133387));
#175 = CARTESIAN_POINT('',(7.857701913994,-1.396281710343,1.328248764301
));
#176 = CARTESIAN_POINT('',(7.853133322495,-1.369756568514,1.314917836923
));
#177 = CARTESIAN_POINT('',(7.846333303457,-1.343711931731,1.300946539004
));
#178 = CARTESIAN_POINT('',(7.837352729349,-1.318335782647,1.286403371407
));
#179 = CARTESIAN_POINT('',(7.826254564246,-1.293812553656,1.271349309483
));
#180 = CARTESIAN_POINT('',(7.813114160906,-1.270323764765,1.255840964453
));
#181 = CARTESIAN_POINT('',(7.767174906148,-1.202531213892,1.207428573977
));
#182 = CARTESIAN_POINT('',(7.728310329953,-1.162287530522,1.173405460103
));
#183 = CARTESIAN_POINT('',(7.682089287302,-1.12844116731,1.138133603757)
);
#184 = CARTESIAN_POINT('',(7.62926149997,-1.102530083306,1.102011180692)
);
#185 = CARTESIAN_POINT('',(7.571233654123,-1.086369050393,1.065806387452
));
#186 = CARTESIAN_POINT('',(7.510369766488,-1.081543955631,1.030786855822
));
#187 = CARTESIAN_POINT('',(7.449925220817,-1.088565976794,0.998939908272
));
#188 = CARTESIAN_POINT('',(7.366370112467,-1.114550537663,0.959323901666
));
#189 = CARTESIAN_POINT('',(7.340444451229,-1.125217125117,0.947737094765
));
#190 = CARTESIAN_POINT('',(7.315564015431,-1.13814217203,0.93737327829)
);
#191 = CARTESIAN_POINT('',(7.291959500339,-1.153196443469,0.928367371322
));
#192 = CARTESIAN_POINT('',(7.269842099171,-1.170221624732,0.920844232258
));
#193 = CARTESIAN_POINT('',(7.249399395231,-1.189033415706,0.914912440892
));
#194 = CARTESIAN_POINT('',(7.230791254051,-1.209424625227,0.910658080484
));
#195 = CARTESIAN_POINT('',(7.21414571553,-1.231168265441,0.908138519842)
);
#196 = ORIENTED_EDGE('',*,*,#197,.T.);
#197 = EDGE_CURVE('',#170,#168,#198,.T.);
#198 = B_SPLINE_CURVE_WITH_KNOTS('',6,(#199,#200,#201,#202,#203,#204,
#205,#206,#207,#208,#209,#210,#211,#212,#213,#214,#215,#216,#217,
#218,#219,#220,#221,#222,#223,#224,#225,#226,#227,#228,#229,#230,
#231,#232,#233,#234,#235),.UNSPECIFIED.,.F.,.F.,(7,5,5,5,5,5,5,7),(
0.E+000,5.693194666963E-002,0.236304042156,0.402891958148,
0.563482550876,0.707666932399,0.858965035547,1.),.UNSPECIFIED.);
#199 = CARTESIAN_POINT('',(7.21414571553,-1.231168265441,0.908138519842)
);
#200 = CARTESIAN_POINT('',(7.206004991704,-1.241802284264,0.906906294923
));
#201 = CARTESIAN_POINT('',(7.198357563961,-1.252775492946,0.906109740885
));
#202 = CARTESIAN_POINT('',(7.191221453479,-1.264055762364,0.90575684996)
);
#203 = CARTESIAN_POINT('',(7.184611476331,-1.275609953812,0.90585272529)
);
#204 = CARTESIAN_POINT('',(7.178539243485,-1.287403918997,0.906399580932
));
#205 = CARTESIAN_POINT('',(7.155602461048,-1.337205715125,0.910538437424
));
#206 = CARTESIAN_POINT('',(7.14360808099,-1.377051123142,0.91815026326)
);
#207 = CARTESIAN_POINT('',(7.13731010725,-1.417821407534,0.93021108397)
);
#208 = CARTESIAN_POINT('',(7.136581191329,-1.458443615086,0.94637568256)
);
#209 = CARTESIAN_POINT('',(7.141086562917,-1.498083866388,0.966112583313
));
#210 = CARTESIAN_POINT('',(7.159130251898,-1.571360136978,1.00992678537)
);
#211 = CARTESIAN_POINT('',(7.172003232356,-1.605228973626,1.033597919578
));
#212 = CARTESIAN_POINT('',(7.188762031758,-1.637179975145,1.059386962298
));
#213 = CARTESIAN_POINT('',(7.209089045936,-1.666820334009,1.086795967705
));
#214 = CARTESIAN_POINT('',(7.232713776296,-1.693813840334,1.115324334185
));
#215 = CARTESIAN_POINT('',(7.285127314459,-1.740905202177,1.172493819329
));
#216 = CARTESIAN_POINT('',(7.313673401749,-1.761192935607,1.201065492931
));
#217 = CARTESIAN_POINT('',(7.344853735714,-1.778365436281,1.229701489033
));
#218 = CARTESIAN_POINT('',(7.378462976677,-1.792016127261,1.257851447313
));
#219 = CARTESIAN_POINT('',(7.414159568015,-1.801626544966,1.284780392232
));
#220 = CARTESIAN_POINT('',(7.484765113457,-1.811253875696,1.332091289793
));
#221 = CARTESIAN_POINT('',(7.51947022926,-1.812162951611,1.352920629335)
);
#222 = CARTESIAN_POINT('',(7.554609524181,-1.808967422674,1.371307652973
));
#223 = CARTESIAN_POINT('',(7.589255478916,-1.801588408656,1.386624619782
));
#224 = CARTESIAN_POINT('',(7.62261665402,-1.790261767584,1.398678708733)
);
#225 = CARTESIAN_POINT('',(7.687120135844,-1.759712134575,1.416767868944
));
#226 = CARTESIAN_POINT('',(7.71807620466,-1.740125180604,1.422478398692)
);
#227 = CARTESIAN_POINT('',(7.746270134775,-1.717013116478,1.424678809641
));
#228 = CARTESIAN_POINT('',(7.771206312546,-1.690970095387,1.423694124883
));
#229 = CARTESIAN_POINT('',(7.792603119514,-1.662610711684,1.419916709038
));
#230 = CARTESIAN_POINT('',(7.826815074657,-1.604440666223,1.407921803729
));
#231 = CARTESIAN_POINT('',(7.840114044224,-1.574858855519,1.400022930567
));
#232 = CARTESIAN_POINT('',(7.85009123261,-1.544209945084,1.390304359435)
);
#233 = CARTESIAN_POINT('',(7.856713594132,-1.512925039614,1.379034715033
));
#234 = CARTESIAN_POINT('',(7.86,-1.481399390425,1.36642872429));
#235 = CARTESIAN_POINT('',(7.86,-1.45,1.352658908163));
#236 = TOROIDAL_SURFACE('',#237,5.798780487805,1.951219512195);
#237 = AXIS2_PLACEMENT_3D('',#238,#239,#240);
#238 = CARTESIAN_POINT('',(3.75,-0.773780487805,7.78));
#239 = DIRECTION('',(0.E+000,-1.,0.E+000));
#240 = DIRECTION('',(1.,0.E+000,0.E+000));
#241 = ADVANCED_FACE('',(#242),#245,.F.);
#242 = FACE_BOUND('',#243,.F.);
#243 = EDGE_LOOP('',(#244));
#244 = ORIENTED_EDGE('',*,*,#64,.T.);
#245 = PLANE('',#246);
#246 = AXIS2_PLACEMENT_3D('',#247,#248,#249);
#247 = CARTESIAN_POINT('',(3.75,1.275,7.78));
#248 = DIRECTION('',(-0.E+000,-1.,-0.E+000));
#249 = DIRECTION('',(0.E+000,0.E+000,-1.));
#250 = ADVANCED_FACE('',(#251),#271,.T.);
#251 = FACE_BOUND('',#252,.T.);
#252 = EDGE_LOOP('',(#253,#254,#262,#269,#270));
#253 = ORIENTED_EDGE('',*,*,#98,.T.);
#254 = ORIENTED_EDGE('',*,*,#255,.T.);
#255 = EDGE_CURVE('',#75,#256,#258,.T.);
#256 = VERTEX_POINT('',#257);
#257 = CARTESIAN_POINT('',(0.36,0.E+000,-2.856));
#258 = LINE('',#259,#260);
#259 = CARTESIAN_POINT('',(0.36,0.E+000,7.78));
#260 = VECTOR('',#261,1.);
#261 = DIRECTION('',(-0.E+000,-0.E+000,-1.));
#262 = ORIENTED_EDGE('',*,*,#263,.T.);
#263 = EDGE_CURVE('',#256,#256,#264,.T.);
#264 = CIRCLE('',#265,0.36);
#265 = AXIS2_PLACEMENT_3D('',#266,#267,#268);
#266 = CARTESIAN_POINT('',(0.E+000,0.E+000,-2.856));
#267 = DIRECTION('',(0.E+000,0.E+000,1.));
#268 = DIRECTION('',(1.,0.E+000,0.E+000));
#269 = ORIENTED_EDGE('',*,*,#255,.F.);
#270 = ORIENTED_EDGE('',*,*,#74,.T.);
#271 = CYLINDRICAL_SURFACE('',#272,0.36);
#272 = AXIS2_PLACEMENT_3D('',#273,#274,#275);
#273 = CARTESIAN_POINT('',(0.E+000,0.E+000,7.78));
#274 = DIRECTION('',(0.E+000,0.E+000,1.));
#275 = DIRECTION('',(1.,0.E+000,0.E+000));
#276 = ADVANCED_FACE('',(#277),#280,.T.);
#277 = FACE_BOUND('',#278,.T.);
#278 = EDGE_LOOP('',(#279));
#279 = ORIENTED_EDGE('',*,*,#157,.T.);
#280 = PLANE('',#281);
#281 = AXIS2_PLACEMENT_3D('',#282,#283,#284);
#282 = CARTESIAN_POINT('',(3.75,-2.725,7.78));
#283 = DIRECTION('',(-0.E+000,-1.,-0.E+000));
#284 = DIRECTION('',(0.E+000,0.E+000,-1.));
#285 = ADVANCED_FACE('',(#286),#306,.T.);
#286 = FACE_BOUND('',#287,.T.);
#287 = EDGE_LOOP('',(#288,#289,#297,#304,#305));
#288 = ORIENTED_EDGE('',*,*,#167,.F.);
#289 = ORIENTED_EDGE('',*,*,#290,.T.);
#290 = EDGE_CURVE('',#168,#291,#293,.T.);
#291 = VERTEX_POINT('',#292);
#292 = CARTESIAN_POINT('',(7.86,-1.45,-2.856));
#293 = LINE('',#294,#295);
#294 = CARTESIAN_POINT('',(7.86,-1.45,7.78));
#295 = VECTOR('',#296,1.);
#296 = DIRECTION('',(-0.E+000,-0.E+000,-1.));
#297 = ORIENTED_EDGE('',*,*,#298,.T.);
#298 = EDGE_CURVE('',#291,#291,#299,.T.);
#299 = CIRCLE('',#300,0.36);
#300 = AXIS2_PLACEMENT_3D('',#301,#302,#303);
#301 = CARTESIAN_POINT('',(7.5,-1.45,-2.856));
#302 = DIRECTION('',(0.E+000,0.E+000,1.));
#303 = DIRECTION('',(1.,0.E+000,0.E+000));
#304 = ORIENTED_EDGE('',*,*,#290,.F.);
#305 = ORIENTED_EDGE('',*,*,#197,.F.);
#306 = CYLINDRICAL_SURFACE('',#307,0.36);
#307 = AXIS2_PLACEMENT_3D('',#308,#309,#310);
#308 = CARTESIAN_POINT('',(7.5,-1.45,7.78));
#309 = DIRECTION('',(0.E+000,0.E+000,1.));
#310 = DIRECTION('',(1.,0.E+000,0.E+000));
#311 = ADVANCED_FACE('',(#312),#332,.T.);
#312 = FACE_BOUND('',#313,.F.);
#313 = EDGE_LOOP('',(#314,#323,#324,#325));
#314 = ORIENTED_EDGE('',*,*,#315,.F.);
#315 = EDGE_CURVE('',#256,#316,#318,.T.);
#316 = VERTEX_POINT('',#317);
#317 = CARTESIAN_POINT('',(0.216,0.E+000,-3.));
#318 = CIRCLE('',#319,0.144);
#319 = AXIS2_PLACEMENT_3D('',#320,#321,#322);
#320 = CARTESIAN_POINT('',(0.216,0.E+000,-2.856));
#321 = DIRECTION('',(-0.E+000,1.,0.E+000));
#322 = DIRECTION('',(1.,0.E+000,0.E+000));
#323 = ORIENTED_EDGE('',*,*,#263,.T.);
#324 = ORIENTED_EDGE('',*,*,#315,.T.);
#325 = ORIENTED_EDGE('',*,*,#326,.F.);
#326 = EDGE_CURVE('',#316,#316,#327,.T.);
#327 = CIRCLE('',#328,0.216);
#328 = AXIS2_PLACEMENT_3D('',#329,#330,#331);
#329 = CARTESIAN_POINT('',(0.E+000,0.E+000,-3.));
#330 = DIRECTION('',(0.E+000,0.E+000,1.));
#331 = DIRECTION('',(1.,0.E+000,0.E+000));
#332 = TOROIDAL_SURFACE('',#333,0.216,0.144);
#333 = AXIS2_PLACEMENT_3D('',#334,#335,#336);
#334 = CARTESIAN_POINT('',(0.E+000,0.E+000,-2.856));
#335 = DIRECTION('',(-0.E+000,-0.E+000,-1.));
#336 = DIRECTION('',(1.,0.E+000,0.E+000));
#337 = ADVANCED_FACE('',(#338),#358,.T.);
#338 = FACE_BOUND('',#339,.F.);
#339 = EDGE_LOOP('',(#340,#349,#350,#351));
#340 = ORIENTED_EDGE('',*,*,#341,.F.);
#341 = EDGE_CURVE('',#291,#342,#344,.T.);
#342 = VERTEX_POINT('',#343);
#343 = CARTESIAN_POINT('',(7.716,-1.45,-3.));
#344 = CIRCLE('',#345,0.144);
#345 = AXIS2_PLACEMENT_3D('',#346,#347,#348);
#346 = CARTESIAN_POINT('',(7.716,-1.45,-2.856));
#347 = DIRECTION('',(-0.E+000,1.,0.E+000));
#348 = DIRECTION('',(1.,0.E+000,0.E+000));
#349 = ORIENTED_EDGE('',*,*,#298,.T.);
#350 = ORIENTED_EDGE('',*,*,#341,.T.);
#351 = ORIENTED_EDGE('',*,*,#352,.F.);
#352 = EDGE_CURVE('',#342,#342,#353,.T.);
#353 = CIRCLE('',#354,0.216);
#354 = AXIS2_PLACEMENT_3D('',#355,#356,#357);
#355 = CARTESIAN_POINT('',(7.5,-1.45,-3.));
#356 = DIRECTION('',(0.E+000,0.E+000,1.));
#357 = DIRECTION('',(1.,0.E+000,0.E+000));
#358 = TOROIDAL_SURFACE('',#359,0.216,0.144);
#359 = AXIS2_PLACEMENT_3D('',#360,#361,#362);
#360 = CARTESIAN_POINT('',(7.5,-1.45,-2.856));
#361 = DIRECTION('',(-0.E+000,-0.E+000,-1.));
#362 = DIRECTION('',(1.,0.E+000,0.E+000));
#363 = ADVANCED_FACE('',(#364),#367,.F.);
#364 = FACE_BOUND('',#365,.F.);
#365 = EDGE_LOOP('',(#366));
#366 = ORIENTED_EDGE('',*,*,#326,.T.);
#367 = PLANE('',#368);
#368 = AXIS2_PLACEMENT_3D('',#369,#370,#371);
#369 = CARTESIAN_POINT('',(-1.483767504926E-017,1.497958850874E-017,-3.)
);
#370 = DIRECTION('',(0.E+000,0.E+000,1.));
#371 = DIRECTION('',(1.,0.E+000,0.E+000));
#372 = ADVANCED_FACE('',(#373),#376,.F.);
#373 = FACE_BOUND('',#374,.F.);
#374 = EDGE_LOOP('',(#375));
#375 = ORIENTED_EDGE('',*,*,#352,.T.);
#376 = PLANE('',#377);
#377 = AXIS2_PLACEMENT_3D('',#378,#379,#380);
#378 = CARTESIAN_POINT('',(7.5,-1.45,-3.));
#379 = DIRECTION('',(0.E+000,0.E+000,1.));
#380 = DIRECTION('',(1.,0.E+000,0.E+000));
#381 = ( GEOMETRIC_REPRESENTATION_CONTEXT(3)
GLOBAL_UNCERTAINTY_ASSIGNED_CONTEXT((#385)) GLOBAL_UNIT_ASSIGNED_CONTEXT
((#382,#383,#384)) REPRESENTATION_CONTEXT('Context #1',
'3D Context with UNIT and UNCERTAINTY') );
#382 = ( LENGTH_UNIT() NAMED_UNIT(*) SI_UNIT(.MILLI.,.METRE.) );
#383 = ( NAMED_UNIT(*) PLANE_ANGLE_UNIT() SI_UNIT($,.RADIAN.) );
#384 = ( NAMED_UNIT(*) SI_UNIT($,.STERADIAN.) SOLID_ANGLE_UNIT() );
#385 = UNCERTAINTY_MEASURE_WITH_UNIT(LENGTH_MEASURE(1.E-007),#382,
'distance_accuracy_value','confusion accuracy');
#386 = PRODUCT_RELATED_PRODUCT_CATEGORY('part',$,(#7));
#387 = MECHANICAL_DESIGN_GEOMETRIC_PRESENTATION_REPRESENTATION('',(#388,
#396,#403,#410,#417,#425,#432,#439,#446,#453,#460),#381);
#388 = STYLED_ITEM('color',(#389),#17);
#389 = PRESENTATION_STYLE_ASSIGNMENT((#390));
#390 = SURFACE_STYLE_USAGE(.BOTH.,#391);
#391 = SURFACE_SIDE_STYLE('',(#392));
#392 = SURFACE_STYLE_FILL_AREA(#393);
#393 = FILL_AREA_STYLE('',(#394));
#394 = FILL_AREA_STYLE_COLOUR('',#395);
#395 = COLOUR_RGB('',0.136999994516,0.402000010014,0.726999998093);
#396 = STYLED_ITEM('color',(#397),#50);
#397 = PRESENTATION_STYLE_ASSIGNMENT((#398));
#398 = SURFACE_STYLE_USAGE(.BOTH.,#399);
#399 = SURFACE_SIDE_STYLE('',(#400));
#400 = SURFACE_STYLE_FILL_AREA(#401);
#401 = FILL_AREA_STYLE('',(#402));
#402 = FILL_AREA_STYLE_COLOUR('',#395);
#403 = STYLED_ITEM('color',(#404),#143);
#404 = PRESENTATION_STYLE_ASSIGNMENT((#405));
#405 = SURFACE_STYLE_USAGE(.BOTH.,#406);
#406 = SURFACE_SIDE_STYLE('',(#407));
#407 = SURFACE_STYLE_FILL_AREA(#408);
#408 = FILL_AREA_STYLE('',(#409));
#409 = FILL_AREA_STYLE_COLOUR('',#395);
#410 = STYLED_ITEM('color',(#411),#241);
#411 = PRESENTATION_STYLE_ASSIGNMENT((#412));
#412 = SURFACE_STYLE_USAGE(.BOTH.,#413);
#413 = SURFACE_SIDE_STYLE('',(#414));
#414 = SURFACE_STYLE_FILL_AREA(#415);
#415 = FILL_AREA_STYLE('',(#416));
#416 = FILL_AREA_STYLE_COLOUR('',#395);
#417 = STYLED_ITEM('color',(#418),#250);
#418 = PRESENTATION_STYLE_ASSIGNMENT((#419));
#419 = SURFACE_STYLE_USAGE(.BOTH.,#420);
#420 = SURFACE_SIDE_STYLE('',(#421));
#421 = SURFACE_STYLE_FILL_AREA(#422);
#422 = FILL_AREA_STYLE('',(#423));
#423 = FILL_AREA_STYLE_COLOUR('',#424);
#424 = COLOUR_RGB('',0.824000000954,0.819999992847,0.78100001812);
#425 = STYLED_ITEM('color',(#426),#276);
#426 = PRESENTATION_STYLE_ASSIGNMENT((#427));
#427 = SURFACE_STYLE_USAGE(.BOTH.,#428);
#428 = SURFACE_SIDE_STYLE('',(#429));
#429 = SURFACE_STYLE_FILL_AREA(#430);
#430 = FILL_AREA_STYLE('',(#431));
#431 = FILL_AREA_STYLE_COLOUR('',#395);
#432 = STYLED_ITEM('color',(#433),#285);
#433 = PRESENTATION_STYLE_ASSIGNMENT((#434));
#434 = SURFACE_STYLE_USAGE(.BOTH.,#435);
#435 = SURFACE_SIDE_STYLE('',(#436));
#436 = SURFACE_STYLE_FILL_AREA(#437);
#437 = FILL_AREA_STYLE('',(#438));
#438 = FILL_AREA_STYLE_COLOUR('',#424);
#439 = STYLED_ITEM('color',(#440),#311);
#440 = PRESENTATION_STYLE_ASSIGNMENT((#441));
#441 = SURFACE_STYLE_USAGE(.BOTH.,#442);
#442 = SURFACE_SIDE_STYLE('',(#443));
#443 = SURFACE_STYLE_FILL_AREA(#444);
#444 = FILL_AREA_STYLE('',(#445));
#445 = FILL_AREA_STYLE_COLOUR('',#424);
#446 = STYLED_ITEM('color',(#447),#337);
#447 = PRESENTATION_STYLE_ASSIGNMENT((#448));
#448 = SURFACE_STYLE_USAGE(.BOTH.,#449);
#449 = SURFACE_SIDE_STYLE('',(#450));
#450 = SURFACE_STYLE_FILL_AREA(#451);
#451 = FILL_AREA_STYLE('',(#452));
#452 = FILL_AREA_STYLE_COLOUR('',#424);
#453 = STYLED_ITEM('color',(#454),#363);
#454 = PRESENTATION_STYLE_ASSIGNMENT((#455));
#455 = SURFACE_STYLE_USAGE(.BOTH.,#456);
#456 = SURFACE_SIDE_STYLE('',(#457));
#457 = SURFACE_STYLE_FILL_AREA(#458);
#458 = FILL_AREA_STYLE('',(#459));
#459 = FILL_AREA_STYLE_COLOUR('',#424);
#460 = STYLED_ITEM('color',(#461),#372);
#461 = PRESENTATION_STYLE_ASSIGNMENT((#462));
#462 = SURFACE_STYLE_USAGE(.BOTH.,#463);
#463 = SURFACE_SIDE_STYLE('',(#464));
#464 = SURFACE_STYLE_FILL_AREA(#465);
#465 = FILL_AREA_STYLE('',(#466));
#466 = FILL_AREA_STYLE_COLOUR('',#424);
ENDSEC;
END-ISO-10303-21;
