ISO-10303-21;
HEADER;
/* RV_Disc_D15.5mm_W11mm_P7.5mm.step 3D STEP model for use in ECAD systems
 * Copyright (C) 2018, kicad StepUp
 * 
 * This work is licensed under the [Creative Commons CC-BY-SA 4.0 License](https://creativecommons.org/licenses/by-sa/4.0/legalcode), 
 * with the following exception:
 * To the extent that the creation of electronic designs that use 'Licensed Material' can be considered to be 'Adapted Material', 
 * then the copyright holder waives article 3 of the license with respect to these designs and any generated files which use data provided 
 * as part of the 'Licensed Material'.
 * You are free to use the library data in your own projects without the obligation to share your project files under this or any other license agreement.
 * However, if you wish to redistribute these libraries, or parts thereof (including in modified form) as a collection then the exception above does not apply. 
 * Please refer to https://github.com/KiCad/kicad-packages3D/blob/master/LICENSE.md for further clarification of the exception.
 * Disclaimer of Warranties and Limitation of Liability.
 * These libraries are provided in the hope that they will be useful, but are provided without warranty of any kind, express or implied.
 * *USE 3D CAD DATA AT YOUR OWN RISK*
 * *DO NOT RELY UPON ANY INFORMATION FOUND HERE WITHOUT INDEPENDENT VERIFICATION.*
 * 
 */

FILE_DESCRIPTION(
/* description */ ('model of RV_Disc_D15.5mm_W11mm_P7.5mm'),
/* implementation_level */ '2;1');

FILE_NAME(
/* name */ 'RV_Disc_D15.5mm_W11mm_P7.5mm.step',
/* time_stamp */ '2018-11-11T20:57:31',
/* author */ ('kicad StepUp','ksu'),
/* organization */ ('FreeCAD'),
/* preprocessor_version */ 'OCC',
/* originating_system */ 'kicad StepUp',
/* authorisation */ '');

FILE_SCHEMA(('AUTOMOTIVE_DESIGN { 1 0 10303 214 1 1 1 1 }'));
ENDSEC;

DATA;
#1 = APPLICATION_PROTOCOL_DEFINITION('international standard',
'automotive_design',2000,#2);
#2 = APPLICATION_CONTEXT(
'core data for automotive mechanical design processes');
#3 = SHAPE_DEFINITION_REPRESENTATION(#4,#10);
#4 = PRODUCT_DEFINITION_SHAPE('','',#5);
#5 = PRODUCT_DEFINITION('design','',#6,#9);
#6 = PRODUCT_DEFINITION_FORMATION('','',#7);
#7 = PRODUCT('RV_Disc_D155mm_W11mm_P75mm','RV_Disc_D155mm_W11mm_P75mm',
'',(#8));
#8 = PRODUCT_CONTEXT('',#2,'mechanical');
#9 = PRODUCT_DEFINITION_CONTEXT('part definition',#2,'design');
#10 = ADVANCED_BREP_SHAPE_REPRESENTATION('',(#11,#15),#406);
#11 = AXIS2_PLACEMENT_3D('',#12,#13,#14);
#12 = CARTESIAN_POINT('',(0.E+000,0.E+000,0.E+000));
#13 = DIRECTION('',(0.E+000,0.E+000,1.));
#14 = DIRECTION('',(1.,0.E+000,-0.E+000));
#15 = MANIFOLD_SOLID_BREP('',#16);
#16 = CLOSED_SHELL('',(#17,#50,#160,#266,#275,#301,#310,#336,#362,#388,
#397));
#17 = ADVANCED_FACE('',(#18),#45,.T.);
#18 = FACE_BOUND('',#19,.F.);
#19 = EDGE_LOOP('',(#20,#30,#37,#38));
#20 = ORIENTED_EDGE('',*,*,#21,.T.);
#21 = EDGE_CURVE('',#22,#24,#26,.T.);
#22 = VERTEX_POINT('',#23);
#23 = CARTESIAN_POINT('',(11.5,-3.215853658537,7.78));
#24 = VERTEX_POINT('',#25);
#25 = CARTESIAN_POINT('',(11.5,-3.484146341463,7.78));
#26 = LINE('',#27,#28);
#27 = CARTESIAN_POINT('',(11.5,2.15,7.78));
#28 = VECTOR('',#29,1.);
#29 = DIRECTION('',(0.E+000,-1.,0.E+000));
#30 = ORIENTED_EDGE('',*,*,#31,.T.);
#31 = EDGE_CURVE('',#24,#24,#32,.T.);
#32 = CIRCLE('',#33,7.75);
#33 = AXIS2_PLACEMENT_3D('',#34,#35,#36);
#34 = CARTESIAN_POINT('',(3.75,-3.484146341463,7.78));
#35 = DIRECTION('',(0.E+000,-1.,0.E+000));
#36 = DIRECTION('',(1.,0.E+000,0.E+000));
#37 = ORIENTED_EDGE('',*,*,#21,.F.);
#38 = ORIENTED_EDGE('',*,*,#39,.F.);
#39 = EDGE_CURVE('',#22,#22,#40,.T.);
#40 = CIRCLE('',#41,7.75);
#41 = AXIS2_PLACEMENT_3D('',#42,#43,#44);
#42 = CARTESIAN_POINT('',(3.75,-3.215853658537,7.78));
#43 = DIRECTION('',(0.E+000,-1.,0.E+000));
#44 = DIRECTION('',(1.,0.E+000,0.E+000));
#45 = CYLINDRICAL_SURFACE('',#46,7.75);
#46 = AXIS2_PLACEMENT_3D('',#47,#48,#49);
#47 = CARTESIAN_POINT('',(3.75,2.15,7.78));
#48 = DIRECTION('',(0.E+000,1.,0.E+000));
#49 = DIRECTION('',(1.,0.E+000,0.E+000));
#50 = ADVANCED_FACE('',(#51,#71),#143,.T.);
#51 = FACE_BOUND('',#52,.F.);
#52 = EDGE_LOOP('',(#53,#54,#63,#70));
#53 = ORIENTED_EDGE('',*,*,#39,.T.);
#54 = ORIENTED_EDGE('',*,*,#55,.T.);
#55 = EDGE_CURVE('',#22,#56,#58,.T.);
#56 = VERTEX_POINT('',#57);
#57 = CARTESIAN_POINT('',(6.134146341463,2.15,7.78));
#58 = CIRCLE('',#59,5.365853658537);
#59 = AXIS2_PLACEMENT_3D('',#60,#61,#62);
#60 = CARTESIAN_POINT('',(6.134146341463,-3.215853658537,7.78));
#61 = DIRECTION('',(0.E+000,0.E+000,1.));
#62 = DIRECTION('',(1.,0.E+000,0.E+000));
#63 = ORIENTED_EDGE('',*,*,#64,.F.);
#64 = EDGE_CURVE('',#56,#56,#65,.T.);
#65 = CIRCLE('',#66,2.384146341463);
#66 = AXIS2_PLACEMENT_3D('',#67,#68,#69);
#67 = CARTESIAN_POINT('',(3.75,2.15,7.78));
#68 = DIRECTION('',(0.E+000,-1.,0.E+000));
#69 = DIRECTION('',(1.,0.E+000,0.E+000));
#70 = ORIENTED_EDGE('',*,*,#55,.F.);
#71 = FACE_BOUND('',#72,.F.);
#72 = EDGE_LOOP('',(#73,#103));
#73 = ORIENTED_EDGE('',*,*,#74,.T.);
#74 = EDGE_CURVE('',#75,#77,#79,.T.);
#75 = VERTEX_POINT('',#76);
#76 = CARTESIAN_POINT('',(0.36,0.E+000,2.024605554685));
#77 = VERTEX_POINT('',#78);
#78 = CARTESIAN_POINT('',(-0.339864032185,-0.118711581688,2.390108851199
));
#79 = B_SPLINE_CURVE_WITH_KNOTS('',8,(#80,#81,#82,#83,#84,#85,#86,#87,
#88,#89,#90,#91,#92,#93,#94,#95,#96,#97,#98,#99,#100,#101,#102),
.UNSPECIFIED.,.F.,.F.,(9,7,7,9),(0.E+000,0.172992860876,0.471225068629
,1.),.UNSPECIFIED.);
#80 = CARTESIAN_POINT('',(0.36,-5.551115123126E-017,2.024605554685));
#81 = CARTESIAN_POINT('',(0.36,-2.106035736573E-002,2.006306468842));
#82 = CARTESIAN_POINT('',(0.358591929719,-4.236597676082E-002,
1.988854511152));
#83 = CARTESIAN_POINT('',(0.355718452454,-6.38294466725E-002,
1.972354163195));
#84 = CARTESIAN_POINT('',(0.351323009308,-8.534594607043E-002,
1.956921433949));
#85 = CARTESIAN_POINT('',(0.345355808256,-0.106790639684,1.942681481897)
);
#86 = CARTESIAN_POINT('',(0.337780763722,-0.128018657136,1.929764092685)
);
#87 = CARTESIAN_POINT('',(0.328583386652,-0.148867655941,1.918297012323)
);
#88 = CARTESIAN_POINT('',(0.29915440764,-0.20415120889,1.891330177332));
#89 = CARTESIAN_POINT('',(0.275685176632,-0.23762496013,1.878856964332)
);
#90 = CARTESIAN_POINT('',(0.247512897447,-0.268439369935,1.87174956376)
);
#91 = CARTESIAN_POINT('',(0.215144336068,-0.29552339877,1.870457029653)
);
#92 = CARTESIAN_POINT('',(0.179423032209,-0.318012919752,1.875060496828)
);
#93 = CARTESIAN_POINT('',(0.14142862516,-0.335364249804,1.885277961954)
);
#94 = CARTESIAN_POINT('',(0.102339129663,-0.347419212428,1.900504955057)
);
#95 = CARTESIAN_POINT('',(-5.94321009283E-003,-0.36675727699,
1.954225079124));
#96 = CARTESIAN_POINT('',(-7.502939325092E-002,-0.36314435906,
2.001595841255));
#97 = CARTESIAN_POINT('',(-0.139974728682,-0.345188288971,2.058324352869
));
#98 = CARTESIAN_POINT('',(-0.198171489232,-0.315352040041,2.121187946601
));
#99 = CARTESIAN_POINT('',(-0.248103538467,-0.275955420134,2.187699404476
));
#100 = CARTESIAN_POINT('',(-0.288847268342,-0.229055702529,
2.255781328639));
#101 = CARTESIAN_POINT('',(-0.319779598824,-0.176212091824,
2.323850059234));
#102 = CARTESIAN_POINT('',(-0.339864032185,-0.118711581688,
2.390108851199));
#103 = ORIENTED_EDGE('',*,*,#104,.T.);
#104 = EDGE_CURVE('',#77,#75,#105,.T.);
#105 = B_SPLINE_CURVE_WITH_KNOTS('',8,(#106,#107,#108,#109,#110,#111,
#112,#113,#114,#115,#116,#117,#118,#119,#120,#121,#122,#123,#124,
#125,#126,#127,#128,#129,#130,#131,#132,#133,#134,#135,#136,#137,
#138,#139,#140,#141,#142),.UNSPECIFIED.,.F.,.F.,(9,7,7,7,7,9),(
0.E+000,0.197510588457,0.372566872292,0.622899744971,0.775436043983,
1.),.UNSPECIFIED.);
#106 = CARTESIAN_POINT('',(-0.339864032185,-0.118711581688,
2.390108851199));
#107 = CARTESIAN_POINT('',(-0.349447464139,-9.127479936554E-002,
2.421724710742));
#108 = CARTESIAN_POINT('',(-0.356540879024,-6.283575672761E-002,
2.452861761714));
#109 = CARTESIAN_POINT('',(-0.361043792476,-3.355840146459E-002,
2.483308388253));
#110 = CARTESIAN_POINT('',(-0.362835404027,-3.622666571007E-003,
2.512814815651));
#111 = CARTESIAN_POINT('',(-0.36177983146,2.676383597392E-002,
2.541081298204));
#112 = CARTESIAN_POINT('',(-0.357734478017,5.735483401196E-002,
2.567749929561));
#113 = CARTESIAN_POINT('',(-0.350561532449,8.785512649778E-002,
2.592400075558));
#114 = CARTESIAN_POINT('',(-0.330908164055,0.144549975289,2.634176926455
));
#115 = CARTESIAN_POINT('',(-0.319123518123,0.170841105858,2.651841510329
));
#116 = CARTESIAN_POINT('',(-0.304714659141,0.196512267919,2.667184483774
));
#117 = CARTESIAN_POINT('',(-0.287648468611,0.221218920305,2.67979578425)
);
#118 = CARTESIAN_POINT('',(-0.267971337423,0.244551066843,2.689241227924
));
#119 = CARTESIAN_POINT('',(-0.245857344889,0.26606514938,2.695138119386)
);
#120 = CARTESIAN_POINT('',(-0.221643708043,0.285342552413,2.697255094837
));
#121 = CARTESIAN_POINT('',(-0.158918998729,0.326005964559,2.693267373288
));
#122 = CARTESIAN_POINT('',(-0.118825789276,0.344676639515,2.683241238518
));
#123 = CARTESIAN_POINT('',(-7.696341925543E-002,0.357283181148,
2.665654794191));
#124 = CARTESIAN_POINT('',(-3.481233545494E-002,0.363796185068,
2.641548948485));
#125 = CARTESIAN_POINT('',(6.5090429693E-003,0.364698478366,
2.612357578256));
#126 = CARTESIAN_POINT('',(4.626594256179E-002,0.360597427942,
2.579356153158));
#127 = CARTESIAN_POINT('',(8.403564977659E-002,0.352079020932,
2.543554546256));
#128 = CARTESIAN_POINT('',(0.141268318053,0.331920314512,2.482510641824)
);
#129 = CARTESIAN_POINT('',(0.162116047115,0.322800692724,2.458610044465)
);
#130 = CARTESIAN_POINT('',(0.182078757039,0.312292312371,2.434088633814)
);
#131 = CARTESIAN_POINT('',(0.20110054897,0.300483403215,2.409095223482)
);
#132 = CARTESIAN_POINT('',(0.21913017379,0.287453472711,2.383763361093)
);
#133 = CARTESIAN_POINT('',(0.236118545685,0.273274629014,2.358214290651)
);
#134 = CARTESIAN_POINT('',(0.252016255724,0.258012903972,2.332559914926)
);
#135 = CARTESIAN_POINT('',(0.288493147342,0.217757259106,2.269137704938)
);
#136 = CARTESIAN_POINT('',(0.307727301199,0.191583017382,2.231389404622)
);
#137 = CARTESIAN_POINT('',(0.324316149858,0.16340038038,2.19398863692));
#138 = CARTESIAN_POINT('',(0.338070711519,0.13339811627,2.157264270101)
);
#139 = CARTESIAN_POINT('',(0.348770442673,0.101782003372,2.121563819991)
);
#140 = CARTESIAN_POINT('',(0.356168179827,6.87958620251E-002,
2.087266579562));
#141 = CARTESIAN_POINT('',(0.36,3.474184693792E-002,2.054792318777));
#142 = CARTESIAN_POINT('',(0.36,-4.163336342344E-017,2.024605554685));
#143 = SURFACE_OF_REVOLUTION('',#144,#157);
#144 = B_SPLINE_CURVE_WITH_KNOTS('',6,(#145,#146,#147,#148,#149,#150,
#151,#152,#153,#154,#155,#156),.UNSPECIFIED.,.F.,.F.,(7,5,7),(
0.E+000,0.785398163397,1.570796326795),.UNSPECIFIED.);
#145 = CARTESIAN_POINT('',(11.5,-3.215853658537,7.78));
#146 = CARTESIAN_POINT('',(11.5,-2.513465057124,7.78));
#147 = CARTESIAN_POINT('',(11.38966948927,-1.811077628893,7.78));
#148 = CARTESIAN_POINT('',(11.169005593508,-1.1303466717,7.78));
#149 = CARTESIAN_POINT('',(10.843689054569,-0.492964258648,7.78));
#150 = CARTESIAN_POINT('',(10.425041593356,8.171410718247E-002,7.78));
#151 = CARTESIAN_POINT('',(9.431714107182,1.075041593356,7.78));
#152 = CARTESIAN_POINT('',(8.857035741352,1.493689054569,7.78));
#153 = CARTESIAN_POINT('',(8.2196533283,1.819005593507,7.78));
#154 = CARTESIAN_POINT('',(7.538922371107,2.03966948927,7.78));
#155 = CARTESIAN_POINT('',(6.836534942876,2.15,7.78));
#156 = CARTESIAN_POINT('',(6.134146341463,2.15,7.78));
#157 = AXIS1_PLACEMENT('',#158,#159);
#158 = CARTESIAN_POINT('',(3.75,-3.215853658537,7.78));
#159 = DIRECTION('',(0.E+000,1.,0.E+000));
#160 = ADVANCED_FACE('',(#161,#181),#249,.T.);
#161 = FACE_BOUND('',#162,.T.);
#162 = EDGE_LOOP('',(#163,#164,#173,#180));
#163 = ORIENTED_EDGE('',*,*,#31,.T.);
#164 = ORIENTED_EDGE('',*,*,#165,.T.);
#165 = EDGE_CURVE('',#24,#166,#168,.T.);
#166 = VERTEX_POINT('',#167);
#167 = CARTESIAN_POINT('',(6.134146341463,-8.85,7.78));
#168 = CIRCLE('',#169,5.365853658537);
#169 = AXIS2_PLACEMENT_3D('',#170,#171,#172);
#170 = CARTESIAN_POINT('',(6.134146341463,-3.484146341463,7.78));
#171 = DIRECTION('',(0.E+000,0.E+000,-1.));
#172 = DIRECTION('',(1.,0.E+000,0.E+000));
#173 = ORIENTED_EDGE('',*,*,#174,.F.);
#174 = EDGE_CURVE('',#166,#166,#175,.T.);
#175 = CIRCLE('',#176,2.384146341463);
#176 = AXIS2_PLACEMENT_3D('',#177,#178,#179);
#177 = CARTESIAN_POINT('',(3.75,-8.85,7.78));
#178 = DIRECTION('',(0.E+000,-1.,0.E+000));
#179 = DIRECTION('',(1.,0.E+000,0.E+000));
#180 = ORIENTED_EDGE('',*,*,#165,.F.);
#181 = FACE_BOUND('',#182,.T.);
#182 = EDGE_LOOP('',(#183,#202));
#183 = ORIENTED_EDGE('',*,*,#184,.T.);
#184 = EDGE_CURVE('',#185,#187,#189,.T.);
#185 = VERTEX_POINT('',#186);
#186 = CARTESIAN_POINT('',(7.86,-6.7,2.514587839384));
#187 = VERTEX_POINT('',#188);
#188 = CARTESIAN_POINT('',(7.530133567841,-6.34126337225,1.97643759188)
);
#189 = B_SPLINE_CURVE_WITH_KNOTS('',6,(#190,#191,#192,#193,#194,#195,
#196,#197,#198,#199,#200,#201),.UNSPECIFIED.,.F.,.F.,(7,5,7),(
0.E+000,0.375670270067,1.),.UNSPECIFIED.);
#190 = CARTESIAN_POINT('',(7.86,-6.7,2.514587839384));
#191 = CARTESIAN_POINT('',(7.86,-6.66616440429,2.482452698633));
#192 = CARTESIAN_POINT('',(7.85618385884,-6.632872868371,2.448577865995)
);
#193 = CARTESIAN_POINT('',(7.848781494145,-6.60049956326,2.413510201627)
);
#194 = CARTESIAN_POINT('',(7.837995829547,-6.569360937748,2.377686321625
));
#195 = CARTESIAN_POINT('',(7.824008251784,-6.53974746214,2.341474522009)
);
#196 = CARTESIAN_POINT('',(7.778691426508,-6.465767452657,2.244959513562
));
#197 = CARTESIAN_POINT('',(7.742049303995,-6.424669649439,2.184653806547
));
#198 = CARTESIAN_POINT('',(7.697812940474,-6.389930628589,2.125773812719
));
#199 = CARTESIAN_POINT('',(7.646704207292,-6.363135473527,2.069913718813
));
#200 = CARTESIAN_POINT('',(7.590015214645,-6.346293379021,2.01921747072)
);
#201 = CARTESIAN_POINT('',(7.530133567841,-6.34126337225,1.97643759188)
);
#202 = ORIENTED_EDGE('',*,*,#203,.T.);
#203 = EDGE_CURVE('',#187,#185,#204,.T.);
#204 = B_SPLINE_CURVE_WITH_KNOTS('',8,(#205,#206,#207,#208,#209,#210,
#211,#212,#213,#214,#215,#216,#217,#218,#219,#220,#221,#222,#223,
#224,#225,#226,#227,#228,#229,#230,#231,#232,#233,#234,#235,#236,
#237,#238,#239,#240,#241,#242,#243,#244,#245,#246,#247,#248),
.UNSPECIFIED.,.F.,.F.,(9,7,7,7,7,7,9),(0.E+000,0.25545455511,
0.311982443363,0.496814302867,0.70789209197,0.872816331164,1.),
.UNSPECIFIED.);
#205 = CARTESIAN_POINT('',(7.530133567841,-6.34126337225,1.97643759188)
);
#206 = CARTESIAN_POINT('',(7.475149357493,-6.336644745925,1.937156476841
));
#207 = CARTESIAN_POINT('',(7.416636594086,-6.341428916554,1.903542519227
));
#208 = CARTESIAN_POINT('',(7.357393396611,-6.357531761911,1.878784257264
));
#209 = CARTESIAN_POINT('',(7.300993209779,-6.385597405902,1.86549036465)
);
#210 = CARTESIAN_POINT('',(7.251119860803,-6.424588967253,1.865106894117
));
#211 = CARTESIAN_POINT('',(7.210685618076,-6.471870947289,1.877707731563
));
#212 = CARTESIAN_POINT('',(7.181015348622,-6.523845380113,1.9015668545)
);
#213 = CARTESIAN_POINT('',(7.157449637709,-6.588577185259,1.940675653616
));
#214 = CARTESIAN_POINT('',(7.153674817244,-6.600391923248,1.948183043018
));
#215 = CARTESIAN_POINT('',(7.150391558784,-6.612266227763,1.956090115548
));
#216 = CARTESIAN_POINT('',(7.147594435237,-6.624175357431,1.964375169682
));
#217 = CARTESIAN_POINT('',(7.145276450077,-6.6360963265,1.973016684386)
);
#218 = CARTESIAN_POINT('',(7.143429422228,-6.64800794244,1.98199359177)
);
#219 = CARTESIAN_POINT('',(7.14204437095,-6.659890843536,1.991285549729)
);
#220 = CARTESIAN_POINT('',(7.138062959523,-6.710430520737,2.032222447348
));
#221 = CARTESIAN_POINT('',(7.13985522637,-6.74860849923,2.066708024077)
);
#222 = CARTESIAN_POINT('',(7.146141934401,-6.785688109013,2.103674686401
));
#223 = CARTESIAN_POINT('',(7.156561681451,-6.821225917113,2.142533236663
));
#224 = CARTESIAN_POINT('',(7.170770415443,-6.854877354092,2.182759133097
));
#225 = CARTESIAN_POINT('',(7.188462906531,-6.886363509368,2.223881851788
));
#226 = CARTESIAN_POINT('',(7.209383706006,-6.915435788317,2.265465015429
));
#227 = CARTESIAN_POINT('',(7.260671484492,-6.971990221488,2.354598461383
));
#228 = CARTESIAN_POINT('',(7.291888931857,-6.99858352851,2.402036728015)
);
#229 = CARTESIAN_POINT('',(7.32668599341,-7.021317901907,2.448827865808)
);
#230 = CARTESIAN_POINT('',(7.364812369728,-7.039750467071,2.494267558414
));
#231 = CARTESIAN_POINT('',(7.405952637857,-7.053313291976,2.537442659197
));
#232 = CARTESIAN_POINT('',(7.44964969384,-7.061316112264,2.577164513929)
);
#233 = CARTESIAN_POINT('',(7.495218257849,-7.062985009057,2.611962387434
));
#234 = CARTESIAN_POINT('',(7.577851286103,-7.05337043067,2.662254434359)
);
#235 = CARTESIAN_POINT('',(7.614770041692,-7.044819352777,2.680411157634
));
#236 = CARTESIAN_POINT('',(7.651391799915,-7.031569935798,2.693528766704
));
#237 = CARTESIAN_POINT('',(7.686651439183,-7.013568814895,2.700725395302
));
#238 = CARTESIAN_POINT('',(7.719489562998,-6.991124866972,2.701566446047
));
#239 = CARTESIAN_POINT('',(7.748996607956,-6.964901979614,2.696163219669
));
#240 = CARTESIAN_POINT('',(7.774548232002,-6.935850487874,2.685156066962
));
#241 = CARTESIAN_POINT('',(7.812328945748,-6.881340840863,2.657534023573
));
#242 = CARTESIAN_POINT('',(7.826332495705,-6.856489373336,2.642731950756
));
#243 = CARTESIAN_POINT('',(7.837843188735,-6.830855646167,2.625505423622
));
#244 = CARTESIAN_POINT('',(7.846886352079,-6.804743412909,2.606218773019
));
#245 = CARTESIAN_POINT('',(7.85353197677,-6.778412377033,2.585213519672)
);
#246 = CARTESIAN_POINT('',(7.857871681117,-6.752073646914,2.562786074018
));
#247 = CARTESIAN_POINT('',(7.86,-6.72589272055,2.539179285223));
#248 = CARTESIAN_POINT('',(7.86,-6.7,2.514587839384));
#249 = SURFACE_OF_REVOLUTION('',#250,#263);
#250 = B_SPLINE_CURVE_WITH_KNOTS('',6,(#251,#252,#253,#254,#255,#256,
#257,#258,#259,#260,#261,#262),.UNSPECIFIED.,.F.,.F.,(7,5,7),(
0.E+000,0.785398163397,1.570796326795),.UNSPECIFIED.);
#251 = CARTESIAN_POINT('',(11.5,-3.484146341463,7.78));
#252 = CARTESIAN_POINT('',(11.5,-4.186534942876,7.78));
#253 = CARTESIAN_POINT('',(11.38966948927,-4.888922371106,7.78));
#254 = CARTESIAN_POINT('',(11.169005593508,-5.5696533283,7.78));
#255 = CARTESIAN_POINT('',(10.843689054569,-6.207035741352,7.78));
#256 = CARTESIAN_POINT('',(10.425041593356,-6.781714107182,7.78));
#257 = CARTESIAN_POINT('',(9.431714107182,-7.775041593356,7.78));
#258 = CARTESIAN_POINT('',(8.857035741352,-8.193689054569,7.78));
#259 = CARTESIAN_POINT('',(8.2196533283,-8.519005593507,7.78));
#260 = CARTESIAN_POINT('',(7.538922371107,-8.73966948927,7.78));
#261 = CARTESIAN_POINT('',(6.836534942876,-8.85,7.78));
#262 = CARTESIAN_POINT('',(6.134146341463,-8.85,7.78));
#263 = AXIS1_PLACEMENT('',#264,#265);
#264 = CARTESIAN_POINT('',(3.75,-3.484146341463,7.78));
#265 = DIRECTION('',(0.E+000,-1.,0.E+000));
#266 = ADVANCED_FACE('',(#267),#270,.F.);
#267 = FACE_BOUND('',#268,.F.);
#268 = EDGE_LOOP('',(#269));
#269 = ORIENTED_EDGE('',*,*,#64,.T.);
#270 = PLANE('',#271);
#271 = AXIS2_PLACEMENT_3D('',#272,#273,#274);
#272 = CARTESIAN_POINT('',(3.75,2.15,7.78));
#273 = DIRECTION('',(-0.E+000,-1.,-0.E+000));
#274 = DIRECTION('',(0.E+000,0.E+000,-1.));
#275 = ADVANCED_FACE('',(#276),#296,.T.);
#276 = FACE_BOUND('',#277,.T.);
#277 = EDGE_LOOP('',(#278,#279,#287,#294,#295));
#278 = ORIENTED_EDGE('',*,*,#104,.T.);
#279 = ORIENTED_EDGE('',*,*,#280,.T.);
#280 = EDGE_CURVE('',#75,#281,#283,.T.);
#281 = VERTEX_POINT('',#282);
#282 = CARTESIAN_POINT('',(0.36,0.E+000,-2.856));
#283 = LINE('',#284,#285);
#284 = CARTESIAN_POINT('',(0.36,0.E+000,7.78));
#285 = VECTOR('',#286,1.);
#286 = DIRECTION('',(-0.E+000,-0.E+000,-1.));
#287 = ORIENTED_EDGE('',*,*,#288,.T.);
#288 = EDGE_CURVE('',#281,#281,#289,.T.);
#289 = CIRCLE('',#290,0.36);
#290 = AXIS2_PLACEMENT_3D('',#291,#292,#293);
#291 = CARTESIAN_POINT('',(0.E+000,0.E+000,-2.856));
#292 = DIRECTION('',(0.E+000,0.E+000,1.));
#293 = DIRECTION('',(1.,0.E+000,0.E+000));
#294 = ORIENTED_EDGE('',*,*,#280,.F.);
#295 = ORIENTED_EDGE('',*,*,#74,.T.);
#296 = CYLINDRICAL_SURFACE('',#297,0.36);
#297 = AXIS2_PLACEMENT_3D('',#298,#299,#300);
#298 = CARTESIAN_POINT('',(0.E+000,0.E+000,7.78));
#299 = DIRECTION('',(0.E+000,0.E+000,1.));
#300 = DIRECTION('',(1.,0.E+000,0.E+000));
#301 = ADVANCED_FACE('',(#302),#305,.T.);
#302 = FACE_BOUND('',#303,.T.);
#303 = EDGE_LOOP('',(#304));
#304 = ORIENTED_EDGE('',*,*,#174,.T.);
#305 = PLANE('',#306);
#306 = AXIS2_PLACEMENT_3D('',#307,#308,#309);
#307 = CARTESIAN_POINT('',(3.75,-8.85,7.78));
#308 = DIRECTION('',(-0.E+000,-1.,-0.E+000));
#309 = DIRECTION('',(0.E+000,0.E+000,-1.));
#310 = ADVANCED_FACE('',(#311),#331,.T.);
#311 = FACE_BOUND('',#312,.T.);
#312 = EDGE_LOOP('',(#313,#314,#322,#329,#330));
#313 = ORIENTED_EDGE('',*,*,#184,.F.);
#314 = ORIENTED_EDGE('',*,*,#315,.T.);
#315 = EDGE_CURVE('',#185,#316,#318,.T.);
#316 = VERTEX_POINT('',#317);
#317 = CARTESIAN_POINT('',(7.86,-6.7,-2.856));
#318 = LINE('',#319,#320);
#319 = CARTESIAN_POINT('',(7.86,-6.7,7.78));
#320 = VECTOR('',#321,1.);
#321 = DIRECTION('',(-0.E+000,-0.E+000,-1.));
#322 = ORIENTED_EDGE('',*,*,#323,.T.);
#323 = EDGE_CURVE('',#316,#316,#324,.T.);
#324 = CIRCLE('',#325,0.36);
#325 = AXIS2_PLACEMENT_3D('',#326,#327,#328);
#326 = CARTESIAN_POINT('',(7.5,-6.7,-2.856));
#327 = DIRECTION('',(0.E+000,0.E+000,1.));
#328 = DIRECTION('',(1.,0.E+000,0.E+000));
#329 = ORIENTED_EDGE('',*,*,#315,.F.);
#330 = ORIENTED_EDGE('',*,*,#203,.F.);
#331 = CYLINDRICAL_SURFACE('',#332,0.36);
#332 = AXIS2_PLACEMENT_3D('',#333,#334,#335);
#333 = CARTESIAN_POINT('',(7.5,-6.7,7.78));
#334 = DIRECTION('',(0.E+000,0.E+000,1.));
#335 = DIRECTION('',(1.,0.E+000,0.E+000));
#336 = ADVANCED_FACE('',(#337),#357,.T.);
#337 = FACE_BOUND('',#338,.F.);
#338 = EDGE_LOOP('',(#339,#348,#349,#350));
#339 = ORIENTED_EDGE('',*,*,#340,.F.);
#340 = EDGE_CURVE('',#281,#341,#343,.T.);
#341 = VERTEX_POINT('',#342);
#342 = CARTESIAN_POINT('',(0.216,0.E+000,-3.));
#343 = CIRCLE('',#344,0.144);
#344 = AXIS2_PLACEMENT_3D('',#345,#346,#347);
#345 = CARTESIAN_POINT('',(0.216,0.E+000,-2.856));
#346 = DIRECTION('',(-0.E+000,1.,0.E+000));
#347 = DIRECTION('',(1.,0.E+000,0.E+000));
#348 = ORIENTED_EDGE('',*,*,#288,.T.);
#349 = ORIENTED_EDGE('',*,*,#340,.T.);
#350 = ORIENTED_EDGE('',*,*,#351,.F.);
#351 = EDGE_CURVE('',#341,#341,#352,.T.);
#352 = CIRCLE('',#353,0.216);
#353 = AXIS2_PLACEMENT_3D('',#354,#355,#356);
#354 = CARTESIAN_POINT('',(0.E+000,0.E+000,-3.));
#355 = DIRECTION('',(0.E+000,0.E+000,1.));
#356 = DIRECTION('',(1.,0.E+000,0.E+000));
#357 = TOROIDAL_SURFACE('',#358,0.216,0.144);
#358 = AXIS2_PLACEMENT_3D('',#359,#360,#361);
#359 = CARTESIAN_POINT('',(0.E+000,0.E+000,-2.856));
#360 = DIRECTION('',(-0.E+000,-0.E+000,-1.));
#361 = DIRECTION('',(1.,0.E+000,0.E+000));
#362 = ADVANCED_FACE('',(#363),#383,.T.);
#363 = FACE_BOUND('',#364,.F.);
#364 = EDGE_LOOP('',(#365,#374,#375,#376));
#365 = ORIENTED_EDGE('',*,*,#366,.F.);
#366 = EDGE_CURVE('',#316,#367,#369,.T.);
#367 = VERTEX_POINT('',#368);
#368 = CARTESIAN_POINT('',(7.716,-6.7,-3.));
#369 = CIRCLE('',#370,0.144);
#370 = AXIS2_PLACEMENT_3D('',#371,#372,#373);
#371 = CARTESIAN_POINT('',(7.716,-6.7,-2.856));
#372 = DIRECTION('',(-0.E+000,1.,0.E+000));
#373 = DIRECTION('',(1.,0.E+000,0.E+000));
#374 = ORIENTED_EDGE('',*,*,#323,.T.);
#375 = ORIENTED_EDGE('',*,*,#366,.T.);
#376 = ORIENTED_EDGE('',*,*,#377,.F.);
#377 = EDGE_CURVE('',#367,#367,#378,.T.);
#378 = CIRCLE('',#379,0.216);
#379 = AXIS2_PLACEMENT_3D('',#380,#381,#382);
#380 = CARTESIAN_POINT('',(7.5,-6.7,-3.));
#381 = DIRECTION('',(0.E+000,0.E+000,1.));
#382 = DIRECTION('',(1.,0.E+000,0.E+000));
#383 = TOROIDAL_SURFACE('',#384,0.216,0.144);
#384 = AXIS2_PLACEMENT_3D('',#385,#386,#387);
#385 = CARTESIAN_POINT('',(7.5,-6.7,-2.856));
#386 = DIRECTION('',(-0.E+000,-0.E+000,-1.));
#387 = DIRECTION('',(1.,0.E+000,0.E+000));
#388 = ADVANCED_FACE('',(#389),#392,.F.);
#389 = FACE_BOUND('',#390,.F.);
#390 = EDGE_LOOP('',(#391));
#391 = ORIENTED_EDGE('',*,*,#351,.T.);
#392 = PLANE('',#393);
#393 = AXIS2_PLACEMENT_3D('',#394,#395,#396);
#394 = CARTESIAN_POINT('',(-1.483767504926E-017,1.497958850874E-017,-3.)
);
#395 = DIRECTION('',(0.E+000,0.E+000,1.));
#396 = DIRECTION('',(1.,0.E+000,0.E+000));
#397 = ADVANCED_FACE('',(#398),#401,.F.);
#398 = FACE_BOUND('',#399,.F.);
#399 = EDGE_LOOP('',(#400));
#400 = ORIENTED_EDGE('',*,*,#377,.T.);
#401 = PLANE('',#402);
#402 = AXIS2_PLACEMENT_3D('',#403,#404,#405);
#403 = CARTESIAN_POINT('',(7.5,-6.7,-3.));
#404 = DIRECTION('',(0.E+000,0.E+000,1.));
#405 = DIRECTION('',(1.,0.E+000,0.E+000));
#406 = ( GEOMETRIC_REPRESENTATION_CONTEXT(3)
GLOBAL_UNCERTAINTY_ASSIGNED_CONTEXT((#410)) GLOBAL_UNIT_ASSIGNED_CONTEXT
((#407,#408,#409)) REPRESENTATION_CONTEXT('Context #1',
'3D Context with UNIT and UNCERTAINTY') );
#407 = ( LENGTH_UNIT() NAMED_UNIT(*) SI_UNIT(.MILLI.,.METRE.) );
#408 = ( NAMED_UNIT(*) PLANE_ANGLE_UNIT() SI_UNIT($,.RADIAN.) );
#409 = ( NAMED_UNIT(*) SI_UNIT($,.STERADIAN.) SOLID_ANGLE_UNIT() );
#410 = UNCERTAINTY_MEASURE_WITH_UNIT(LENGTH_MEASURE(1.E-007),#407,
'distance_accuracy_value','confusion accuracy');
#411 = PRODUCT_RELATED_PRODUCT_CATEGORY('part',$,(#7));
#412 = MECHANICAL_DESIGN_GEOMETRIC_PRESENTATION_REPRESENTATION('',(#413,
#421,#428,#435,#442,#450,#457,#464,#471,#478,#485),#406);
#413 = STYLED_ITEM('color',(#414),#17);
#414 = PRESENTATION_STYLE_ASSIGNMENT((#415));
#415 = SURFACE_STYLE_USAGE(.BOTH.,#416);
#416 = SURFACE_SIDE_STYLE('',(#417));
#417 = SURFACE_STYLE_FILL_AREA(#418);
#418 = FILL_AREA_STYLE('',(#419));
#419 = FILL_AREA_STYLE_COLOUR('',#420);
#420 = COLOUR_RGB('',0.136999994516,0.402000010014,0.726999998093);
#421 = STYLED_ITEM('color',(#422),#50);
#422 = PRESENTATION_STYLE_ASSIGNMENT((#423));
#423 = SURFACE_STYLE_USAGE(.BOTH.,#424);
#424 = SURFACE_SIDE_STYLE('',(#425));
#425 = SURFACE_STYLE_FILL_AREA(#426);
#426 = FILL_AREA_STYLE('',(#427));
#427 = FILL_AREA_STYLE_COLOUR('',#420);
#428 = STYLED_ITEM('color',(#429),#160);
#429 = PRESENTATION_STYLE_ASSIGNMENT((#430));
#430 = SURFACE_STYLE_USAGE(.BOTH.,#431);
#431 = SURFACE_SIDE_STYLE('',(#432));
#432 = SURFACE_STYLE_FILL_AREA(#433);
#433 = FILL_AREA_STYLE('',(#434));
#434 = FILL_AREA_STYLE_COLOUR('',#420);
#435 = STYLED_ITEM('color',(#436),#266);
#436 = PRESENTATION_STYLE_ASSIGNMENT((#437));
#437 = SURFACE_STYLE_USAGE(.BOTH.,#438);
#438 = SURFACE_SIDE_STYLE('',(#439));
#439 = SURFACE_STYLE_FILL_AREA(#440);
#440 = FILL_AREA_STYLE('',(#441));
#441 = FILL_AREA_STYLE_COLOUR('',#420);
#442 = STYLED_ITEM('color',(#443),#275);
#443 = PRESENTATION_STYLE_ASSIGNMENT((#444));
#444 = SURFACE_STYLE_USAGE(.BOTH.,#445);
#445 = SURFACE_SIDE_STYLE('',(#446));
#446 = SURFACE_STYLE_FILL_AREA(#447);
#447 = FILL_AREA_STYLE('',(#448));
#448 = FILL_AREA_STYLE_COLOUR('',#449);
#449 = COLOUR_RGB('',0.824000000954,0.819999992847,0.78100001812);
#450 = STYLED_ITEM('color',(#451),#301);
#451 = PRESENTATION_STYLE_ASSIGNMENT((#452));
#452 = SURFACE_STYLE_USAGE(.BOTH.,#453);
#453 = SURFACE_SIDE_STYLE('',(#454));
#454 = SURFACE_STYLE_FILL_AREA(#455);
#455 = FILL_AREA_STYLE('',(#456));
#456 = FILL_AREA_STYLE_COLOUR('',#420);
#457 = STYLED_ITEM('color',(#458),#310);
#458 = PRESENTATION_STYLE_ASSIGNMENT((#459));
#459 = SURFACE_STYLE_USAGE(.BOTH.,#460);
#460 = SURFACE_SIDE_STYLE('',(#461));
#461 = SURFACE_STYLE_FILL_AREA(#462);
#462 = FILL_AREA_STYLE('',(#463));
#463 = FILL_AREA_STYLE_COLOUR('',#449);
#464 = STYLED_ITEM('color',(#465),#336);
#465 = PRESENTATION_STYLE_ASSIGNMENT((#466));
#466 = SURFACE_STYLE_USAGE(.BOTH.,#467);
#467 = SURFACE_SIDE_STYLE('',(#468));
#468 = SURFACE_STYLE_FILL_AREA(#469);
#469 = FILL_AREA_STYLE('',(#470));
#470 = FILL_AREA_STYLE_COLOUR('',#449);
#471 = STYLED_ITEM('color',(#472),#362);
#472 = PRESENTATION_STYLE_ASSIGNMENT((#473));
#473 = SURFACE_STYLE_USAGE(.BOTH.,#474);
#474 = SURFACE_SIDE_STYLE('',(#475));
#475 = SURFACE_STYLE_FILL_AREA(#476);
#476 = FILL_AREA_STYLE('',(#477));
#477 = FILL_AREA_STYLE_COLOUR('',#449);
#478 = STYLED_ITEM('color',(#479),#388);
#479 = PRESENTATION_STYLE_ASSIGNMENT((#480));
#480 = SURFACE_STYLE_USAGE(.BOTH.,#481);
#481 = SURFACE_SIDE_STYLE('',(#482));
#482 = SURFACE_STYLE_FILL_AREA(#483);
#483 = FILL_AREA_STYLE('',(#484));
#484 = FILL_AREA_STYLE_COLOUR('',#449);
#485 = STYLED_ITEM('color',(#486),#397);
#486 = PRESENTATION_STYLE_ASSIGNMENT((#487));
#487 = SURFACE_STYLE_USAGE(.BOTH.,#488);
#488 = SURFACE_SIDE_STYLE('',(#489));
#489 = SURFACE_STYLE_FILL_AREA(#490);
#490 = FILL_AREA_STYLE('',(#491));
#491 = FILL_AREA_STYLE_COLOUR('',#449);
ENDSEC;
END-ISO-10303-21;
