ISO-10303-21;
HEADER;
/* RV_Disc_D12mm_W5mm_P7.5mm.step 3D STEP model for use in ECAD systems
 * Copyright (C) 2018, kicad StepUp
 * 
 * This work is licensed under the [Creative Commons CC-BY-SA 4.0 License](https://creativecommons.org/licenses/by-sa/4.0/legalcode), 
 * with the following exception:
 * To the extent that the creation of electronic designs that use 'Licensed Material' can be considered to be 'Adapted Material', 
 * then the copyright holder waives article 3 of the license with respect to these designs and any generated files which use data provided 
 * as part of the 'Licensed Material'.
 * You are free to use the library data in your own projects without the obligation to share your project files under this or any other license agreement.
 * However, if you wish to redistribute these libraries, or parts thereof (including in modified form) as a collection then the exception above does not apply. 
 * Please refer to https://github.com/KiCad/kicad-packages3D/blob/master/LICENSE.md for further clarification of the exception.
 * Disclaimer of Warranties and Limitation of Liability.
 * These libraries are provided in the hope that they will be useful, but are provided without warranty of any kind, express or implied.
 * *USE 3D CAD DATA AT YOUR OWN RISK*
 * *DO NOT RELY UPON ANY INFORMATION FOUND HERE WITHOUT INDEPENDENT VERIFICATION.*
 * 
 */

FILE_DESCRIPTION(
/* description */ ('model of RV_Disc_D12mm_W5mm_P7.5mm'),
/* implementation_level */ '2;1');

FILE_NAME(
/* name */ 'RV_Disc_D12mm_W5mm_P7.5mm.step',
/* time_stamp */ '2018-11-11T20:39:29',
/* author */ ('kicad StepUp','ksu'),
/* organization */ ('FreeCAD'),
/* preprocessor_version */ 'OCC',
/* originating_system */ 'kicad StepUp',
/* authorisation */ '');

FILE_SCHEMA(('AUTOMOTIVE_DESIGN { 1 0 10303 214 1 1 1 1 }'));
ENDSEC;

DATA;
#1 = APPLICATION_PROTOCOL_DEFINITION('international standard',
'automotive_design',2000,#2);
#2 = APPLICATION_CONTEXT(
'core data for automotive mechanical design processes');
#3 = SHAPE_DEFINITION_REPRESENTATION(#4,#10);
#4 = PRODUCT_DEFINITION_SHAPE('','',#5);
#5 = PRODUCT_DEFINITION('design','',#6,#9);
#6 = PRODUCT_DEFINITION_FORMATION('','',#7);
#7 = PRODUCT('RV_Disc_D12mm_W5mm_P75mm','RV_Disc_D12mm_W5mm_P75mm','',(
#8));
#8 = PRODUCT_CONTEXT('',#2,'mechanical');
#9 = PRODUCT_DEFINITION_CONTEXT('part definition',#2,'design');
#10 = ADVANCED_BREP_SHAPE_REPRESENTATION('',(#11,#15),#389);
#11 = AXIS2_PLACEMENT_3D('',#12,#13,#14);
#12 = CARTESIAN_POINT('',(0.E+000,0.E+000,0.E+000));
#13 = DIRECTION('',(0.E+000,0.E+000,1.));
#14 = DIRECTION('',(1.,0.E+000,-0.E+000));
#15 = MANIFOLD_SOLID_BREP('',#16);
#16 = CLOSED_SHELL('',(#17,#50,#149,#249,#258,#284,#293,#319,#345,#371,
#380));
#17 = ADVANCED_FACE('',(#18),#45,.T.);
#18 = FACE_BOUND('',#19,.F.);
#19 = EDGE_LOOP('',(#20,#30,#37,#38));
#20 = ORIENTED_EDGE('',*,*,#21,.T.);
#21 = EDGE_CURVE('',#22,#24,#26,.T.);
#22 = VERTEX_POINT('',#23);
#23 = CARTESIAN_POINT('',(9.75,-1.039024390244,6.03));
#24 = VERTEX_POINT('',#25);
#25 = CARTESIAN_POINT('',(9.75,-1.160975609756,6.03));
#26 = LINE('',#27,#28);
#27 = CARTESIAN_POINT('',(9.75,1.4,6.03));
#28 = VECTOR('',#29,1.);
#29 = DIRECTION('',(0.E+000,-1.,0.E+000));
#30 = ORIENTED_EDGE('',*,*,#31,.T.);
#31 = EDGE_CURVE('',#24,#24,#32,.T.);
#32 = CIRCLE('',#33,6.);
#33 = AXIS2_PLACEMENT_3D('',#34,#35,#36);
#34 = CARTESIAN_POINT('',(3.75,-1.160975609756,6.03));
#35 = DIRECTION('',(5.478200730701E-033,-1.,-7.304267640935E-033));
#36 = DIRECTION('',(1.,5.478200730701E-033,2.969214488185E-033));
#37 = ORIENTED_EDGE('',*,*,#21,.F.);
#38 = ORIENTED_EDGE('',*,*,#39,.F.);
#39 = EDGE_CURVE('',#22,#22,#40,.T.);
#40 = CIRCLE('',#41,6.);
#41 = AXIS2_PLACEMENT_3D('',#42,#43,#44);
#42 = CARTESIAN_POINT('',(3.75,-1.039024390244,6.03));
#43 = DIRECTION('',(5.478200730701E-033,-1.,-7.304267640935E-033));
#44 = DIRECTION('',(1.,5.478200730701E-033,-2.969214488185E-033));
#45 = CYLINDRICAL_SURFACE('',#46,6.);
#46 = AXIS2_PLACEMENT_3D('',#47,#48,#49);
#47 = CARTESIAN_POINT('',(3.75,1.4,6.03));
#48 = DIRECTION('',(0.E+000,1.,0.E+000));
#49 = DIRECTION('',(1.,0.E+000,0.E+000));
#50 = ADVANCED_FACE('',(#51,#71),#144,.T.);
#51 = FACE_BOUND('',#52,.F.);
#52 = EDGE_LOOP('',(#53,#54,#63,#70));
#53 = ORIENTED_EDGE('',*,*,#39,.T.);
#54 = ORIENTED_EDGE('',*,*,#55,.T.);
#55 = EDGE_CURVE('',#22,#56,#58,.T.);
#56 = VERTEX_POINT('',#57);
#57 = CARTESIAN_POINT('',(7.310975609756,1.4,6.03));
#58 = CIRCLE('',#59,2.439024390244);
#59 = AXIS2_PLACEMENT_3D('',#60,#61,#62);
#60 = CARTESIAN_POINT('',(7.310975609756,-1.039024390244,6.03));
#61 = DIRECTION('',(2.969214488185E-033,-7.304267640935E-033,1.));
#62 = DIRECTION('',(1.,5.478200730701E-033,-2.969214488185E-033));
#63 = ORIENTED_EDGE('',*,*,#64,.F.);
#64 = EDGE_CURVE('',#56,#56,#65,.T.);
#65 = CIRCLE('',#66,3.560975609756);
#66 = AXIS2_PLACEMENT_3D('',#67,#68,#69);
#67 = CARTESIAN_POINT('',(3.75,1.4,6.03));
#68 = DIRECTION('',(5.478200730701E-033,-1.,-7.304267640935E-033));
#69 = DIRECTION('',(1.,5.478200730701E-033,-2.969214488185E-033));
#70 = ORIENTED_EDGE('',*,*,#55,.F.);
#71 = FACE_BOUND('',#72,.F.);
#72 = EDGE_LOOP('',(#73,#103));
#73 = ORIENTED_EDGE('',*,*,#74,.T.);
#74 = EDGE_CURVE('',#75,#77,#79,.T.);
#75 = VERTEX_POINT('',#76);
#76 = CARTESIAN_POINT('',(0.36,0.E+000,1.363811913055));
#77 = VERTEX_POINT('',#78);
#78 = CARTESIAN_POINT('',(-0.301569257371,-0.196611248429,1.81026898022)
);
#79 = B_SPLINE_CURVE_WITH_KNOTS('',8,(#80,#81,#82,#83,#84,#85,#86,#87,
#88,#89,#90,#91,#92,#93,#94,#95,#96,#97,#98,#99,#100,#101,#102),
.UNSPECIFIED.,.F.,.F.,(9,7,7,9),(0.E+000,0.187862922759,0.369615576349
,1.),.UNSPECIFIED.);
#80 = CARTESIAN_POINT('',(0.36,-1.665334536938E-016,1.363811913055));
#81 = CARTESIAN_POINT('',(0.36,-2.14020434943E-002,1.351355777082));
#82 = CARTESIAN_POINT('',(0.358545843019,-4.30565675453E-002,
1.340180522383));
#83 = CARTESIAN_POINT('',(0.35557766488,-6.484601699862E-002,
1.330394058612));
#84 = CARTESIAN_POINT('',(0.351045965197,-8.663429379797E-002,
1.322100212729));
#85 = CARTESIAN_POINT('',(0.344919124189,-0.108266781923,1.315391827029)
);
#86 = CARTESIAN_POINT('',(0.337190593797,-0.129573444652,1.31034347505)
);
#87 = CARTESIAN_POINT('',(0.327885763109,-0.150374994136,1.307003795383)
);
#88 = CARTESIAN_POINT('',(0.306603066197,-0.189954959581,1.303823663423)
);
#89 = CARTESIAN_POINT('',(0.29471859307,-0.208783451927,1.30387243349));
#90 = CARTESIAN_POINT('',(0.281472330167,-0.226812211047,1.305549257205)
);
#91 = CARTESIAN_POINT('',(0.266948286108,-0.243890494753,1.30883767756)
);
#92 = CARTESIAN_POINT('',(0.251252287569,-0.259886283015,1.313694029484)
);
#93 = CARTESIAN_POINT('',(0.23450700175,-0.274688986272,1.320052221021)
);
#94 = CARTESIAN_POINT('',(0.216846920422,-0.28821079698,1.327828543099)
);
#95 = CARTESIAN_POINT('',(0.134478812946,-0.342617098336,1.36848156462)
);
#96 = CARTESIAN_POINT('',(6.14272415135E-002,-0.368532520093,
1.415842694725));
#97 = CARTESIAN_POINT('',(-1.5032880959E-002,-0.375776295208,
1.474953275382));
#98 = CARTESIAN_POINT('',(-8.912299876996E-002,-0.365315653916,
1.540667260944));
#99 = CARTESIAN_POINT('',(-0.156950525905,-0.339590249627,1.609440610741
));
#100 = CARTESIAN_POINT('',(-0.215937769636,-0.301430978085,
1.678456135841));
#101 = CARTESIAN_POINT('',(-0.26467733253,-0.253197382061,1.745975886006
));
#102 = CARTESIAN_POINT('',(-0.301569257371,-0.196611248429,1.81026898022
));
#103 = ORIENTED_EDGE('',*,*,#104,.T.);
#104 = EDGE_CURVE('',#77,#75,#105,.T.);
#105 = B_SPLINE_CURVE_WITH_KNOTS('',7,(#106,#107,#108,#109,#110,#111,
#112,#113,#114,#115,#116,#117,#118,#119,#120,#121,#122,#123,#124,
#125,#126,#127,#128,#129,#130,#131,#132,#133,#134,#135,#136,#137,
#138,#139,#140,#141,#142,#143),.UNSPECIFIED.,.F.,.F.,(8,6,6,6,6,6,8)
,(0.E+000,0.203302668559,0.267946424509,0.375611304038,0.531038084942,
0.72870186832,1.),.UNSPECIFIED.);
#106 = CARTESIAN_POINT('',(-0.301569257371,-0.196611248429,1.81026898022
));
#107 = CARTESIAN_POINT('',(-0.321981749742,-0.165301848715,
1.845842680992));
#108 = CARTESIAN_POINT('',(-0.338637074685,-0.131466145287,
1.880312922277));
#109 = CARTESIAN_POINT('',(-0.351244340092,-9.549821730443E-002,
1.913311109394));
#110 = CARTESIAN_POINT('',(-0.359489855704,-5.782350463811E-002,
1.94440254018));
#111 = CARTESIAN_POINT('',(-0.363050473057,-1.893997042259E-002,
1.973049006712));
#112 = CARTESIAN_POINT('',(-0.361624148779,2.055091524967E-002,
1.998586860695));
#113 = CARTESIAN_POINT('',(-0.352864382709,7.2442553857E-002,
2.027099362431));
#114 = CARTESIAN_POINT('',(-0.350223776155,8.494673131906E-002,
2.033581802268));
#115 = CARTESIAN_POINT('',(-0.34704913878,9.741119796077E-002,
2.039641965025));
#116 = CARTESIAN_POINT('',(-0.343334961905,0.109808779167,2.045252189386
));
#117 = CARTESIAN_POINT('',(-0.33907770023,0.122110059515,2.05038379027)
);
#118 = CARTESIAN_POINT('',(-0.334276471127,0.134283611673,2.055007799403
));
#119 = CARTESIAN_POINT('',(-0.320035400216,0.166303364099,2.065904158642
));
#120 = CARTESIAN_POINT('',(-0.309633224904,0.185868057511,2.071226868217
));
#121 = CARTESIAN_POINT('',(-0.297740879555,0.204829891307,2.074929288665
));
#122 = CARTESIAN_POINT('',(-0.284400382625,0.223017182447,2.076884393195
));
#123 = CARTESIAN_POINT('',(-0.269691219649,0.24025521725,2.076988626631)
);
#124 = CARTESIAN_POINT('',(-0.253735015972,0.256378543518,2.075180322893
));
#125 = CARTESIAN_POINT('',(-0.212097665235,0.292712120629,2.066090716674
));
#126 = CARTESIAN_POINT('',(-0.185225507356,0.311577425388,2.056733945655
));
#127 = CARTESIAN_POINT('',(-0.156578594584,0.327403793205,2.043383256596
));
#128 = CARTESIAN_POINT('',(-0.126743024912,0.339964659508,2.026295678005
));
#129 = CARTESIAN_POINT('',(-9.62897472876E-002,0.349216786732,
2.005919741696));
#130 = CARTESIAN_POINT('',(-6.571926532026E-002,0.35525483228,
1.982811065148));
#131 = CARTESIAN_POINT('',(3.038066424923E-003,0.362059169633,
1.92539260715));
#132 = CARTESIAN_POINT('',(4.102104861002E-002,0.360945334824,
1.889759271044));
#133 = CARTESIAN_POINT('',(7.782302769865E-002,0.355294513421,
1.851654402379));
#134 = CARTESIAN_POINT('',(0.112985192617,0.345548663112,1.812016934876)
);
#135 = CARTESIAN_POINT('',(0.146202210696,0.332109233679,1.771611376344)
);
#136 = CARTESIAN_POINT('',(0.177256172992,0.315283512221,1.731017058874)
);
#137 = CARTESIAN_POINT('',(0.24532133911,0.267809986218,1.635367809177)
);
#138 = CARTESIAN_POINT('',(0.280136601935,0.234421085291,1.580706960769)
);
#139 = CARTESIAN_POINT('',(0.309887153504,0.195697154459,1.527950543605)
);
#140 = CARTESIAN_POINT('',(0.333819228014,0.152071797697,1.478338240339)
);
#141 = CARTESIAN_POINT('',(0.350929125156,0.104141489947,1.433329494351)
);
#142 = CARTESIAN_POINT('',(0.36,5.290499229272E-002,1.394602981107));
#143 = CARTESIAN_POINT('',(0.36,-1.665334536938E-016,1.363811913055));
#144 = TOROIDAL_SURFACE('',#145,3.560975609756,2.439024390244);
#145 = AXIS2_PLACEMENT_3D('',#146,#147,#148);
#146 = CARTESIAN_POINT('',(3.75,-1.039024390244,6.03));
#147 = DIRECTION('',(-5.478200730701E-033,1.,7.304267640935E-033));
#148 = DIRECTION('',(1.,5.478200730701E-033,-2.969214488185E-033));
#149 = ADVANCED_FACE('',(#150,#170),#244,.T.);
#150 = FACE_BOUND('',#151,.T.);
#151 = EDGE_LOOP('',(#152,#153,#162,#169));
#152 = ORIENTED_EDGE('',*,*,#31,.T.);
#153 = ORIENTED_EDGE('',*,*,#154,.T.);
#154 = EDGE_CURVE('',#24,#155,#157,.T.);
#155 = VERTEX_POINT('',#156);
#156 = CARTESIAN_POINT('',(7.310975609756,-3.6,6.03));
#157 = CIRCLE('',#158,2.439024390244);
#158 = AXIS2_PLACEMENT_3D('',#159,#160,#161);
#159 = CARTESIAN_POINT('',(7.310975609756,-1.160975609756,6.03));
#160 = DIRECTION('',(2.969214488185E-033,7.304267640935E-033,-1.));
#161 = DIRECTION('',(1.,5.478200730701E-033,2.969214488185E-033));
#162 = ORIENTED_EDGE('',*,*,#163,.F.);
#163 = EDGE_CURVE('',#155,#155,#164,.T.);
#164 = CIRCLE('',#165,3.560975609756);
#165 = AXIS2_PLACEMENT_3D('',#166,#167,#168);
#166 = CARTESIAN_POINT('',(3.75,-3.6,6.03));
#167 = DIRECTION('',(5.478200730701E-033,-1.,-7.304267640935E-033));
#168 = DIRECTION('',(1.,5.478200730701E-033,2.969214488185E-033));
#169 = ORIENTED_EDGE('',*,*,#154,.F.);
#170 = FACE_BOUND('',#171,.T.);
#171 = EDGE_LOOP('',(#172,#191));
#172 = ORIENTED_EDGE('',*,*,#173,.T.);
#173 = EDGE_CURVE('',#174,#176,#178,.T.);
#174 = VERTEX_POINT('',#175);
#175 = CARTESIAN_POINT('',(7.86,-2.2,1.983605152393));
#176 = VERTEX_POINT('',#177);
#177 = CARTESIAN_POINT('',(7.474853778826,-1.840879313377,1.450192641648
));
#178 = B_SPLINE_CURVE_WITH_KNOTS('',6,(#179,#180,#181,#182,#183,#184,
#185,#186,#187,#188,#189,#190),.UNSPECIFIED.,.F.,.F.,(7,5,7),(
0.E+000,0.526412687619,1.),.UNSPECIFIED.);
#179 = CARTESIAN_POINT('',(7.86,-2.2,1.983605152393));
#180 = CARTESIAN_POINT('',(7.86,-2.147043513322,1.94806320298));
#181 = CARTESIAN_POINT('',(7.850652153754,-2.095302245614,1.906687917762
));
#182 = CARTESIAN_POINT('',(7.832759844481,-2.046394636137,1.861317023574
));
#183 = CARTESIAN_POINT('',(7.807186354646,-2.001578335555,1.813238884993
));
#184 = CARTESIAN_POINT('',(7.774788786646,-1.961933356677,1.763475096605
));
#185 = CARTESIAN_POINT('',(7.701965282516,-1.898500535529,1.667601140622
));
#186 = CARTESIAN_POINT('',(7.662719408181,-1.873562894991,1.621688995943
));
#187 = CARTESIAN_POINT('',(7.619372180877,-1.854478453892,1.575968085741
));
#188 = CARTESIAN_POINT('',(7.572722670076,-1.842137301642,1.531295537266
));
#189 = CARTESIAN_POINT('',(7.524001038774,-1.837437941396,1.4888775534)
);
#190 = CARTESIAN_POINT('',(7.474853778826,-1.840879313377,1.450192641648
));
#191 = ORIENTED_EDGE('',*,*,#192,.T.);
#192 = EDGE_CURVE('',#176,#174,#193,.T.);
#193 = B_SPLINE_CURVE_WITH_KNOTS('',7,(#194,#195,#196,#197,#198,#199,
#200,#201,#202,#203,#204,#205,#206,#207,#208,#209,#210,#211,#212,
#213,#214,#215,#216,#217,#218,#219,#220,#221,#222,#223,#224,#225,
#226,#227,#228,#229,#230,#231,#232,#233,#234,#235,#236,#237,#238,
#239,#240,#241,#242,#243),.UNSPECIFIED.,.F.,.F.,(8,6,6,6,6,6,6,6,8),
(0.E+000,0.205384735227,0.307072889712,0.362364545521,0.529901489157,
0.688426702342,0.821444503298,0.928085566176,1.),.UNSPECIFIED.);
#194 = CARTESIAN_POINT('',(7.474853778826,-1.840879313377,1.450192641648
));
#195 = CARTESIAN_POINT('',(7.425433209729,-1.844339822914,1.411292602128
));
#196 = CARTESIAN_POINT('',(7.375550462639,-1.85580588748,1.3760274453));
#197 = CARTESIAN_POINT('',(7.326913381632,-1.875750617984,1.345923276526
));
#198 = CARTESIAN_POINT('',(7.28152209473,-1.904135633394,1.322585626358)
);
#199 = CARTESIAN_POINT('',(7.241496270346,-1.940203524047,1.307558236743
));
#200 = CARTESIAN_POINT('',(7.208625456203,-1.982261399906,1.301847495054
));
#201 = CARTESIAN_POINT('',(7.171441240076,-2.050623746226,1.30696347668)
);
#202 = CARTESIAN_POINT('',(7.161087065902,-2.07416391488,1.310896653135)
);
#203 = CARTESIAN_POINT('',(7.152793083555,-2.09833046601,1.317048676862)
);
#204 = CARTESIAN_POINT('',(7.146586973759,-2.122847130648,1.325334612207
));
#205 = CARTESIAN_POINT('',(7.142439257426,-2.14746005172,1.335624471509)
);
#206 = CARTESIAN_POINT('',(7.140280631024,-2.171949761704,1.347761784465
));
#207 = CARTESIAN_POINT('',(7.139879492525,-2.209280536401,1.369095038569
));
#208 = CARTESIAN_POINT('',(7.140299559345,-2.222339603966,1.377107073145
));
#209 = CARTESIAN_POINT('',(7.141266573303,-2.235280477031,1.385591255367
));
#210 = CARTESIAN_POINT('',(7.142764580124,-2.248077709225,1.394521216781
));
#211 = CARTESIAN_POINT('',(7.14477670874,-2.260708779221,1.403870581535)
);
#212 = CARTESIAN_POINT('',(7.147285799488,-2.273153899538,1.413613470115
));
#213 = CARTESIAN_POINT('',(7.159332582259,-2.322489574889,1.454363538048
));
#214 = CARTESIAN_POINT('',(7.172793300108,-2.35769640923,1.48836910273)
);
#215 = CARTESIAN_POINT('',(7.190186146186,-2.39057139378,1.525067391389)
);
#216 = CARTESIAN_POINT('',(7.211072965402,-2.42080330006,1.563826786893)
);
#217 = CARTESIAN_POINT('',(7.235080246496,-2.448158596894,1.604070034635
));
#218 = CARTESIAN_POINT('',(7.261907817554,-2.472423403468,1.645257024604
));
#219 = CARTESIAN_POINT('',(7.319139368116,-2.513138128404,1.726183681595
));
#220 = CARTESIAN_POINT('',(7.34923502586,-2.529911081502,1.765828052084)
);
#221 = CARTESIAN_POINT('',(7.381412018618,-2.543477236332,1.80533891246)
);
#222 = CARTESIAN_POINT('',(7.415469884583,-2.553556890141,1.844185432561
));
#223 = CARTESIAN_POINT('',(7.451134448343,-2.559785202158,1.881674244626
));
#224 = CARTESIAN_POINT('',(7.487999259701,-2.561755704496,1.916953845703
));
#225 = CARTESIAN_POINT('',(7.556913656513,-2.556867539257,1.976051608451
));
#226 = CARTESIAN_POINT('',(7.588785346592,-2.551378798053,2.000802415818
));
#227 = CARTESIAN_POINT('',(7.620630404497,-2.542420683527,2.022697902983
));
#228 = CARTESIAN_POINT('',(7.651897060651,-2.529871447762,2.04110640171)
);
#229 = CARTESIAN_POINT('',(7.681946713895,-2.513748908363,2.055489571789
));
#230 = CARTESIAN_POINT('',(7.710108270139,-2.494298777421,2.065542662576
));
#231 = CARTESIAN_POINT('',(7.756419841993,-2.454150878278,2.075854168058
));
#232 = CARTESIAN_POINT('',(7.775461174717,-2.434453736194,2.077662640311
));
#233 = CARTESIAN_POINT('',(7.792644505175,-2.413169457203,2.076685141285
));
#234 = CARTESIAN_POINT('',(7.807771139544,-2.390597546463,2.073052194948
));
#235 = CARTESIAN_POINT('',(7.820731650695,-2.367048253646,2.066972675593
));
#236 = CARTESIAN_POINT('',(7.831490437138,-2.342813496306,2.058687364469
));
#237 = CARTESIAN_POINT('',(7.845837199628,-2.301521419185,2.04152015901)
);
#238 = CARTESIAN_POINT('',(7.850620519974,-2.284693500585,2.03370976135)
);
#239 = CARTESIAN_POINT('',(7.854413486189,-2.267743388128,2.025074262676
));
#240 = CARTESIAN_POINT('',(7.857228518412,-2.250739881847,2.01568295022)
);
#241 = CARTESIAN_POINT('',(7.859083599708,-2.233745373741,2.005601651311
));
#242 = CARTESIAN_POINT('',(7.86,-2.216815701125,1.994891074783));
#243 = CARTESIAN_POINT('',(7.86,-2.2,1.983605152393));
#244 = TOROIDAL_SURFACE('',#245,3.560975609756,2.439024390244);
#245 = AXIS2_PLACEMENT_3D('',#246,#247,#248);
#246 = CARTESIAN_POINT('',(3.75,-1.160975609756,6.03));
#247 = DIRECTION('',(5.478200730701E-033,-1.,-7.304267640935E-033));
#248 = DIRECTION('',(1.,5.478200730701E-033,2.969214488185E-033));
#249 = ADVANCED_FACE('',(#250),#253,.F.);
#250 = FACE_BOUND('',#251,.F.);
#251 = EDGE_LOOP('',(#252));
#252 = ORIENTED_EDGE('',*,*,#64,.T.);
#253 = PLANE('',#254);
#254 = AXIS2_PLACEMENT_3D('',#255,#256,#257);
#255 = CARTESIAN_POINT('',(3.75,1.4,6.03));
#256 = DIRECTION('',(5.478200730701E-033,-1.,-7.304267640935E-033));
#257 = DIRECTION('',(0.E+000,7.304267640935E-033,-1.));
#258 = ADVANCED_FACE('',(#259),#279,.T.);
#259 = FACE_BOUND('',#260,.T.);
#260 = EDGE_LOOP('',(#261,#262,#270,#277,#278));
#261 = ORIENTED_EDGE('',*,*,#104,.T.);
#262 = ORIENTED_EDGE('',*,*,#263,.T.);
#263 = EDGE_CURVE('',#75,#264,#266,.T.);
#264 = VERTEX_POINT('',#265);
#265 = CARTESIAN_POINT('',(0.36,0.E+000,-2.856));
#266 = LINE('',#267,#268);
#267 = CARTESIAN_POINT('',(0.36,0.E+000,6.03));
#268 = VECTOR('',#269,1.);
#269 = DIRECTION('',(-0.E+000,-0.E+000,-1.));
#270 = ORIENTED_EDGE('',*,*,#271,.T.);
#271 = EDGE_CURVE('',#264,#264,#272,.T.);
#272 = CIRCLE('',#273,0.36);
#273 = AXIS2_PLACEMENT_3D('',#274,#275,#276);
#274 = CARTESIAN_POINT('',(0.E+000,0.E+000,-2.856));
#275 = DIRECTION('',(0.E+000,0.E+000,1.));
#276 = DIRECTION('',(1.,0.E+000,0.E+000));
#277 = ORIENTED_EDGE('',*,*,#263,.F.);
#278 = ORIENTED_EDGE('',*,*,#74,.T.);
#279 = CYLINDRICAL_SURFACE('',#280,0.36);
#280 = AXIS2_PLACEMENT_3D('',#281,#282,#283);
#281 = CARTESIAN_POINT('',(0.E+000,0.E+000,6.03));
#282 = DIRECTION('',(0.E+000,0.E+000,1.));
#283 = DIRECTION('',(1.,0.E+000,0.E+000));
#284 = ADVANCED_FACE('',(#285),#288,.T.);
#285 = FACE_BOUND('',#286,.T.);
#286 = EDGE_LOOP('',(#287));
#287 = ORIENTED_EDGE('',*,*,#163,.T.);
#288 = PLANE('',#289);
#289 = AXIS2_PLACEMENT_3D('',#290,#291,#292);
#290 = CARTESIAN_POINT('',(3.75,-3.6,6.03));
#291 = DIRECTION('',(5.478200730701E-033,-1.,-7.304267640935E-033));
#292 = DIRECTION('',(0.E+000,7.304267640935E-033,-1.));
#293 = ADVANCED_FACE('',(#294),#314,.T.);
#294 = FACE_BOUND('',#295,.T.);
#295 = EDGE_LOOP('',(#296,#297,#305,#312,#313));
#296 = ORIENTED_EDGE('',*,*,#173,.F.);
#297 = ORIENTED_EDGE('',*,*,#298,.T.);
#298 = EDGE_CURVE('',#174,#299,#301,.T.);
#299 = VERTEX_POINT('',#300);
#300 = CARTESIAN_POINT('',(7.86,-2.2,-2.856));
#301 = LINE('',#302,#303);
#302 = CARTESIAN_POINT('',(7.86,-2.2,6.03));
#303 = VECTOR('',#304,1.);
#304 = DIRECTION('',(-0.E+000,-0.E+000,-1.));
#305 = ORIENTED_EDGE('',*,*,#306,.T.);
#306 = EDGE_CURVE('',#299,#299,#307,.T.);
#307 = CIRCLE('',#308,0.36);
#308 = AXIS2_PLACEMENT_3D('',#309,#310,#311);
#309 = CARTESIAN_POINT('',(7.5,-2.2,-2.856));
#310 = DIRECTION('',(0.E+000,0.E+000,1.));
#311 = DIRECTION('',(1.,0.E+000,0.E+000));
#312 = ORIENTED_EDGE('',*,*,#298,.F.);
#313 = ORIENTED_EDGE('',*,*,#192,.F.);
#314 = CYLINDRICAL_SURFACE('',#315,0.36);
#315 = AXIS2_PLACEMENT_3D('',#316,#317,#318);
#316 = CARTESIAN_POINT('',(7.5,-2.2,6.03));
#317 = DIRECTION('',(0.E+000,0.E+000,1.));
#318 = DIRECTION('',(1.,0.E+000,0.E+000));
#319 = ADVANCED_FACE('',(#320),#340,.T.);
#320 = FACE_BOUND('',#321,.F.);
#321 = EDGE_LOOP('',(#322,#331,#332,#333));
#322 = ORIENTED_EDGE('',*,*,#323,.F.);
#323 = EDGE_CURVE('',#264,#324,#326,.T.);
#324 = VERTEX_POINT('',#325);
#325 = CARTESIAN_POINT('',(0.216,0.E+000,-3.));
#326 = CIRCLE('',#327,0.144);
#327 = AXIS2_PLACEMENT_3D('',#328,#329,#330);
#328 = CARTESIAN_POINT('',(0.216,0.E+000,-2.856));
#329 = DIRECTION('',(-0.E+000,1.,0.E+000));
#330 = DIRECTION('',(1.,0.E+000,0.E+000));
#331 = ORIENTED_EDGE('',*,*,#271,.T.);
#332 = ORIENTED_EDGE('',*,*,#323,.T.);
#333 = ORIENTED_EDGE('',*,*,#334,.F.);
#334 = EDGE_CURVE('',#324,#324,#335,.T.);
#335 = CIRCLE('',#336,0.216);
#336 = AXIS2_PLACEMENT_3D('',#337,#338,#339);
#337 = CARTESIAN_POINT('',(0.E+000,0.E+000,-3.));
#338 = DIRECTION('',(0.E+000,0.E+000,1.));
#339 = DIRECTION('',(1.,0.E+000,0.E+000));
#340 = TOROIDAL_SURFACE('',#341,0.216,0.144);
#341 = AXIS2_PLACEMENT_3D('',#342,#343,#344);
#342 = CARTESIAN_POINT('',(0.E+000,0.E+000,-2.856));
#343 = DIRECTION('',(-0.E+000,-0.E+000,-1.));
#344 = DIRECTION('',(1.,0.E+000,0.E+000));
#345 = ADVANCED_FACE('',(#346),#366,.T.);
#346 = FACE_BOUND('',#347,.F.);
#347 = EDGE_LOOP('',(#348,#357,#358,#359));
#348 = ORIENTED_EDGE('',*,*,#349,.F.);
#349 = EDGE_CURVE('',#299,#350,#352,.T.);
#350 = VERTEX_POINT('',#351);
#351 = CARTESIAN_POINT('',(7.716,-2.2,-3.));
#352 = CIRCLE('',#353,0.144);
#353 = AXIS2_PLACEMENT_3D('',#354,#355,#356);
#354 = CARTESIAN_POINT('',(7.716,-2.2,-2.856));
#355 = DIRECTION('',(-0.E+000,1.,0.E+000));
#356 = DIRECTION('',(1.,0.E+000,0.E+000));
#357 = ORIENTED_EDGE('',*,*,#306,.T.);
#358 = ORIENTED_EDGE('',*,*,#349,.T.);
#359 = ORIENTED_EDGE('',*,*,#360,.F.);
#360 = EDGE_CURVE('',#350,#350,#361,.T.);
#361 = CIRCLE('',#362,0.216);
#362 = AXIS2_PLACEMENT_3D('',#363,#364,#365);
#363 = CARTESIAN_POINT('',(7.5,-2.2,-3.));
#364 = DIRECTION('',(0.E+000,0.E+000,1.));
#365 = DIRECTION('',(1.,0.E+000,0.E+000));
#366 = TOROIDAL_SURFACE('',#367,0.216,0.144);
#367 = AXIS2_PLACEMENT_3D('',#368,#369,#370);
#368 = CARTESIAN_POINT('',(7.5,-2.2,-2.856));
#369 = DIRECTION('',(-0.E+000,-0.E+000,-1.));
#370 = DIRECTION('',(1.,0.E+000,0.E+000));
#371 = ADVANCED_FACE('',(#372),#375,.F.);
#372 = FACE_BOUND('',#373,.F.);
#373 = EDGE_LOOP('',(#374));
#374 = ORIENTED_EDGE('',*,*,#334,.T.);
#375 = PLANE('',#376);
#376 = AXIS2_PLACEMENT_3D('',#377,#378,#379);
#377 = CARTESIAN_POINT('',(-1.483767504926E-017,1.497958850874E-017,-3.)
);
#378 = DIRECTION('',(0.E+000,0.E+000,1.));
#379 = DIRECTION('',(1.,0.E+000,0.E+000));
#380 = ADVANCED_FACE('',(#381),#384,.F.);
#381 = FACE_BOUND('',#382,.F.);
#382 = EDGE_LOOP('',(#383));
#383 = ORIENTED_EDGE('',*,*,#360,.T.);
#384 = PLANE('',#385);
#385 = AXIS2_PLACEMENT_3D('',#386,#387,#388);
#386 = CARTESIAN_POINT('',(7.5,-2.2,-3.));
#387 = DIRECTION('',(0.E+000,0.E+000,1.));
#388 = DIRECTION('',(1.,0.E+000,0.E+000));
#389 = ( GEOMETRIC_REPRESENTATION_CONTEXT(3)
GLOBAL_UNCERTAINTY_ASSIGNED_CONTEXT((#393)) GLOBAL_UNIT_ASSIGNED_CONTEXT
((#390,#391,#392)) REPRESENTATION_CONTEXT('Context #1',
'3D Context with UNIT and UNCERTAINTY') );
#390 = ( LENGTH_UNIT() NAMED_UNIT(*) SI_UNIT(.MILLI.,.METRE.) );
#391 = ( NAMED_UNIT(*) PLANE_ANGLE_UNIT() SI_UNIT($,.RADIAN.) );
#392 = ( NAMED_UNIT(*) SI_UNIT($,.STERADIAN.) SOLID_ANGLE_UNIT() );
#393 = UNCERTAINTY_MEASURE_WITH_UNIT(LENGTH_MEASURE(1.E-007),#390,
'distance_accuracy_value','confusion accuracy');
#394 = PRODUCT_RELATED_PRODUCT_CATEGORY('part',$,(#7));
#395 = MECHANICAL_DESIGN_GEOMETRIC_PRESENTATION_REPRESENTATION('',(#396,
#404,#411,#418,#425,#433,#440,#447,#454,#461,#468),#389);
#396 = STYLED_ITEM('color',(#397),#17);
#397 = PRESENTATION_STYLE_ASSIGNMENT((#398));
#398 = SURFACE_STYLE_USAGE(.BOTH.,#399);
#399 = SURFACE_SIDE_STYLE('',(#400));
#400 = SURFACE_STYLE_FILL_AREA(#401);
#401 = FILL_AREA_STYLE('',(#402));
#402 = FILL_AREA_STYLE_COLOUR('',#403);
#403 = COLOUR_RGB('',0.136999994516,0.402000010014,0.726999998093);
#404 = STYLED_ITEM('color',(#405),#50);
#405 = PRESENTATION_STYLE_ASSIGNMENT((#406));
#406 = SURFACE_STYLE_USAGE(.BOTH.,#407);
#407 = SURFACE_SIDE_STYLE('',(#408));
#408 = SURFACE_STYLE_FILL_AREA(#409);
#409 = FILL_AREA_STYLE('',(#410));
#410 = FILL_AREA_STYLE_COLOUR('',#403);
#411 = STYLED_ITEM('color',(#412),#149);
#412 = PRESENTATION_STYLE_ASSIGNMENT((#413));
#413 = SURFACE_STYLE_USAGE(.BOTH.,#414);
#414 = SURFACE_SIDE_STYLE('',(#415));
#415 = SURFACE_STYLE_FILL_AREA(#416);
#416 = FILL_AREA_STYLE('',(#417));
#417 = FILL_AREA_STYLE_COLOUR('',#403);
#418 = STYLED_ITEM('color',(#419),#249);
#419 = PRESENTATION_STYLE_ASSIGNMENT((#420));
#420 = SURFACE_STYLE_USAGE(.BOTH.,#421);
#421 = SURFACE_SIDE_STYLE('',(#422));
#422 = SURFACE_STYLE_FILL_AREA(#423);
#423 = FILL_AREA_STYLE('',(#424));
#424 = FILL_AREA_STYLE_COLOUR('',#403);
#425 = STYLED_ITEM('color',(#426),#258);
#426 = PRESENTATION_STYLE_ASSIGNMENT((#427));
#427 = SURFACE_STYLE_USAGE(.BOTH.,#428);
#428 = SURFACE_SIDE_STYLE('',(#429));
#429 = SURFACE_STYLE_FILL_AREA(#430);
#430 = FILL_AREA_STYLE('',(#431));
#431 = FILL_AREA_STYLE_COLOUR('',#432);
#432 = COLOUR_RGB('',0.824000000954,0.819999992847,0.78100001812);
#433 = STYLED_ITEM('color',(#434),#284);
#434 = PRESENTATION_STYLE_ASSIGNMENT((#435));
#435 = SURFACE_STYLE_USAGE(.BOTH.,#436);
#436 = SURFACE_SIDE_STYLE('',(#437));
#437 = SURFACE_STYLE_FILL_AREA(#438);
#438 = FILL_AREA_STYLE('',(#439));
#439 = FILL_AREA_STYLE_COLOUR('',#403);
#440 = STYLED_ITEM('color',(#441),#293);
#441 = PRESENTATION_STYLE_ASSIGNMENT((#442));
#442 = SURFACE_STYLE_USAGE(.BOTH.,#443);
#443 = SURFACE_SIDE_STYLE('',(#444));
#444 = SURFACE_STYLE_FILL_AREA(#445);
#445 = FILL_AREA_STYLE('',(#446));
#446 = FILL_AREA_STYLE_COLOUR('',#432);
#447 = STYLED_ITEM('color',(#448),#319);
#448 = PRESENTATION_STYLE_ASSIGNMENT((#449));
#449 = SURFACE_STYLE_USAGE(.BOTH.,#450);
#450 = SURFACE_SIDE_STYLE('',(#451));
#451 = SURFACE_STYLE_FILL_AREA(#452);
#452 = FILL_AREA_STYLE('',(#453));
#453 = FILL_AREA_STYLE_COLOUR('',#432);
#454 = STYLED_ITEM('color',(#455),#345);
#455 = PRESENTATION_STYLE_ASSIGNMENT((#456));
#456 = SURFACE_STYLE_USAGE(.BOTH.,#457);
#457 = SURFACE_SIDE_STYLE('',(#458));
#458 = SURFACE_STYLE_FILL_AREA(#459);
#459 = FILL_AREA_STYLE('',(#460));
#460 = FILL_AREA_STYLE_COLOUR('',#432);
#461 = STYLED_ITEM('color',(#462),#371);
#462 = PRESENTATION_STYLE_ASSIGNMENT((#463));
#463 = SURFACE_STYLE_USAGE(.BOTH.,#464);
#464 = SURFACE_SIDE_STYLE('',(#465));
#465 = SURFACE_STYLE_FILL_AREA(#466);
#466 = FILL_AREA_STYLE('',(#467));
#467 = FILL_AREA_STYLE_COLOUR('',#432);
#468 = STYLED_ITEM('color',(#469),#380);
#469 = PRESENTATION_STYLE_ASSIGNMENT((#470));
#470 = SURFACE_STYLE_USAGE(.BOTH.,#471);
#471 = SURFACE_SIDE_STYLE('',(#472));
#472 = SURFACE_STYLE_FILL_AREA(#473);
#473 = FILL_AREA_STYLE('',(#474));
#474 = FILL_AREA_STYLE_COLOUR('',#432);
ENDSEC;
END-ISO-10303-21;
