ISO-10303-21;
HEADER;
FILE_DESCRIPTION(('FreeCAD Model'),'2;1');
FILE_NAME(
'D:/KiCAD/packages3D-source/Package_TO_SOT_THT.3dshapes\\
TO-8-2_Window.step','2017-11-26T14:47:27',('kicad StepUp'),('ksu MCAD'),
  'Open CASCADE STEP processor 6.8','FreeCAD','Unknown');
FILE_SCHEMA(('AUTOMOTIVE_DESIGN_CC2 { 1 2 10303 214 -1 1 5 4 }'));
ENDSEC;
DATA;
#1 = APPLICATION_PROTOCOL_DEFINITION('committee draft',
  'automotive_design',1997,#2);
#2 = APPLICATION_CONTEXT(
  'core data for automotive mechanical design processes');
#3 = SHAPE_DEFINITION_REPRESENTATION(#4,#10);
#4 = PRODUCT_DEFINITION_SHAPE('','',#5);
#5 = PRODUCT_DEFINITION('design','',#6,#9);
#6 = PRODUCT_DEFINITION_FORMATION('','',#7);
#7 = PRODUCT('TO-8-2_Window','TO-8-2_Window','',(#8));
#8 = MECHANICAL_CONTEXT('',#2,'mechanical');
#9 = PRODUCT_DEFINITION_CONTEXT('part definition',#2,'design');
#10 = ADVANCED_BREP_SHAPE_REPRESENTATION('',(#11,#15),#412);
#11 = AXIS2_PLACEMENT_3D('',#12,#13,#14);
#12 = CARTESIAN_POINT('',(0.E+000,0.E+000,0.E+000));
#13 = DIRECTION('',(0.E+000,0.E+000,1.));
#14 = DIRECTION('',(1.,0.E+000,-0.E+000));
#15 = BREP_WITH_VOIDS('',#16,(#359));
#16 = CLOSED_SHELL('',(#17,#45,#75,#100,#125,#134,#164,#189,#214,#279,
    #304,#316,#341,#350));
#17 = ADVANCED_FACE('',(#18,#29),#40,.T.);
#18 = FACE_BOUND('',#19,.T.);
#19 = EDGE_LOOP('',(#20));
#20 = ORIENTED_EDGE('',*,*,#21,.T.);
#21 = EDGE_CURVE('',#22,#22,#24,.T.);
#22 = VERTEX_POINT('',#23);
#23 = CARTESIAN_POINT('',(-2.95,8.792966355031E-015,13.2));
#24 = CIRCLE('',#25,6.5);
#25 = AXIS2_PLACEMENT_3D('',#26,#27,#28);
#26 = CARTESIAN_POINT('',(3.55,5.861977570021E-015,13.2));
#27 = DIRECTION('',(0.E+000,4.440892098501E-016,1.));
#28 = DIRECTION('',(-1.,4.5092135154E-016,-2.002493067099E-031));
#29 = FACE_BOUND('',#30,.T.);
#30 = EDGE_LOOP('',(#31));
#31 = ORIENTED_EDGE('',*,*,#32,.F.);
#32 = EDGE_CURVE('',#33,#33,#35,.T.);
#33 = VERTEX_POINT('',#34);
#34 = CARTESIAN_POINT('',(-1.95,8.792966355031E-015,13.2));
#35 = CIRCLE('',#36,5.5);
#36 = AXIS2_PLACEMENT_3D('',#37,#38,#39);
#37 = CARTESIAN_POINT('',(3.55,5.861977570021E-015,13.2));
#38 = DIRECTION('',(-4.379057701015E-047,4.440892098501E-016,1.));
#39 = DIRECTION('',(-1.,5.329070518201E-016,-2.366582715663E-031));
#40 = PLANE('',#41);
#41 = AXIS2_PLACEMENT_3D('',#42,#43,#44);
#42 = CARTESIAN_POINT('',(3.55,5.861977570021E-015,13.2));
#43 = DIRECTION('',(0.E+000,4.440892098501E-016,1.));
#44 = DIRECTION('',(-1.,4.5092135154E-016,-2.002493067099E-031));
#45 = ADVANCED_FACE('',(#46),#66,.F.);
#46 = FACE_BOUND('',#47,.F.);
#47 = EDGE_LOOP('',(#48,#49,#58,#65));
#48 = ORIENTED_EDGE('',*,*,#21,.T.);
#49 = ORIENTED_EDGE('',*,*,#50,.T.);
#50 = EDGE_CURVE('',#22,#51,#53,.T.);
#51 = VERTEX_POINT('',#52);
#52 = CARTESIAN_POINT('',(-3.05,8.726352973554E-015,13.1));
#53 = CIRCLE('',#54,9.999999999914E-002);
#54 = AXIS2_PLACEMENT_3D('',#55,#56,#57);
#55 = CARTESIAN_POINT('',(-2.950000000001,8.726352973554E-015,13.1));
#56 = DIRECTION('',(0.E+000,-1.,6.661338147751E-016));
#57 = DIRECTION('',(1.,0.E+000,0.E+000));
#58 = ORIENTED_EDGE('',*,*,#59,.F.);
#59 = EDGE_CURVE('',#51,#51,#60,.T.);
#60 = CIRCLE('',#61,6.6);
#61 = AXIS2_PLACEMENT_3D('',#62,#63,#64);
#62 = CARTESIAN_POINT('',(3.55,5.817568649036E-015,13.1));
#63 = DIRECTION('',(0.E+000,4.440892098501E-016,1.));
#64 = DIRECTION('',(-1.,4.407248976542E-016,-1.957211715605E-031));
#65 = ORIENTED_EDGE('',*,*,#50,.F.);
#66 = SURFACE_OF_REVOLUTION('',#67,#72);
#67 = CIRCLE('',#68,9.999999999914E-002);
#68 = AXIS2_PLACEMENT_3D('',#69,#70,#71);
#69 = CARTESIAN_POINT('',(-2.950000000001,8.726352973554E-015,13.1));
#70 = DIRECTION('',(0.E+000,-1.,6.661338147751E-016));
#71 = DIRECTION('',(1.,0.E+000,0.E+000));
#72 = AXIS1_PLACEMENT('',#73,#74);
#73 = CARTESIAN_POINT('',(3.55,1.13272413671E-015,2.550668));
#74 = DIRECTION('',(0.E+000,4.440892098501E-016,1.));
#75 = ADVANCED_FACE('',(#76),#95,.F.);
#76 = FACE_BOUND('',#77,.T.);
#77 = EDGE_LOOP('',(#78,#86,#87,#88));
#78 = ORIENTED_EDGE('',*,*,#79,.F.);
#79 = EDGE_CURVE('',#33,#80,#82,.T.);
#80 = VERTEX_POINT('',#81);
#81 = CARTESIAN_POINT('',(-1.95,8.626432901337E-015,12.95));
#82 = LINE('',#83,#84);
#83 = CARTESIAN_POINT('',(-1.95,8.792966355031E-015,13.2));
#84 = VECTOR('',#85,1.);
#85 = DIRECTION('',(0.E+000,-6.661338147751E-016,-1.));
#86 = ORIENTED_EDGE('',*,*,#32,.T.);
#87 = ORIENTED_EDGE('',*,*,#79,.T.);
#88 = ORIENTED_EDGE('',*,*,#89,.F.);
#89 = EDGE_CURVE('',#80,#80,#90,.T.);
#90 = CIRCLE('',#91,5.5);
#91 = AXIS2_PLACEMENT_3D('',#92,#93,#94);
#92 = CARTESIAN_POINT('',(3.55,5.750955267558E-015,12.95));
#93 = DIRECTION('',(0.E+000,4.440892098501E-016,1.));
#94 = DIRECTION('',(-1.,5.228141152326E-016,-2.321761073321E-031));
#95 = CYLINDRICAL_SURFACE('',#96,5.5);
#96 = AXIS2_PLACEMENT_3D('',#97,#98,#99);
#97 = CARTESIAN_POINT('',(3.55,5.861977570021E-015,13.2));
#98 = DIRECTION('',(0.E+000,-4.440892098501E-016,-1.));
#99 = DIRECTION('',(-1.,5.329070518201E-016,-2.366582715663E-031));
#100 = ADVANCED_FACE('',(#101),#120,.T.);
#101 = FACE_BOUND('',#102,.T.);
#102 = EDGE_LOOP('',(#103,#112,#118,#119));
#103 = ORIENTED_EDGE('',*,*,#104,.T.);
#104 = EDGE_CURVE('',#105,#105,#107,.T.);
#105 = VERTEX_POINT('',#106);
#106 = CARTESIAN_POINT('',(-3.05,3.807198143637E-015,5.715365380337));
#107 = CIRCLE('',#108,6.6);
#108 = AXIS2_PLACEMENT_3D('',#109,#110,#111);
#109 = CARTESIAN_POINT('',(3.55,2.538132095758E-015,5.715365380337));
#110 = DIRECTION('',(0.E+000,4.440892098501E-016,1.));
#111 = DIRECTION('',(-1.,1.922827345271E-016,-8.539068764396E-032));
#112 = ORIENTED_EDGE('',*,*,#113,.T.);
#113 = EDGE_CURVE('',#105,#51,#114,.T.);
#114 = LINE('',#115,#116);
#115 = CARTESIAN_POINT('',(-3.05,3.807198143637E-015,5.715365380337));
#116 = VECTOR('',#117,1.);
#117 = DIRECTION('',(0.E+000,6.661338147751E-016,1.));
#118 = ORIENTED_EDGE('',*,*,#59,.F.);
#119 = ORIENTED_EDGE('',*,*,#113,.F.);
#120 = CYLINDRICAL_SURFACE('',#121,6.6);
#121 = AXIS2_PLACEMENT_3D('',#122,#123,#124);
#122 = CARTESIAN_POINT('',(3.55,2.538132095758E-015,5.715365380337));
#123 = DIRECTION('',(0.E+000,4.440892098501E-016,1.));
#124 = DIRECTION('',(-1.,1.922827345271E-016,-8.539068764396E-032));
#125 = ADVANCED_FACE('',(#126),#129,.T.);
#126 = FACE_BOUND('',#127,.F.);
#127 = EDGE_LOOP('',(#128));
#128 = ORIENTED_EDGE('',*,*,#89,.F.);
#129 = PLANE('',#130);
#130 = AXIS2_PLACEMENT_3D('',#131,#132,#133);
#131 = CARTESIAN_POINT('',(3.55,5.750955267558E-015,12.95));
#132 = DIRECTION('',(0.E+000,4.440892098501E-016,1.));
#133 = DIRECTION('',(-1.,5.228141152326E-016,-2.321761073321E-031));
#134 = ADVANCED_FACE('',(#135),#155,.T.);
#135 = FACE_BOUND('',#136,.T.);
#136 = EDGE_LOOP('',(#137,#146,#153,#154));
#137 = ORIENTED_EDGE('',*,*,#138,.T.);
#138 = EDGE_CURVE('',#139,#139,#141,.T.);
#139 = VERTEX_POINT('',#140);
#140 = CARTESIAN_POINT('',(-3.265332172576,3.663750163064E-015,
    5.500021289717));
#141 = CIRCLE('',#142,6.815332172576);
#142 = AXIS2_PLACEMENT_3D('',#143,#144,#145);
#143 = CARTESIAN_POINT('',(3.55,2.442500108709E-015,5.500021289717));
#144 = DIRECTION('',(0.E+000,4.440892098501E-016,1.));
#145 = DIRECTION('',(-1.,1.791915673998E-016,-7.957704157839E-032));
#146 = ORIENTED_EDGE('',*,*,#147,.T.);
#147 = EDGE_CURVE('',#139,#105,#148,.T.);
#148 = CIRCLE('',#149,0.215344090949);
#149 = AXIS2_PLACEMENT_3D('',#150,#151,#152);
#150 = CARTESIAN_POINT('',(-3.265344090949,3.807198143637E-015,
    5.715365380337));
#151 = DIRECTION('',(0.E+000,-1.,6.661338147751E-016));
#152 = DIRECTION('',(1.,0.E+000,0.E+000));
#153 = ORIENTED_EDGE('',*,*,#104,.F.);
#154 = ORIENTED_EDGE('',*,*,#147,.F.);
#155 = SURFACE_OF_REVOLUTION('',#156,#161);
#156 = CIRCLE('',#157,0.215344090949);
#157 = AXIS2_PLACEMENT_3D('',#158,#159,#160);
#158 = CARTESIAN_POINT('',(-3.265344090949,3.807198143637E-015,
    5.715365380337));
#159 = DIRECTION('',(0.E+000,-1.,6.661338147751E-016));
#160 = DIRECTION('',(1.,0.E+000,0.E+000));
#161 = AXIS1_PLACEMENT('',#162,#163);
#162 = CARTESIAN_POINT('',(3.55,1.13272413671E-015,2.550668));
#163 = DIRECTION('',(0.E+000,4.440892098501E-016,1.));
#164 = ADVANCED_FACE('',(#165),#184,.T.);
#165 = FACE_BOUND('',#166,.T.);
#166 = EDGE_LOOP('',(#167,#176,#182,#183));
#167 = ORIENTED_EDGE('',*,*,#168,.T.);
#168 = EDGE_CURVE('',#169,#169,#171,.T.);
#169 = VERTEX_POINT('',#170);
#170 = CARTESIAN_POINT('',(-3.65,3.663735981263E-015,5.5));
#171 = CIRCLE('',#172,7.2);
#172 = AXIS2_PLACEMENT_3D('',#173,#174,#175);
#173 = CARTESIAN_POINT('',(3.55,2.442490654175E-015,5.5));
#174 = DIRECTION('',(-1.094764425254E-047,4.440892098501E-016,1.));
#175 = DIRECTION('',(-1.,1.6961740654E-016,-7.532526004715E-032));
#176 = ORIENTED_EDGE('',*,*,#177,.T.);
#177 = EDGE_CURVE('',#169,#139,#178,.T.);
#178 = LINE('',#179,#180);
#179 = CARTESIAN_POINT('',(-3.65,3.663735981263E-015,5.5));
#180 = VECTOR('',#181,1.);
#181 = DIRECTION('',(0.999999998468,3.686765436337E-020,
    5.534571815097E-005));
#182 = ORIENTED_EDGE('',*,*,#138,.F.);
#183 = ORIENTED_EDGE('',*,*,#177,.F.);
#184 = CONICAL_SURFACE('',#185,7.2,1.570740981077);
#185 = AXIS2_PLACEMENT_3D('',#186,#187,#188);
#186 = CARTESIAN_POINT('',(3.55,2.442490654175E-015,5.5));
#187 = DIRECTION('',(0.E+000,-4.440892098501E-016,-1.));
#188 = DIRECTION('',(-1.,1.6961740654E-016,-7.532526004715E-032));
#189 = ADVANCED_FACE('',(#190),#209,.T.);
#190 = FACE_BOUND('',#191,.T.);
#191 = EDGE_LOOP('',(#192,#201,#207,#208));
#192 = ORIENTED_EDGE('',*,*,#193,.T.);
#193 = EDGE_CURVE('',#194,#194,#196,.T.);
#194 = VERTEX_POINT('',#195);
#195 = CARTESIAN_POINT('',(-3.65,3.330669073875E-015,5.));
#196 = CIRCLE('',#197,7.2);
#197 = AXIS2_PLACEMENT_3D('',#198,#199,#200);
#198 = CARTESIAN_POINT('',(3.55,2.22044604925E-015,5.));
#199 = DIRECTION('',(0.E+000,4.440892098501E-016,1.));
#200 = DIRECTION('',(-1.,1.54197642309E-016,-6.847750913377E-032));
#201 = ORIENTED_EDGE('',*,*,#202,.T.);
#202 = EDGE_CURVE('',#194,#169,#203,.T.);
#203 = LINE('',#204,#205);
#204 = CARTESIAN_POINT('',(-3.65,3.330669073875E-015,5.));
#205 = VECTOR('',#206,1.);
#206 = DIRECTION('',(0.E+000,6.661338147751E-016,1.));
#207 = ORIENTED_EDGE('',*,*,#168,.F.);
#208 = ORIENTED_EDGE('',*,*,#202,.F.);
#209 = CYLINDRICAL_SURFACE('',#210,7.2);
#210 = AXIS2_PLACEMENT_3D('',#211,#212,#213);
#211 = CARTESIAN_POINT('',(3.55,2.22044604925E-015,5.));
#212 = DIRECTION('',(0.E+000,4.440892098501E-016,1.));
#213 = DIRECTION('',(-1.,1.54197642309E-016,-6.847750913377E-032));
#214 = ADVANCED_FACE('',(#215,#218,#229,#263),#274,.F.);
#215 = FACE_BOUND('',#216,.T.);
#216 = EDGE_LOOP('',(#217));
#217 = ORIENTED_EDGE('',*,*,#193,.F.);
#218 = FACE_BOUND('',#219,.T.);
#219 = EDGE_LOOP('',(#220));
#220 = ORIENTED_EDGE('',*,*,#221,.T.);
#221 = EDGE_CURVE('',#222,#222,#224,.T.);
#222 = VERTEX_POINT('',#223);
#223 = CARTESIAN_POINT('',(0.24,0.E+000,5.));
#224 = CIRCLE('',#225,0.24);
#225 = AXIS2_PLACEMENT_3D('',#226,#227,#228);
#226 = CARTESIAN_POINT('',(0.E+000,0.E+000,5.));
#227 = DIRECTION('',(0.E+000,0.E+000,1.));
#228 = DIRECTION('',(1.,0.E+000,0.E+000));
#229 = FACE_BOUND('',#230,.T.);
#230 = EDGE_LOOP('',(#231,#241,#249,#257));
#231 = ORIENTED_EDGE('',*,*,#232,.F.);
#232 = EDGE_CURVE('',#233,#235,#237,.T.);
#233 = VERTEX_POINT('',#234);
#234 = CARTESIAN_POINT('',(2.23594408409,-0.30405591591,5.));
#235 = VERTEX_POINT('',#236);
#236 = CARTESIAN_POINT('',(-1.794564568675,3.726452736852,5.));
#237 = LINE('',#238,#239);
#238 = CARTESIAN_POINT('',(2.23594408409,-0.30405591591,5.));
#239 = VECTOR('',#240,1.);
#240 = DIRECTION('',(-0.707106781187,0.707106781186,0.E+000));
#241 = ORIENTED_EDGE('',*,*,#242,.T.);
#242 = EDGE_CURVE('',#233,#243,#245,.T.);
#243 = VERTEX_POINT('',#244);
#244 = CARTESIAN_POINT('',(2.84405591591,0.30405591591,5.));
#245 = LINE('',#246,#247);
#246 = CARTESIAN_POINT('',(2.23594408409,-0.30405591591,5.));
#247 = VECTOR('',#248,1.);
#248 = DIRECTION('',(0.707106781186,0.707106781187,0.E+000));
#249 = ORIENTED_EDGE('',*,*,#250,.T.);
#250 = EDGE_CURVE('',#243,#251,#253,.T.);
#251 = VERTEX_POINT('',#252);
#252 = CARTESIAN_POINT('',(-1.186452736855,4.334564568672,5.));
#253 = LINE('',#254,#255);
#254 = CARTESIAN_POINT('',(2.84405591591,0.30405591591,5.));
#255 = VECTOR('',#256,1.);
#256 = DIRECTION('',(-0.707106781187,0.707106781186,0.E+000));
#257 = ORIENTED_EDGE('',*,*,#258,.F.);
#258 = EDGE_CURVE('',#235,#251,#259,.T.);
#259 = LINE('',#260,#261);
#260 = CARTESIAN_POINT('',(-1.794564568675,3.726452736852,5.));
#261 = VECTOR('',#262,1.);
#262 = DIRECTION('',(0.707106781186,0.707106781187,0.E+000));
#263 = FACE_BOUND('',#264,.T.);
#264 = EDGE_LOOP('',(#265));
#265 = ORIENTED_EDGE('',*,*,#266,.T.);
#266 = EDGE_CURVE('',#267,#267,#269,.T.);
#267 = VERTEX_POINT('',#268);
#268 = CARTESIAN_POINT('',(7.34,0.E+000,5.));
#269 = CIRCLE('',#270,0.24);
#270 = AXIS2_PLACEMENT_3D('',#271,#272,#273);
#271 = CARTESIAN_POINT('',(7.1,0.E+000,5.));
#272 = DIRECTION('',(0.E+000,0.E+000,1.));
#273 = DIRECTION('',(1.,0.E+000,0.E+000));
#274 = PLANE('',#275);
#275 = AXIS2_PLACEMENT_3D('',#276,#277,#278);
#276 = CARTESIAN_POINT('',(3.55,2.22044604925E-015,5.));
#277 = DIRECTION('',(0.E+000,4.440892098501E-016,1.));
#278 = DIRECTION('',(-1.,1.54197642309E-016,-6.847750913377E-032));
#279 = ADVANCED_FACE('',(#280),#299,.T.);
#280 = FACE_BOUND('',#281,.T.);
#281 = EDGE_LOOP('',(#282,#283,#291,#298));
#282 = ORIENTED_EDGE('',*,*,#221,.F.);
#283 = ORIENTED_EDGE('',*,*,#284,.T.);
#284 = EDGE_CURVE('',#222,#285,#287,.T.);
#285 = VERTEX_POINT('',#286);
#286 = CARTESIAN_POINT('',(0.24,0.E+000,-5.));
#287 = LINE('',#288,#289);
#288 = CARTESIAN_POINT('',(0.24,0.E+000,5.));
#289 = VECTOR('',#290,1.);
#290 = DIRECTION('',(-0.E+000,-0.E+000,-1.));
#291 = ORIENTED_EDGE('',*,*,#292,.T.);
#292 = EDGE_CURVE('',#285,#285,#293,.T.);
#293 = CIRCLE('',#294,0.24);
#294 = AXIS2_PLACEMENT_3D('',#295,#296,#297);
#295 = CARTESIAN_POINT('',(0.E+000,0.E+000,-5.));
#296 = DIRECTION('',(0.E+000,0.E+000,1.));
#297 = DIRECTION('',(1.,0.E+000,0.E+000));
#298 = ORIENTED_EDGE('',*,*,#284,.F.);
#299 = CYLINDRICAL_SURFACE('',#300,0.24);
#300 = AXIS2_PLACEMENT_3D('',#301,#302,#303);
#301 = CARTESIAN_POINT('',(0.E+000,0.E+000,5.));
#302 = DIRECTION('',(0.E+000,0.E+000,1.));
#303 = DIRECTION('',(1.,0.E+000,0.E+000));
#304 = ADVANCED_FACE('',(#305),#311,.T.);
#305 = FACE_BOUND('',#306,.T.);
#306 = EDGE_LOOP('',(#307,#308,#309,#310));
#307 = ORIENTED_EDGE('',*,*,#242,.F.);
#308 = ORIENTED_EDGE('',*,*,#232,.T.);
#309 = ORIENTED_EDGE('',*,*,#258,.T.);
#310 = ORIENTED_EDGE('',*,*,#250,.F.);
#311 = PLANE('',#312);
#312 = AXIS2_PLACEMENT_3D('',#313,#314,#315);
#313 = CARTESIAN_POINT('',(2.23594408409,-0.30405591591,5.));
#314 = DIRECTION('',(0.E+000,0.E+000,-1.));
#315 = DIRECTION('',(-1.,0.E+000,0.E+000));
#316 = ADVANCED_FACE('',(#317),#336,.T.);
#317 = FACE_BOUND('',#318,.T.);
#318 = EDGE_LOOP('',(#319,#320,#328,#335));
#319 = ORIENTED_EDGE('',*,*,#266,.F.);
#320 = ORIENTED_EDGE('',*,*,#321,.T.);
#321 = EDGE_CURVE('',#267,#322,#324,.T.);
#322 = VERTEX_POINT('',#323);
#323 = CARTESIAN_POINT('',(7.34,0.E+000,-5.));
#324 = LINE('',#325,#326);
#325 = CARTESIAN_POINT('',(7.34,0.E+000,5.));
#326 = VECTOR('',#327,1.);
#327 = DIRECTION('',(-0.E+000,-0.E+000,-1.));
#328 = ORIENTED_EDGE('',*,*,#329,.T.);
#329 = EDGE_CURVE('',#322,#322,#330,.T.);
#330 = CIRCLE('',#331,0.24);
#331 = AXIS2_PLACEMENT_3D('',#332,#333,#334);
#332 = CARTESIAN_POINT('',(7.1,0.E+000,-5.));
#333 = DIRECTION('',(0.E+000,0.E+000,1.));
#334 = DIRECTION('',(1.,0.E+000,0.E+000));
#335 = ORIENTED_EDGE('',*,*,#321,.F.);
#336 = CYLINDRICAL_SURFACE('',#337,0.24);
#337 = AXIS2_PLACEMENT_3D('',#338,#339,#340);
#338 = CARTESIAN_POINT('',(7.1,0.E+000,5.));
#339 = DIRECTION('',(0.E+000,0.E+000,1.));
#340 = DIRECTION('',(1.,0.E+000,0.E+000));
#341 = ADVANCED_FACE('',(#342),#345,.T.);
#342 = FACE_BOUND('',#343,.F.);
#343 = EDGE_LOOP('',(#344));
#344 = ORIENTED_EDGE('',*,*,#292,.T.);
#345 = PLANE('',#346);
#346 = AXIS2_PLACEMENT_3D('',#347,#348,#349);
#347 = CARTESIAN_POINT('',(0.24,0.E+000,-5.));
#348 = DIRECTION('',(0.E+000,0.E+000,-1.));
#349 = DIRECTION('',(-1.,0.E+000,0.E+000));
#350 = ADVANCED_FACE('',(#351),#354,.T.);
#351 = FACE_BOUND('',#352,.F.);
#352 = EDGE_LOOP('',(#353));
#353 = ORIENTED_EDGE('',*,*,#329,.T.);
#354 = PLANE('',#355);
#355 = AXIS2_PLACEMENT_3D('',#356,#357,#358);
#356 = CARTESIAN_POINT('',(7.34,0.E+000,-5.));
#357 = DIRECTION('',(0.E+000,0.E+000,-1.));
#358 = DIRECTION('',(-1.,0.E+000,0.E+000));
#359 = ORIENTED_CLOSED_SHELL('',*,#360,.F.);
#360 = CLOSED_SHELL('',(#361,#378,#403));
#361 = ADVANCED_FACE('',(#362),#373,.F.);
#362 = FACE_BOUND('',#363,.F.);
#363 = EDGE_LOOP('',(#364));
#364 = ORIENTED_EDGE('',*,*,#365,.T.);
#365 = EDGE_CURVE('',#366,#366,#368,.T.);
#366 = VERTEX_POINT('',#367);
#367 = CARTESIAN_POINT('',(-1.95,3.830269434957E-015,5.75));
#368 = CIRCLE('',#369,5.5);
#369 = AXIS2_PLACEMENT_3D('',#370,#371,#372);
#370 = CARTESIAN_POINT('',(3.55,2.553512956638E-015,5.75));
#371 = DIRECTION('',(0.E+000,4.440892098501E-016,1.));
#372 = DIRECTION('',(-1.,2.321375415125E-016,-1.030897773868E-031));
#373 = PLANE('',#374);
#374 = AXIS2_PLACEMENT_3D('',#375,#376,#377);
#375 = CARTESIAN_POINT('',(3.55,2.553512956638E-015,5.75));
#376 = DIRECTION('',(0.E+000,4.440892098501E-016,1.));
#377 = DIRECTION('',(-1.,2.321375415125E-016,-1.030897773868E-031));
#378 = ADVANCED_FACE('',(#379),#398,.T.);
#379 = FACE_BOUND('',#380,.F.);
#380 = EDGE_LOOP('',(#381,#390,#396,#397));
#381 = ORIENTED_EDGE('',*,*,#382,.T.);
#382 = EDGE_CURVE('',#383,#383,#385,.T.);
#383 = VERTEX_POINT('',#384);
#384 = CARTESIAN_POINT('',(-1.95,8.459899447644E-015,12.7));
#385 = CIRCLE('',#386,5.5);
#386 = AXIS2_PLACEMENT_3D('',#387,#388,#389);
#387 = CARTESIAN_POINT('',(3.55,5.639932965096E-015,12.7));
#388 = DIRECTION('',(0.E+000,4.440892098501E-016,1.));
#389 = DIRECTION('',(-1.,5.127211786451E-016,-2.276939430979E-031));
#390 = ORIENTED_EDGE('',*,*,#391,.T.);
#391 = EDGE_CURVE('',#383,#366,#392,.T.);
#392 = LINE('',#393,#394);
#393 = CARTESIAN_POINT('',(-1.95,8.792966355031E-015,13.2));
#394 = VECTOR('',#395,1.);
#395 = DIRECTION('',(0.E+000,-6.661338147751E-016,-1.));
#396 = ORIENTED_EDGE('',*,*,#365,.F.);
#397 = ORIENTED_EDGE('',*,*,#391,.F.);
#398 = CYLINDRICAL_SURFACE('',#399,5.5);
#399 = AXIS2_PLACEMENT_3D('',#400,#401,#402);
#400 = CARTESIAN_POINT('',(3.55,5.861977570021E-015,13.2));
#401 = DIRECTION('',(0.E+000,-4.440892098501E-016,-1.));
#402 = DIRECTION('',(-1.,5.329070518201E-016,-2.366582715663E-031));
#403 = ADVANCED_FACE('',(#404),#407,.T.);
#404 = FACE_BOUND('',#405,.T.);
#405 = EDGE_LOOP('',(#406));
#406 = ORIENTED_EDGE('',*,*,#382,.T.);
#407 = PLANE('',#408);
#408 = AXIS2_PLACEMENT_3D('',#409,#410,#411);
#409 = CARTESIAN_POINT('',(3.55,5.639932965096E-015,12.7));
#410 = DIRECTION('',(0.E+000,4.440892098501E-016,1.));
#411 = DIRECTION('',(-1.,5.127211786451E-016,-2.276939430979E-031));
#412 = ( GEOMETRIC_REPRESENTATION_CONTEXT(3) 
GLOBAL_UNCERTAINTY_ASSIGNED_CONTEXT((#416)) GLOBAL_UNIT_ASSIGNED_CONTEXT
((#413,#414,#415)) REPRESENTATION_CONTEXT('Context #1',
  '3D Context with UNIT and UNCERTAINTY') );
#413 = ( LENGTH_UNIT() NAMED_UNIT(*) SI_UNIT(.MILLI.,.METRE.) );
#414 = ( NAMED_UNIT(*) PLANE_ANGLE_UNIT() SI_UNIT($,.RADIAN.) );
#415 = ( NAMED_UNIT(*) SI_UNIT($,.STERADIAN.) SOLID_ANGLE_UNIT() );
#416 = UNCERTAINTY_MEASURE_WITH_UNIT(LENGTH_MEASURE(1.E-007),#413,
  'distance_accuracy_value','confusion accuracy');
#417 = PRODUCT_TYPE('part',$,(#7));
#418 = MECHANICAL_DESIGN_GEOMETRIC_PRESENTATION_REPRESENTATION('',(#419,
    #427,#434,#441,#448,#456,#463,#470,#477,#484,#492,#499,#506,#513,
    #520,#527,#534),#412);
#419 = STYLED_ITEM('color',(#420),#17);
#420 = PRESENTATION_STYLE_ASSIGNMENT((#421));
#421 = SURFACE_STYLE_USAGE(.BOTH.,#422);
#422 = SURFACE_SIDE_STYLE('',(#423));
#423 = SURFACE_STYLE_FILL_AREA(#424);
#424 = FILL_AREA_STYLE('',(#425));
#425 = FILL_AREA_STYLE_COLOUR('',#426);
#426 = COLOUR_RGB('',0.40000000596,0.40000000596,0.40000000596);
#427 = STYLED_ITEM('color',(#428),#45);
#428 = PRESENTATION_STYLE_ASSIGNMENT((#429));
#429 = SURFACE_STYLE_USAGE(.BOTH.,#430);
#430 = SURFACE_SIDE_STYLE('',(#431));
#431 = SURFACE_STYLE_FILL_AREA(#432);
#432 = FILL_AREA_STYLE('',(#433));
#433 = FILL_AREA_STYLE_COLOUR('',#426);
#434 = STYLED_ITEM('color',(#435),#75);
#435 = PRESENTATION_STYLE_ASSIGNMENT((#436));
#436 = SURFACE_STYLE_USAGE(.BOTH.,#437);
#437 = SURFACE_SIDE_STYLE('',(#438));
#438 = SURFACE_STYLE_FILL_AREA(#439);
#439 = FILL_AREA_STYLE('',(#440));
#440 = FILL_AREA_STYLE_COLOUR('',#426);
#441 = STYLED_ITEM('color',(#442),#100);
#442 = PRESENTATION_STYLE_ASSIGNMENT((#443));
#443 = SURFACE_STYLE_USAGE(.BOTH.,#444);
#444 = SURFACE_SIDE_STYLE('',(#445));
#445 = SURFACE_STYLE_FILL_AREA(#446);
#446 = FILL_AREA_STYLE('',(#447));
#447 = FILL_AREA_STYLE_COLOUR('',#426);
#448 = STYLED_ITEM('color',(#449),#125);
#449 = PRESENTATION_STYLE_ASSIGNMENT((#450));
#450 = SURFACE_STYLE_USAGE(.BOTH.,#451);
#451 = SURFACE_SIDE_STYLE('',(#452));
#452 = SURFACE_STYLE_FILL_AREA(#453);
#453 = FILL_AREA_STYLE('',(#454));
#454 = FILL_AREA_STYLE_COLOUR('',#455);
#455 = COLOUR_RGB('',0.E+000,0.631244003773,0.748015999794);
#456 = STYLED_ITEM('color',(#457),#134);
#457 = PRESENTATION_STYLE_ASSIGNMENT((#458));
#458 = SURFACE_STYLE_USAGE(.BOTH.,#459);
#459 = SURFACE_SIDE_STYLE('',(#460));
#460 = SURFACE_STYLE_FILL_AREA(#461);
#461 = FILL_AREA_STYLE('',(#462));
#462 = FILL_AREA_STYLE_COLOUR('',#426);
#463 = STYLED_ITEM('color',(#464),#164);
#464 = PRESENTATION_STYLE_ASSIGNMENT((#465));
#465 = SURFACE_STYLE_USAGE(.BOTH.,#466);
#466 = SURFACE_SIDE_STYLE('',(#467));
#467 = SURFACE_STYLE_FILL_AREA(#468);
#468 = FILL_AREA_STYLE('',(#469));
#469 = FILL_AREA_STYLE_COLOUR('',#426);
#470 = STYLED_ITEM('color',(#471),#189);
#471 = PRESENTATION_STYLE_ASSIGNMENT((#472));
#472 = SURFACE_STYLE_USAGE(.BOTH.,#473);
#473 = SURFACE_SIDE_STYLE('',(#474));
#474 = SURFACE_STYLE_FILL_AREA(#475);
#475 = FILL_AREA_STYLE('',(#476));
#476 = FILL_AREA_STYLE_COLOUR('',#426);
#477 = STYLED_ITEM('color',(#478),#214);
#478 = PRESENTATION_STYLE_ASSIGNMENT((#479));
#479 = SURFACE_STYLE_USAGE(.BOTH.,#480);
#480 = SURFACE_SIDE_STYLE('',(#481));
#481 = SURFACE_STYLE_FILL_AREA(#482);
#482 = FILL_AREA_STYLE('',(#483));
#483 = FILL_AREA_STYLE_COLOUR('',#426);
#484 = STYLED_ITEM('color',(#485),#279);
#485 = PRESENTATION_STYLE_ASSIGNMENT((#486));
#486 = SURFACE_STYLE_USAGE(.BOTH.,#487);
#487 = SURFACE_SIDE_STYLE('',(#488));
#488 = SURFACE_STYLE_FILL_AREA(#489);
#489 = FILL_AREA_STYLE('',(#490));
#490 = FILL_AREA_STYLE_COLOUR('',#491);
#491 = COLOUR_RGB('',0.85900002718,0.737999975681,0.495999991894);
#492 = STYLED_ITEM('color',(#493),#304);
#493 = PRESENTATION_STYLE_ASSIGNMENT((#494));
#494 = SURFACE_STYLE_USAGE(.BOTH.,#495);
#495 = SURFACE_SIDE_STYLE('',(#496));
#496 = SURFACE_STYLE_FILL_AREA(#497);
#497 = FILL_AREA_STYLE('',(#498));
#498 = FILL_AREA_STYLE_COLOUR('',#426);
#499 = STYLED_ITEM('color',(#500),#316);
#500 = PRESENTATION_STYLE_ASSIGNMENT((#501));
#501 = SURFACE_STYLE_USAGE(.BOTH.,#502);
#502 = SURFACE_SIDE_STYLE('',(#503));
#503 = SURFACE_STYLE_FILL_AREA(#504);
#504 = FILL_AREA_STYLE('',(#505));
#505 = FILL_AREA_STYLE_COLOUR('',#491);
#506 = STYLED_ITEM('color',(#507),#341);
#507 = PRESENTATION_STYLE_ASSIGNMENT((#508));
#508 = SURFACE_STYLE_USAGE(.BOTH.,#509);
#509 = SURFACE_SIDE_STYLE('',(#510));
#510 = SURFACE_STYLE_FILL_AREA(#511);
#511 = FILL_AREA_STYLE('',(#512));
#512 = FILL_AREA_STYLE_COLOUR('',#491);
#513 = STYLED_ITEM('color',(#514),#350);
#514 = PRESENTATION_STYLE_ASSIGNMENT((#515));
#515 = SURFACE_STYLE_USAGE(.BOTH.,#516);
#516 = SURFACE_SIDE_STYLE('',(#517));
#517 = SURFACE_STYLE_FILL_AREA(#518);
#518 = FILL_AREA_STYLE('',(#519));
#519 = FILL_AREA_STYLE_COLOUR('',#491);
#520 = STYLED_ITEM('color',(#521),#361);
#521 = PRESENTATION_STYLE_ASSIGNMENT((#522));
#522 = SURFACE_STYLE_USAGE(.BOTH.,#523);
#523 = SURFACE_SIDE_STYLE('',(#524));
#524 = SURFACE_STYLE_FILL_AREA(#525);
#525 = FILL_AREA_STYLE('',(#526));
#526 = FILL_AREA_STYLE_COLOUR('',#426);
#527 = STYLED_ITEM('color',(#528),#378);
#528 = PRESENTATION_STYLE_ASSIGNMENT((#529));
#529 = SURFACE_STYLE_USAGE(.BOTH.,#530);
#530 = SURFACE_SIDE_STYLE('',(#531));
#531 = SURFACE_STYLE_FILL_AREA(#532);
#532 = FILL_AREA_STYLE('',(#533));
#533 = FILL_AREA_STYLE_COLOUR('',#426);
#534 = STYLED_ITEM('color',(#535),#403);
#535 = PRESENTATION_STYLE_ASSIGNMENT((#536));
#536 = SURFACE_STYLE_USAGE(.BOTH.,#537);
#537 = SURFACE_SIDE_STYLE('',(#538));
#538 = SURFACE_STYLE_FILL_AREA(#539);
#539 = FILL_AREA_STYLE('',(#540));
#540 = FILL_AREA_STYLE_COLOUR('',#455);
ENDSEC;
END-ISO-10303-21;
