ISO-10303-21;
HEADER;
FILE_DESCRIPTION(('FreeCAD Model'),'2;1');
FILE_NAME(
'D:/KiCAD/packages3D-source/Diode_THT.3dshapes\\
D_A-405_P5.08mm_Vertical_AnodeUp.step','2017-11-23T21:50:14',(
    'kicad StepUp'),('ksu MCAD'),'Open CASCADE STEP processor 7.1',
  'FreeCAD','Unknown');
FILE_SCHEMA(('AUTOMOTIVE_DESIGN { 1 0 10303 214 1 1 1 1 }'));
ENDSEC;
DATA;
#1 = APPLICATION_PROTOCOL_DEFINITION('international standard',
  'automotive_design',2000,#2);
#2 = APPLICATION_CONTEXT(
  'core data for automotive mechanical design processes');
#3 = SHAPE_DEFINITION_REPRESENTATION(#4,#10);
#4 = PRODUCT_DEFINITION_SHAPE('','',#5);
#5 = PRODUCT_DEFINITION('design','',#6,#9);
#6 = PRODUCT_DEFINITION_FORMATION('','',#7);
#7 = PRODUCT('D_A-405_P5.08mm_Vertical_AnodeUp',
  'D_A-405_P5.08mm_Vertical_AnodeUp','',(#8));
#8 = PRODUCT_CONTEXT('',#2,'mechanical');
#9 = PRODUCT_DEFINITION_CONTEXT('part definition',#2,'design');
#10 = ADVANCED_BREP_SHAPE_REPRESENTATION('',(#11,#15),#350);
#11 = AXIS2_PLACEMENT_3D('',#12,#13,#14);
#12 = CARTESIAN_POINT('',(0.E+000,0.E+000,0.E+000));
#13 = DIRECTION('',(0.E+000,0.E+000,1.));
#14 = DIRECTION('',(1.,0.E+000,-0.E+000));
#15 = MANIFOLD_SOLID_BREP('',#16);
#16 = CLOSED_SHELL('',(#17,#34,#59,#79,#104,#124,#149,#169,#194,#214,
    #239,#265,#290,#316,#341));
#17 = ADVANCED_FACE('',(#18),#29,.T.);
#18 = FACE_BOUND('',#19,.F.);
#19 = EDGE_LOOP('',(#20));
#20 = ORIENTED_EDGE('',*,*,#21,.T.);
#21 = EDGE_CURVE('',#22,#22,#24,.T.);
#22 = VERTEX_POINT('',#23);
#23 = CARTESIAN_POINT('',(0.3,-7.396126227239E-016,-3.));
#24 = CIRCLE('',#25,0.3);
#25 = AXIS2_PLACEMENT_3D('',#26,#27,#28);
#26 = CARTESIAN_POINT('',(0.E+000,-6.661338147751E-016,-3.));
#27 = DIRECTION('',(-0.E+000,2.22044604925E-016,1.));
#28 = DIRECTION('',(1.,0.E+000,0.E+000));
#29 = PLANE('',#30);
#30 = AXIS2_PLACEMENT_3D('',#31,#32,#33);
#31 = CARTESIAN_POINT('',(0.3,-6.661338147751E-016,-3.));
#32 = DIRECTION('',(0.E+000,0.E+000,-1.));
#33 = DIRECTION('',(-1.,0.E+000,0.E+000));
#34 = ADVANCED_FACE('',(#35),#54,.T.);
#35 = FACE_BOUND('',#36,.T.);
#36 = EDGE_LOOP('',(#37,#38,#46,#53));
#37 = ORIENTED_EDGE('',*,*,#21,.T.);
#38 = ORIENTED_EDGE('',*,*,#39,.T.);
#39 = EDGE_CURVE('',#22,#40,#42,.T.);
#40 = VERTEX_POINT('',#41);
#41 = CARTESIAN_POINT('',(0.3,1.110223024625E-016,0.5));
#42 = LINE('',#43,#44);
#43 = CARTESIAN_POINT('',(0.3,-6.661338147751E-016,-3.));
#44 = VECTOR('',#45,1.);
#45 = DIRECTION('',(0.E+000,2.22044604925E-016,1.));
#46 = ORIENTED_EDGE('',*,*,#47,.F.);
#47 = EDGE_CURVE('',#40,#40,#48,.T.);
#48 = CIRCLE('',#49,0.3);
#49 = AXIS2_PLACEMENT_3D('',#50,#51,#52);
#50 = CARTESIAN_POINT('',(0.E+000,1.110223024625E-016,0.5));
#51 = DIRECTION('',(-0.E+000,2.22044604925E-016,1.));
#52 = DIRECTION('',(1.,0.E+000,0.E+000));
#53 = ORIENTED_EDGE('',*,*,#39,.F.);
#54 = CYLINDRICAL_SURFACE('',#55,0.3);
#55 = AXIS2_PLACEMENT_3D('',#56,#57,#58);
#56 = CARTESIAN_POINT('',(0.E+000,-6.661338147751E-016,-3.));
#57 = DIRECTION('',(0.E+000,2.22044604925E-016,1.));
#58 = DIRECTION('',(1.,0.E+000,0.E+000));
#59 = ADVANCED_FACE('',(#60,#71),#74,.T.);
#60 = FACE_BOUND('',#61,.T.);
#61 = EDGE_LOOP('',(#62));
#62 = ORIENTED_EDGE('',*,*,#63,.T.);
#63 = EDGE_CURVE('',#64,#64,#66,.T.);
#64 = VERTEX_POINT('',#65);
#65 = CARTESIAN_POINT('',(1.35,3.330669073875E-016,0.5));
#66 = CIRCLE('',#67,1.35);
#67 = AXIS2_PLACEMENT_3D('',#68,#69,#70);
#68 = CARTESIAN_POINT('',(0.E+000,2.22044604925E-016,0.5));
#69 = DIRECTION('',(0.E+000,-4.440892098501E-016,-1.));
#70 = DIRECTION('',(1.,8.223874256483E-017,-3.652133820468E-032));
#71 = FACE_BOUND('',#72,.T.);
#72 = EDGE_LOOP('',(#73));
#73 = ORIENTED_EDGE('',*,*,#47,.T.);
#74 = PLANE('',#75);
#75 = AXIS2_PLACEMENT_3D('',#76,#77,#78);
#76 = CARTESIAN_POINT('',(0.E+000,2.22044604925E-016,0.5));
#77 = DIRECTION('',(0.E+000,-4.440892098501E-016,-1.));
#78 = DIRECTION('',(1.,8.223874256483E-017,-3.652133820468E-032));
#79 = ADVANCED_FACE('',(#80),#99,.T.);
#80 = FACE_BOUND('',#81,.T.);
#81 = EDGE_LOOP('',(#82,#91,#97,#98));
#82 = ORIENTED_EDGE('',*,*,#83,.T.);
#83 = EDGE_CURVE('',#84,#84,#86,.T.);
#84 = VERTEX_POINT('',#85);
#85 = CARTESIAN_POINT('',(1.35,8.526512829121E-016,1.28));
#86 = CIRCLE('',#87,1.35);
#87 = AXIS2_PLACEMENT_3D('',#88,#89,#90);
#88 = CARTESIAN_POINT('',(0.E+000,5.684341886081E-016,1.28));
#89 = DIRECTION('',(0.E+000,-4.440892098501E-016,-1.));
#90 = DIRECTION('',(1.,9.37521665239E-016,-4.163432555333E-031));
#91 = ORIENTED_EDGE('',*,*,#92,.T.);
#92 = EDGE_CURVE('',#84,#64,#93,.T.);
#93 = LINE('',#94,#95);
#94 = CARTESIAN_POINT('',(1.35,3.796962744218E-015,5.7));
#95 = VECTOR('',#96,1.);
#96 = DIRECTION('',(0.E+000,-6.661338147751E-016,-1.));
#97 = ORIENTED_EDGE('',*,*,#63,.F.);
#98 = ORIENTED_EDGE('',*,*,#92,.F.);
#99 = CYLINDRICAL_SURFACE('',#100,1.35);
#100 = AXIS2_PLACEMENT_3D('',#101,#102,#103);
#101 = CARTESIAN_POINT('',(0.E+000,2.531308496145E-015,5.7));
#102 = DIRECTION('',(0.E+000,-4.440892098501E-016,-1.));
#103 = DIRECTION('',(1.,9.37521665239E-016,-4.163432555333E-031));
#104 = ADVANCED_FACE('',(#105,#116),#119,.T.);
#105 = FACE_BOUND('',#106,.T.);
#106 = EDGE_LOOP('',(#107));
#107 = ORIENTED_EDGE('',*,*,#108,.T.);
#108 = EDGE_CURVE('',#109,#109,#111,.T.);
#109 = VERTEX_POINT('',#110);
#110 = CARTESIAN_POINT('',(1.36,8.526512829121E-016,1.28));
#111 = CIRCLE('',#112,1.36);
#112 = AXIS2_PLACEMENT_3D('',#113,#114,#115);
#113 = CARTESIAN_POINT('',(0.E+000,5.684341886081E-016,1.28));
#114 = DIRECTION('',(0.E+000,-4.440892098501E-016,-1.));
#115 = DIRECTION('',(1.,2.089831575765E-016,-9.280716532012E-032));
#116 = FACE_BOUND('',#117,.T.);
#117 = EDGE_LOOP('',(#118));
#118 = ORIENTED_EDGE('',*,*,#83,.F.);
#119 = PLANE('',#120);
#120 = AXIS2_PLACEMENT_3D('',#121,#122,#123);
#121 = CARTESIAN_POINT('',(0.E+000,5.684341886081E-016,1.28));
#122 = DIRECTION('',(0.E+000,-4.440892098501E-016,-1.));
#123 = DIRECTION('',(1.,2.089831575765E-016,-9.280716532012E-032));
#124 = ADVANCED_FACE('',(#125),#144,.T.);
#125 = FACE_BOUND('',#126,.T.);
#126 = EDGE_LOOP('',(#127,#136,#142,#143));
#127 = ORIENTED_EDGE('',*,*,#128,.T.);
#128 = EDGE_CURVE('',#129,#129,#131,.T.);
#129 = VERTEX_POINT('',#130);
#130 = CARTESIAN_POINT('',(1.36,1.71862524212E-015,2.58));
#131 = CIRCLE('',#132,1.36);
#132 = AXIS2_PLACEMENT_3D('',#133,#134,#135);
#133 = CARTESIAN_POINT('',(0.E+000,1.145750161413E-015,2.58));
#134 = DIRECTION('',(0.E+000,-4.440892098501E-016,-1.));
#135 = DIRECTION('',(1.,4.212316769901E-016,-1.870644425984E-031));
#136 = ORIENTED_EDGE('',*,*,#137,.T.);
#137 = EDGE_CURVE('',#129,#109,#138,.T.);
#138 = LINE('',#139,#140);
#139 = CARTESIAN_POINT('',(1.36,1.71862524212E-015,2.58));
#140 = VECTOR('',#141,1.);
#141 = DIRECTION('',(0.E+000,-6.661338147751E-016,-1.));
#142 = ORIENTED_EDGE('',*,*,#108,.F.);
#143 = ORIENTED_EDGE('',*,*,#137,.F.);
#144 = CYLINDRICAL_SURFACE('',#145,1.36);
#145 = AXIS2_PLACEMENT_3D('',#146,#147,#148);
#146 = CARTESIAN_POINT('',(0.E+000,1.145750161413E-015,2.58));
#147 = DIRECTION('',(0.E+000,-4.440892098501E-016,-1.));
#148 = DIRECTION('',(1.,4.212316769901E-016,-1.870644425984E-031));
#149 = ADVANCED_FACE('',(#150,#153),#164,.F.);
#150 = FACE_BOUND('',#151,.T.);
#151 = EDGE_LOOP('',(#152));
#152 = ORIENTED_EDGE('',*,*,#128,.F.);
#153 = FACE_BOUND('',#154,.T.);
#154 = EDGE_LOOP('',(#155));
#155 = ORIENTED_EDGE('',*,*,#156,.T.);
#156 = EDGE_CURVE('',#157,#157,#159,.T.);
#157 = VERTEX_POINT('',#158);
#158 = CARTESIAN_POINT('',(1.35,1.71862524212E-015,2.58));
#159 = CIRCLE('',#160,1.35);
#160 = AXIS2_PLACEMENT_3D('',#161,#162,#163);
#161 = CARTESIAN_POINT('',(0.E+000,1.145750161413E-015,2.58));
#162 = DIRECTION('',(0.E+000,-4.440892098501E-016,-1.));
#163 = DIRECTION('',(1.,9.37521665239E-016,-4.163432555333E-031));
#164 = PLANE('',#165);
#165 = AXIS2_PLACEMENT_3D('',#166,#167,#168);
#166 = CARTESIAN_POINT('',(0.E+000,1.145750161413E-015,2.58));
#167 = DIRECTION('',(0.E+000,-4.440892098501E-016,-1.));
#168 = DIRECTION('',(1.,4.212316769901E-016,-1.870644425984E-031));
#169 = ADVANCED_FACE('',(#170),#189,.T.);
#170 = FACE_BOUND('',#171,.T.);
#171 = EDGE_LOOP('',(#172,#180,#187,#188));
#172 = ORIENTED_EDGE('',*,*,#173,.F.);
#173 = EDGE_CURVE('',#174,#157,#176,.T.);
#174 = VERTEX_POINT('',#175);
#175 = CARTESIAN_POINT('',(1.35,3.796962744218E-015,5.7));
#176 = LINE('',#177,#178);
#177 = CARTESIAN_POINT('',(1.35,3.796962744218E-015,5.7));
#178 = VECTOR('',#179,1.);
#179 = DIRECTION('',(0.E+000,-6.661338147751E-016,-1.));
#180 = ORIENTED_EDGE('',*,*,#181,.T.);
#181 = EDGE_CURVE('',#174,#174,#182,.T.);
#182 = CIRCLE('',#183,1.35);
#183 = AXIS2_PLACEMENT_3D('',#184,#185,#186);
#184 = CARTESIAN_POINT('',(0.E+000,2.531308496145E-015,5.7));
#185 = DIRECTION('',(0.E+000,-4.440892098501E-016,-1.));
#186 = DIRECTION('',(1.,9.37521665239E-016,-4.163432555333E-031));
#187 = ORIENTED_EDGE('',*,*,#173,.T.);
#188 = ORIENTED_EDGE('',*,*,#156,.F.);
#189 = CYLINDRICAL_SURFACE('',#190,1.35);
#190 = AXIS2_PLACEMENT_3D('',#191,#192,#193);
#191 = CARTESIAN_POINT('',(0.E+000,2.531308496145E-015,5.7));
#192 = DIRECTION('',(0.E+000,-4.440892098501E-016,-1.));
#193 = DIRECTION('',(1.,9.37521665239E-016,-4.163432555333E-031));
#194 = ADVANCED_FACE('',(#195,#198),#209,.F.);
#195 = FACE_BOUND('',#196,.T.);
#196 = EDGE_LOOP('',(#197));
#197 = ORIENTED_EDGE('',*,*,#181,.F.);
#198 = FACE_BOUND('',#199,.T.);
#199 = EDGE_LOOP('',(#200));
#200 = ORIENTED_EDGE('',*,*,#201,.F.);
#201 = EDGE_CURVE('',#202,#202,#204,.T.);
#202 = VERTEX_POINT('',#203);
#203 = CARTESIAN_POINT('',(0.3,1.265654248073E-015,5.7));
#204 = CIRCLE('',#205,0.3);
#205 = AXIS2_PLACEMENT_3D('',#206,#207,#208);
#206 = CARTESIAN_POINT('',(0.E+000,1.265654248073E-015,5.7));
#207 = DIRECTION('',(-0.E+000,2.22044604925E-016,1.));
#208 = DIRECTION('',(1.,0.E+000,0.E+000));
#209 = PLANE('',#210);
#210 = AXIS2_PLACEMENT_3D('',#211,#212,#213);
#211 = CARTESIAN_POINT('',(0.E+000,2.531308496145E-015,5.7));
#212 = DIRECTION('',(0.E+000,-4.440892098501E-016,-1.));
#213 = DIRECTION('',(1.,9.37521665239E-016,-4.163432555333E-031));
#214 = ADVANCED_FACE('',(#215),#234,.T.);
#215 = FACE_BOUND('',#216,.T.);
#216 = EDGE_LOOP('',(#217,#218,#226,#233));
#217 = ORIENTED_EDGE('',*,*,#201,.T.);
#218 = ORIENTED_EDGE('',*,*,#219,.T.);
#219 = EDGE_CURVE('',#202,#220,#222,.T.);
#220 = VERTEX_POINT('',#221);
#221 = CARTESIAN_POINT('',(0.3,1.376676550535E-015,6.2));
#222 = LINE('',#223,#224);
#223 = CARTESIAN_POINT('',(0.3,-6.661338147751E-016,-3.));
#224 = VECTOR('',#225,1.);
#225 = DIRECTION('',(0.E+000,2.22044604925E-016,1.));
#226 = ORIENTED_EDGE('',*,*,#227,.F.);
#227 = EDGE_CURVE('',#220,#220,#228,.T.);
#228 = CIRCLE('',#229,0.3);
#229 = AXIS2_PLACEMENT_3D('',#230,#231,#232);
#230 = CARTESIAN_POINT('',(0.E+000,1.376676550535E-015,6.2));
#231 = DIRECTION('',(-0.E+000,2.22044604925E-016,1.));
#232 = DIRECTION('',(1.,0.E+000,0.E+000));
#233 = ORIENTED_EDGE('',*,*,#219,.F.);
#234 = CYLINDRICAL_SURFACE('',#235,0.3);
#235 = AXIS2_PLACEMENT_3D('',#236,#237,#238);
#236 = CARTESIAN_POINT('',(0.E+000,-6.661338147751E-016,-3.));
#237 = DIRECTION('',(0.E+000,2.22044604925E-016,1.));
#238 = DIRECTION('',(1.,0.E+000,0.E+000));
#239 = ADVANCED_FACE('',(#240),#260,.T.);
#240 = FACE_BOUND('',#241,.T.);
#241 = EDGE_LOOP('',(#242,#251,#258,#259));
#242 = ORIENTED_EDGE('',*,*,#243,.T.);
#243 = EDGE_CURVE('',#220,#244,#246,.T.);
#244 = VERTEX_POINT('',#245);
#245 = CARTESIAN_POINT('',(0.6,1.443289932013E-015,6.5));
#246 = CIRCLE('',#247,0.3);
#247 = AXIS2_PLACEMENT_3D('',#248,#249,#250);
#248 = CARTESIAN_POINT('',(0.6,1.486894762458E-015,6.2));
#249 = DIRECTION('',(0.E+000,1.,-2.22044604925E-016));
#250 = DIRECTION('',(1.,0.E+000,0.E+000));
#251 = ORIENTED_EDGE('',*,*,#252,.T.);
#252 = EDGE_CURVE('',#244,#244,#253,.T.);
#253 = CIRCLE('',#254,0.3);
#254 = AXIS2_PLACEMENT_3D('',#255,#256,#257);
#255 = CARTESIAN_POINT('',(0.6,1.50990331349E-015,6.8));
#256 = DIRECTION('',(-1.,-4.078893220341E-032,-1.836970198721E-016));
#257 = DIRECTION('',(-1.836970198721E-016,2.22044604925E-016,1.));
#258 = ORIENTED_EDGE('',*,*,#243,.F.);
#259 = ORIENTED_EDGE('',*,*,#227,.T.);
#260 = TOROIDAL_SURFACE('',#261,0.6,0.3);
#261 = AXIS2_PLACEMENT_3D('',#262,#263,#264);
#262 = CARTESIAN_POINT('',(0.6,1.376676550535E-015,6.2));
#263 = DIRECTION('',(0.E+000,1.,-2.22044604925E-016));
#264 = DIRECTION('',(1.,0.E+000,0.E+000));
#265 = ADVANCED_FACE('',(#266),#285,.T.);
#266 = FACE_BOUND('',#267,.T.);
#267 = EDGE_LOOP('',(#268,#276,#283,#284));
#268 = ORIENTED_EDGE('',*,*,#269,.T.);
#269 = EDGE_CURVE('',#244,#270,#272,.T.);
#270 = VERTEX_POINT('',#271);
#271 = CARTESIAN_POINT('',(4.48,1.443289932013E-015,6.5));
#272 = LINE('',#273,#274);
#273 = CARTESIAN_POINT('',(0.6,1.443289932013E-015,6.5));
#274 = VECTOR('',#275,1.);
#275 = DIRECTION('',(1.,0.E+000,0.E+000));
#276 = ORIENTED_EDGE('',*,*,#277,.F.);
#277 = EDGE_CURVE('',#270,#270,#278,.T.);
#278 = CIRCLE('',#279,0.3);
#279 = AXIS2_PLACEMENT_3D('',#280,#281,#282);
#280 = CARTESIAN_POINT('',(4.48,1.50990331349E-015,6.8));
#281 = DIRECTION('',(1.,0.E+000,0.E+000));
#282 = DIRECTION('',(0.E+000,-2.22044604925E-016,-1.));
#283 = ORIENTED_EDGE('',*,*,#269,.F.);
#284 = ORIENTED_EDGE('',*,*,#252,.F.);
#285 = CYLINDRICAL_SURFACE('',#286,0.3);
#286 = AXIS2_PLACEMENT_3D('',#287,#288,#289);
#287 = CARTESIAN_POINT('',(0.6,1.50990331349E-015,6.8));
#288 = DIRECTION('',(1.,0.E+000,0.E+000));
#289 = DIRECTION('',(0.E+000,-2.22044604925E-016,-1.));
#290 = ADVANCED_FACE('',(#291),#311,.T.);
#291 = FACE_BOUND('',#292,.T.);
#292 = EDGE_LOOP('',(#293,#302,#309,#310));
#293 = ORIENTED_EDGE('',*,*,#294,.T.);
#294 = EDGE_CURVE('',#270,#295,#297,.T.);
#295 = VERTEX_POINT('',#296);
#296 = CARTESIAN_POINT('',(4.78,1.376676550535E-015,6.2));
#297 = CIRCLE('',#298,0.3);
#298 = AXIS2_PLACEMENT_3D('',#299,#300,#301);
#299 = CARTESIAN_POINT('',(4.48,1.486894762458E-015,6.2));
#300 = DIRECTION('',(0.E+000,1.,-2.22044604925E-016));
#301 = DIRECTION('',(1.,0.E+000,0.E+000));
#302 = ORIENTED_EDGE('',*,*,#303,.T.);
#303 = EDGE_CURVE('',#295,#295,#304,.T.);
#304 = CIRCLE('',#305,0.3);
#305 = AXIS2_PLACEMENT_3D('',#306,#307,#308);
#306 = CARTESIAN_POINT('',(5.08,1.376676550535E-015,6.2));
#307 = DIRECTION('',(-2.449293598295E-016,2.22044604925E-016,1.));
#308 = DIRECTION('',(1.,5.438524293788E-032,2.449293598295E-016));
#309 = ORIENTED_EDGE('',*,*,#294,.F.);
#310 = ORIENTED_EDGE('',*,*,#277,.T.);
#311 = TOROIDAL_SURFACE('',#312,0.6,0.3);
#312 = AXIS2_PLACEMENT_3D('',#313,#314,#315);
#313 = CARTESIAN_POINT('',(4.48,1.376676550535E-015,6.2));
#314 = DIRECTION('',(0.E+000,1.,-2.22044604925E-016));
#315 = DIRECTION('',(1.,0.E+000,0.E+000));
#316 = ADVANCED_FACE('',(#317),#336,.T.);
#317 = FACE_BOUND('',#318,.T.);
#318 = EDGE_LOOP('',(#319,#327,#334,#335));
#319 = ORIENTED_EDGE('',*,*,#320,.T.);
#320 = EDGE_CURVE('',#295,#321,#323,.T.);
#321 = VERTEX_POINT('',#322);
#322 = CARTESIAN_POINT('',(4.78,-7.396126227239E-016,-3.));
#323 = LINE('',#324,#325);
#324 = CARTESIAN_POINT('',(4.78,-6.661338147751E-016,-3.));
#325 = VECTOR('',#326,1.);
#326 = DIRECTION('',(0.E+000,-2.22044604925E-016,-1.));
#327 = ORIENTED_EDGE('',*,*,#328,.F.);
#328 = EDGE_CURVE('',#321,#321,#329,.T.);
#329 = CIRCLE('',#330,0.3);
#330 = AXIS2_PLACEMENT_3D('',#331,#332,#333);
#331 = CARTESIAN_POINT('',(5.08,-6.661338147751E-016,-3.));
#332 = DIRECTION('',(0.E+000,-2.22044604925E-016,-1.));
#333 = DIRECTION('',(-1.,5.473822126269E-048,-1.215432671457E-063));
#334 = ORIENTED_EDGE('',*,*,#320,.F.);
#335 = ORIENTED_EDGE('',*,*,#303,.F.);
#336 = CYLINDRICAL_SURFACE('',#337,0.3);
#337 = AXIS2_PLACEMENT_3D('',#338,#339,#340);
#338 = CARTESIAN_POINT('',(5.08,-6.661338147751E-016,-3.));
#339 = DIRECTION('',(0.E+000,-2.22044604925E-016,-1.));
#340 = DIRECTION('',(-1.,5.473822126269E-048,-1.215432671457E-063));
#341 = ADVANCED_FACE('',(#342),#345,.F.);
#342 = FACE_BOUND('',#343,.T.);
#343 = EDGE_LOOP('',(#344));
#344 = ORIENTED_EDGE('',*,*,#328,.T.);
#345 = PLANE('',#346);
#346 = AXIS2_PLACEMENT_3D('',#347,#348,#349);
#347 = CARTESIAN_POINT('',(4.78,-6.661338147751E-016,-3.));
#348 = DIRECTION('',(0.E+000,0.E+000,1.));
#349 = DIRECTION('',(1.,0.E+000,0.E+000));
#350 = ( GEOMETRIC_REPRESENTATION_CONTEXT(3) 
GLOBAL_UNCERTAINTY_ASSIGNED_CONTEXT((#354)) GLOBAL_UNIT_ASSIGNED_CONTEXT
((#351,#352,#353)) REPRESENTATION_CONTEXT('Context #1',
  '3D Context with UNIT and UNCERTAINTY') );
#351 = ( LENGTH_UNIT() NAMED_UNIT(*) SI_UNIT(.MILLI.,.METRE.) );
#352 = ( NAMED_UNIT(*) PLANE_ANGLE_UNIT() SI_UNIT($,.RADIAN.) );
#353 = ( NAMED_UNIT(*) SI_UNIT($,.STERADIAN.) SOLID_ANGLE_UNIT() );
#354 = UNCERTAINTY_MEASURE_WITH_UNIT(LENGTH_MEASURE(1.E-007),#351,
  'distance_accuracy_value','confusion accuracy');
#355 = PRODUCT_RELATED_PRODUCT_CATEGORY('part',$,(#7));
#356 = MECHANICAL_DESIGN_GEOMETRIC_PRESENTATION_REPRESENTATION('',(#357,
    #365,#372,#380,#387,#395,#402,#409,#416,#423,#430,#437,#444,#451,
    #458),#350);
#357 = STYLED_ITEM('color',(#358),#17);
#358 = PRESENTATION_STYLE_ASSIGNMENT((#359));
#359 = SURFACE_STYLE_USAGE(.BOTH.,#360);
#360 = SURFACE_SIDE_STYLE('',(#361));
#361 = SURFACE_STYLE_FILL_AREA(#362);
#362 = FILL_AREA_STYLE('',(#363));
#363 = FILL_AREA_STYLE_COLOUR('',#364);
#364 = COLOUR_RGB('',0.824000000954,0.819999992847,0.78100001812);
#365 = STYLED_ITEM('color',(#366),#34);
#366 = PRESENTATION_STYLE_ASSIGNMENT((#367));
#367 = SURFACE_STYLE_USAGE(.BOTH.,#368);
#368 = SURFACE_SIDE_STYLE('',(#369));
#369 = SURFACE_STYLE_FILL_AREA(#370);
#370 = FILL_AREA_STYLE('',(#371));
#371 = FILL_AREA_STYLE_COLOUR('',#364);
#372 = STYLED_ITEM('color',(#373),#59);
#373 = PRESENTATION_STYLE_ASSIGNMENT((#374));
#374 = SURFACE_STYLE_USAGE(.BOTH.,#375);
#375 = SURFACE_SIDE_STYLE('',(#376));
#376 = SURFACE_STYLE_FILL_AREA(#377);
#377 = FILL_AREA_STYLE('',(#378));
#378 = FILL_AREA_STYLE_COLOUR('',#379);
#379 = COLOUR_RGB('',0.148000001907,0.144999995828,0.144999995828);
#380 = STYLED_ITEM('color',(#381),#79);
#381 = PRESENTATION_STYLE_ASSIGNMENT((#382));
#382 = SURFACE_STYLE_USAGE(.BOTH.,#383);
#383 = SURFACE_SIDE_STYLE('',(#384));
#384 = SURFACE_STYLE_FILL_AREA(#385);
#385 = FILL_AREA_STYLE('',(#386));
#386 = FILL_AREA_STYLE_COLOUR('',#379);
#387 = STYLED_ITEM('color',(#388),#104);
#388 = PRESENTATION_STYLE_ASSIGNMENT((#389));
#389 = SURFACE_STYLE_USAGE(.BOTH.,#390);
#390 = SURFACE_SIDE_STYLE('',(#391));
#391 = SURFACE_STYLE_FILL_AREA(#392);
#392 = FILL_AREA_STYLE('',(#393));
#393 = FILL_AREA_STYLE_COLOUR('',#394);
#394 = COLOUR_RGB('',0.894999980927,0.89099997282,0.813000023365);
#395 = STYLED_ITEM('color',(#396),#124);
#396 = PRESENTATION_STYLE_ASSIGNMENT((#397));
#397 = SURFACE_STYLE_USAGE(.BOTH.,#398);
#398 = SURFACE_SIDE_STYLE('',(#399));
#399 = SURFACE_STYLE_FILL_AREA(#400);
#400 = FILL_AREA_STYLE('',(#401));
#401 = FILL_AREA_STYLE_COLOUR('',#394);
#402 = STYLED_ITEM('color',(#403),#149);
#403 = PRESENTATION_STYLE_ASSIGNMENT((#404));
#404 = SURFACE_STYLE_USAGE(.BOTH.,#405);
#405 = SURFACE_SIDE_STYLE('',(#406));
#406 = SURFACE_STYLE_FILL_AREA(#407);
#407 = FILL_AREA_STYLE('',(#408));
#408 = FILL_AREA_STYLE_COLOUR('',#394);
#409 = STYLED_ITEM('color',(#410),#169);
#410 = PRESENTATION_STYLE_ASSIGNMENT((#411));
#411 = SURFACE_STYLE_USAGE(.BOTH.,#412);
#412 = SURFACE_SIDE_STYLE('',(#413));
#413 = SURFACE_STYLE_FILL_AREA(#414);
#414 = FILL_AREA_STYLE('',(#415));
#415 = FILL_AREA_STYLE_COLOUR('',#379);
#416 = STYLED_ITEM('color',(#417),#194);
#417 = PRESENTATION_STYLE_ASSIGNMENT((#418));
#418 = SURFACE_STYLE_USAGE(.BOTH.,#419);
#419 = SURFACE_SIDE_STYLE('',(#420));
#420 = SURFACE_STYLE_FILL_AREA(#421);
#421 = FILL_AREA_STYLE('',(#422));
#422 = FILL_AREA_STYLE_COLOUR('',#379);
#423 = STYLED_ITEM('color',(#424),#214);
#424 = PRESENTATION_STYLE_ASSIGNMENT((#425));
#425 = SURFACE_STYLE_USAGE(.BOTH.,#426);
#426 = SURFACE_SIDE_STYLE('',(#427));
#427 = SURFACE_STYLE_FILL_AREA(#428);
#428 = FILL_AREA_STYLE('',(#429));
#429 = FILL_AREA_STYLE_COLOUR('',#364);
#430 = STYLED_ITEM('color',(#431),#239);
#431 = PRESENTATION_STYLE_ASSIGNMENT((#432));
#432 = SURFACE_STYLE_USAGE(.BOTH.,#433);
#433 = SURFACE_SIDE_STYLE('',(#434));
#434 = SURFACE_STYLE_FILL_AREA(#435);
#435 = FILL_AREA_STYLE('',(#436));
#436 = FILL_AREA_STYLE_COLOUR('',#364);
#437 = STYLED_ITEM('color',(#438),#265);
#438 = PRESENTATION_STYLE_ASSIGNMENT((#439));
#439 = SURFACE_STYLE_USAGE(.BOTH.,#440);
#440 = SURFACE_SIDE_STYLE('',(#441));
#441 = SURFACE_STYLE_FILL_AREA(#442);
#442 = FILL_AREA_STYLE('',(#443));
#443 = FILL_AREA_STYLE_COLOUR('',#364);
#444 = STYLED_ITEM('color',(#445),#290);
#445 = PRESENTATION_STYLE_ASSIGNMENT((#446));
#446 = SURFACE_STYLE_USAGE(.BOTH.,#447);
#447 = SURFACE_SIDE_STYLE('',(#448));
#448 = SURFACE_STYLE_FILL_AREA(#449);
#449 = FILL_AREA_STYLE('',(#450));
#450 = FILL_AREA_STYLE_COLOUR('',#364);
#451 = STYLED_ITEM('color',(#452),#316);
#452 = PRESENTATION_STYLE_ASSIGNMENT((#453));
#453 = SURFACE_STYLE_USAGE(.BOTH.,#454);
#454 = SURFACE_SIDE_STYLE('',(#455));
#455 = SURFACE_STYLE_FILL_AREA(#456);
#456 = FILL_AREA_STYLE('',(#457));
#457 = FILL_AREA_STYLE_COLOUR('',#364);
#458 = STYLED_ITEM('color',(#459),#341);
#459 = PRESENTATION_STYLE_ASSIGNMENT((#460));
#460 = SURFACE_STYLE_USAGE(.BOTH.,#461);
#461 = SURFACE_SIDE_STYLE('',(#462));
#462 = SURFACE_STYLE_FILL_AREA(#463);
#463 = FILL_AREA_STYLE('',(#464));
#464 = FILL_AREA_STYLE_COLOUR('',#364);
ENDSEC;
END-ISO-10303-21;
