ISO-10303-21;
HEADER;
FILE_DESCRIPTION(('FreeCAD Model'),'2;1');
FILE_NAME(
'/home/volker/KiCad/3dpackages/Potentiometer_Bourns_3266P_
Horizontal.step','2019-01-13T01:27:08',('kicad StepUp'),('ksu MCAD'),
  'Open CASCADE STEP processor 7.3','FreeCAD','Unknown');
FILE_SCHEMA(('AUTOMOTIVE_DESIGN { 1 0 10303 214 1 1 1 1 }'));
ENDSEC;
DATA;
#1 = APPLICATION_PROTOCOL_DEFINITION('international standard',
  'automotive_design',2000,#2);
#2 = APPLICATION_CONTEXT(
  'core data for automotive mechanical design processes');
#3 = SHAPE_DEFINITION_REPRESENTATION(#4,#10);
#4 = PRODUCT_DEFINITION_SHAPE('','',#5);
#5 = PRODUCT_DEFINITION('design','',#6,#9);
#6 = PRODUCT_DEFINITION_FORMATION('','',#7);
#7 = PRODUCT('Potentiometer_Bourns_3266P_Horizontal',
  'Potentiometer_Bourns_3266P_Horizontal','',(#8));
#8 = PRODUCT_CONTEXT('',#2,'mechanical');
#9 = PRODUCT_DEFINITION_CONTEXT('part definition',#2,'design');
#10 = ADVANCED_BREP_SHAPE_REPRESENTATION('',(#11,#15),#516);
#11 = AXIS2_PLACEMENT_3D('',#12,#13,#14);
#12 = CARTESIAN_POINT('',(0.,0.,0.));
#13 = DIRECTION('',(0.,0.,1.));
#14 = DIRECTION('',(1.,0.,-0.));
#15 = MANIFOLD_SOLID_BREP('',#16);
#16 = CLOSED_SHELL('',(#17,#76,#107,#131,#188,#205,#314,#325,#337,#362,
    #387,#412,#427,#444,#462,#479,#489,#498,#507));
#17 = ADVANCED_FACE('',(#18,#52),#71,.F.);
#18 = FACE_BOUND('',#19,.F.);
#19 = EDGE_LOOP('',(#20,#30,#38,#46));
#20 = ORIENTED_EDGE('',*,*,#21,.F.);
#21 = EDGE_CURVE('',#22,#24,#26,.T.);
#22 = VERTEX_POINT('',#23);
#23 = CARTESIAN_POINT('',(-3.3,-5.895,0.46));
#24 = VERTEX_POINT('',#25);
#25 = CARTESIAN_POINT('',(-3.3,-5.895,4.96));
#26 = LINE('',#27,#28);
#27 = CARTESIAN_POINT('',(-3.3,-5.895,0.46));
#28 = VECTOR('',#29,1.);
#29 = DIRECTION('',(0.,0.,1.));
#30 = ORIENTED_EDGE('',*,*,#31,.T.);
#31 = EDGE_CURVE('',#22,#32,#34,.T.);
#32 = VERTEX_POINT('',#33);
#33 = CARTESIAN_POINT('',(-3.3,0.815,0.46));
#34 = LINE('',#35,#36);
#35 = CARTESIAN_POINT('',(-3.3,-5.895,0.46));
#36 = VECTOR('',#37,1.);
#37 = DIRECTION('',(0.,1.,0.));
#38 = ORIENTED_EDGE('',*,*,#39,.T.);
#39 = EDGE_CURVE('',#32,#40,#42,.T.);
#40 = VERTEX_POINT('',#41);
#41 = CARTESIAN_POINT('',(-3.3,0.815,4.96));
#42 = LINE('',#43,#44);
#43 = CARTESIAN_POINT('',(-3.3,0.815,0.46));
#44 = VECTOR('',#45,1.);
#45 = DIRECTION('',(0.,0.,1.));
#46 = ORIENTED_EDGE('',*,*,#47,.F.);
#47 = EDGE_CURVE('',#24,#40,#48,.T.);
#48 = LINE('',#49,#50);
#49 = CARTESIAN_POINT('',(-3.3,-5.895,4.96));
#50 = VECTOR('',#51,1.);
#51 = DIRECTION('',(0.,1.,0.));
#52 = FACE_BOUND('',#53,.F.);
#53 = EDGE_LOOP('',(#54,#65));
#54 = ORIENTED_EDGE('',*,*,#55,.F.);
#55 = EDGE_CURVE('',#56,#58,#60,.T.);
#56 = VERTEX_POINT('',#57);
#57 = CARTESIAN_POINT('',(-3.3,-1.299999988317,3.693257173896));
#58 = VERTEX_POINT('',#59);
#59 = CARTESIAN_POINT('',(-3.3,0.479999988317,3.693257173896));
#60 = ELLIPSE('',#61,0.890032229625,0.89);
#61 = AXIS2_PLACEMENT_3D('',#62,#63,#64);
#62 = CARTESIAN_POINT('',(-3.3,-0.41,3.693401387789));
#63 = DIRECTION('',(1.,-0.,0.));
#64 = DIRECTION('',(0.,0.,-1.));
#65 = ORIENTED_EDGE('',*,*,#66,.T.);
#66 = EDGE_CURVE('',#56,#58,#67,.T.);
#67 = LINE('',#68,#69);
#68 = CARTESIAN_POINT('',(-3.3,-3.1525,3.693257173896));
#69 = VECTOR('',#70,1.);
#70 = DIRECTION('',(0.,1.,0.));
#71 = PLANE('',#72);
#72 = AXIS2_PLACEMENT_3D('',#73,#74,#75);
#73 = CARTESIAN_POINT('',(-3.3,-5.895,0.46));
#74 = DIRECTION('',(1.,0.,0.));
#75 = DIRECTION('',(0.,0.,1.));
#76 = ADVANCED_FACE('',(#77),#102,.F.);
#77 = FACE_BOUND('',#78,.F.);
#78 = EDGE_LOOP('',(#79,#87,#88,#96));
#79 = ORIENTED_EDGE('',*,*,#80,.F.);
#80 = EDGE_CURVE('',#22,#81,#83,.T.);
#81 = VERTEX_POINT('',#82);
#82 = CARTESIAN_POINT('',(3.48,-5.895,0.46));
#83 = LINE('',#84,#85);
#84 = CARTESIAN_POINT('',(-3.3,-5.895,0.46));
#85 = VECTOR('',#86,1.);
#86 = DIRECTION('',(1.,0.,0.));
#87 = ORIENTED_EDGE('',*,*,#21,.T.);
#88 = ORIENTED_EDGE('',*,*,#89,.T.);
#89 = EDGE_CURVE('',#24,#90,#92,.T.);
#90 = VERTEX_POINT('',#91);
#91 = CARTESIAN_POINT('',(3.48,-5.895,4.96));
#92 = LINE('',#93,#94);
#93 = CARTESIAN_POINT('',(-3.3,-5.895,4.96));
#94 = VECTOR('',#95,1.);
#95 = DIRECTION('',(1.,0.,0.));
#96 = ORIENTED_EDGE('',*,*,#97,.F.);
#97 = EDGE_CURVE('',#81,#90,#98,.T.);
#98 = LINE('',#99,#100);
#99 = CARTESIAN_POINT('',(3.48,-5.895,0.46));
#100 = VECTOR('',#101,1.);
#101 = DIRECTION('',(0.,0.,1.));
#102 = PLANE('',#103);
#103 = AXIS2_PLACEMENT_3D('',#104,#105,#106);
#104 = CARTESIAN_POINT('',(-3.3,-5.895,0.46));
#105 = DIRECTION('',(0.,1.,0.));
#106 = DIRECTION('',(0.,0.,1.));
#107 = ADVANCED_FACE('',(#108),#126,.T.);
#108 = FACE_BOUND('',#109,.T.);
#109 = EDGE_LOOP('',(#110,#111,#112,#120));
#110 = ORIENTED_EDGE('',*,*,#47,.F.);
#111 = ORIENTED_EDGE('',*,*,#89,.T.);
#112 = ORIENTED_EDGE('',*,*,#113,.T.);
#113 = EDGE_CURVE('',#90,#114,#116,.T.);
#114 = VERTEX_POINT('',#115);
#115 = CARTESIAN_POINT('',(3.48,0.815,4.96));
#116 = LINE('',#117,#118);
#117 = CARTESIAN_POINT('',(3.48,-5.895,4.96));
#118 = VECTOR('',#119,1.);
#119 = DIRECTION('',(0.,1.,0.));
#120 = ORIENTED_EDGE('',*,*,#121,.F.);
#121 = EDGE_CURVE('',#40,#114,#122,.T.);
#122 = LINE('',#123,#124);
#123 = CARTESIAN_POINT('',(-3.3,0.815,4.96));
#124 = VECTOR('',#125,1.);
#125 = DIRECTION('',(1.,0.,0.));
#126 = PLANE('',#127);
#127 = AXIS2_PLACEMENT_3D('',#128,#129,#130);
#128 = CARTESIAN_POINT('',(-3.3,-5.895,4.96));
#129 = DIRECTION('',(0.,0.,1.));
#130 = DIRECTION('',(1.,0.,0.));
#131 = ADVANCED_FACE('',(#132,#150,#161,#172),#183,.F.);
#132 = FACE_BOUND('',#133,.F.);
#133 = EDGE_LOOP('',(#134,#135,#136,#144));
#134 = ORIENTED_EDGE('',*,*,#31,.F.);
#135 = ORIENTED_EDGE('',*,*,#80,.T.);
#136 = ORIENTED_EDGE('',*,*,#137,.T.);
#137 = EDGE_CURVE('',#81,#138,#140,.T.);
#138 = VERTEX_POINT('',#139);
#139 = CARTESIAN_POINT('',(3.48,0.815,0.46));
#140 = LINE('',#141,#142);
#141 = CARTESIAN_POINT('',(3.48,-5.895,0.46));
#142 = VECTOR('',#143,1.);
#143 = DIRECTION('',(0.,1.,0.));
#144 = ORIENTED_EDGE('',*,*,#145,.F.);
#145 = EDGE_CURVE('',#32,#138,#146,.T.);
#146 = LINE('',#147,#148);
#147 = CARTESIAN_POINT('',(-3.3,0.815,0.46));
#148 = VECTOR('',#149,1.);
#149 = DIRECTION('',(1.,0.,0.));
#150 = FACE_BOUND('',#151,.F.);
#151 = EDGE_LOOP('',(#152));
#152 = ORIENTED_EDGE('',*,*,#153,.F.);
#153 = EDGE_CURVE('',#154,#154,#156,.T.);
#154 = VERTEX_POINT('',#155);
#155 = CARTESIAN_POINT('',(0.23,-5.08,0.46));
#156 = CIRCLE('',#157,0.23);
#157 = AXIS2_PLACEMENT_3D('',#158,#159,#160);
#158 = CARTESIAN_POINT('',(0.,-5.08,0.46));
#159 = DIRECTION('',(0.,0.,1.));
#160 = DIRECTION('',(1.,0.,0.));
#161 = FACE_BOUND('',#162,.F.);
#162 = EDGE_LOOP('',(#163));
#163 = ORIENTED_EDGE('',*,*,#164,.F.);
#164 = EDGE_CURVE('',#165,#165,#167,.T.);
#165 = VERTEX_POINT('',#166);
#166 = CARTESIAN_POINT('',(0.23,0.,0.46));
#167 = CIRCLE('',#168,0.23);
#168 = AXIS2_PLACEMENT_3D('',#169,#170,#171);
#169 = CARTESIAN_POINT('',(0.,0.,0.46));
#170 = DIRECTION('',(0.,0.,1.));
#171 = DIRECTION('',(1.,0.,0.));
#172 = FACE_BOUND('',#173,.F.);
#173 = EDGE_LOOP('',(#174));
#174 = ORIENTED_EDGE('',*,*,#175,.F.);
#175 = EDGE_CURVE('',#176,#176,#178,.T.);
#176 = VERTEX_POINT('',#177);
#177 = CARTESIAN_POINT('',(-2.31,-2.54,0.46));
#178 = CIRCLE('',#179,0.23);
#179 = AXIS2_PLACEMENT_3D('',#180,#181,#182);
#180 = CARTESIAN_POINT('',(-2.54,-2.54,0.46));
#181 = DIRECTION('',(0.,0.,1.));
#182 = DIRECTION('',(1.,0.,0.));
#183 = PLANE('',#184);
#184 = AXIS2_PLACEMENT_3D('',#185,#186,#187);
#185 = CARTESIAN_POINT('',(-3.3,-5.895,0.46));
#186 = DIRECTION('',(0.,0.,1.));
#187 = DIRECTION('',(1.,0.,0.));
#188 = ADVANCED_FACE('',(#189),#200,.T.);
#189 = FACE_BOUND('',#190,.T.);
#190 = EDGE_LOOP('',(#191,#192,#193,#194));
#191 = ORIENTED_EDGE('',*,*,#145,.F.);
#192 = ORIENTED_EDGE('',*,*,#39,.T.);
#193 = ORIENTED_EDGE('',*,*,#121,.T.);
#194 = ORIENTED_EDGE('',*,*,#195,.F.);
#195 = EDGE_CURVE('',#138,#114,#196,.T.);
#196 = LINE('',#197,#198);
#197 = CARTESIAN_POINT('',(3.48,0.815,0.46));
#198 = VECTOR('',#199,1.);
#199 = DIRECTION('',(0.,0.,1.));
#200 = PLANE('',#201);
#201 = AXIS2_PLACEMENT_3D('',#202,#203,#204);
#202 = CARTESIAN_POINT('',(-3.3,0.815,0.46));
#203 = DIRECTION('',(0.,1.,0.));
#204 = DIRECTION('',(0.,0.,1.));
#205 = ADVANCED_FACE('',(#206),#309,.T.);
#206 = FACE_BOUND('',#207,.T.);
#207 = EDGE_LOOP('',(#208,#219,#227,#236,#244,#251,#252,#259,#260,#269,
    #277,#286,#294,#303));
#208 = ORIENTED_EDGE('',*,*,#209,.F.);
#209 = EDGE_CURVE('',#210,#212,#214,.T.);
#210 = VERTEX_POINT('',#211);
#211 = CARTESIAN_POINT('',(-4.327207900541,-0.15,4.535865887168));
#212 = VERTEX_POINT('',#213);
#213 = CARTESIAN_POINT('',(-4.312720681956,-0.15,2.833576217195));
#214 = CIRCLE('',#215,0.89);
#215 = AXIS2_PLACEMENT_3D('',#216,#217,#218);
#216 = CARTESIAN_POINT('',(-4.319964291249,-0.41,3.684721052182));
#217 = DIRECTION('',(-0.99996378825,0.,-8.510122709093E-03));
#218 = DIRECTION('',(-8.510122709093E-03,0.,0.99996378825));
#219 = ORIENTED_EDGE('',*,*,#220,.F.);
#220 = EDGE_CURVE('',#221,#210,#223,.T.);
#221 = VERTEX_POINT('',#222);
#222 = CARTESIAN_POINT('',(-3.687231076061,-0.15,4.541312365702));
#223 = LINE('',#224,#225);
#224 = CARTESIAN_POINT('',(-3.307244836526,-0.15,4.544546212332));
#225 = VECTOR('',#226,1.);
#226 = DIRECTION('',(-0.99996378825,0.,-8.510122709093E-03));
#227 = ORIENTED_EDGE('',*,*,#228,.F.);
#228 = EDGE_CURVE('',#229,#221,#231,.T.);
#229 = VERTEX_POINT('',#230);
#230 = CARTESIAN_POINT('',(-3.68756147598,-0.41,4.580135302258));
#231 = CIRCLE('',#232,0.89);
#232 = AXIS2_PLACEMENT_3D('',#233,#234,#235);
#233 = CARTESIAN_POINT('',(-3.679987466769,-0.41,3.690167530715));
#234 = DIRECTION('',(-0.99996378825,0.,-8.510122709093E-03));
#235 = DIRECTION('',(-8.510122709093E-03,0.,0.99996378825));
#236 = ORIENTED_EDGE('',*,*,#237,.F.);
#237 = EDGE_CURVE('',#238,#229,#240,.T.);
#238 = VERTEX_POINT('',#239);
#239 = CARTESIAN_POINT('',(-3.307575236445,-0.41,4.583369148887));
#240 = LINE('',#241,#242);
#241 = CARTESIAN_POINT('',(-3.307575236445,-0.41,4.583369148887));
#242 = VECTOR('',#243,1.);
#243 = DIRECTION('',(-0.99996378825,0.,-8.510122709093E-03));
#244 = ORIENTED_EDGE('',*,*,#245,.T.);
#245 = EDGE_CURVE('',#238,#58,#246,.T.);
#246 = CIRCLE('',#247,0.89);
#247 = AXIS2_PLACEMENT_3D('',#248,#249,#250);
#248 = CARTESIAN_POINT('',(-3.300001227233,-0.41,3.693401377345));
#249 = DIRECTION('',(-0.99996378825,0.,-8.510122709093E-03));
#250 = DIRECTION('',(-8.510122709093E-03,0.,0.99996378825));
#251 = ORIENTED_EDGE('',*,*,#55,.F.);
#252 = ORIENTED_EDGE('',*,*,#253,.T.);
#253 = EDGE_CURVE('',#56,#238,#254,.T.);
#254 = CIRCLE('',#255,0.89);
#255 = AXIS2_PLACEMENT_3D('',#256,#257,#258);
#256 = CARTESIAN_POINT('',(-3.300001227233,-0.41,3.693401377345));
#257 = DIRECTION('',(-0.99996378825,0.,-8.510122709093E-03));
#258 = DIRECTION('',(-8.510122709093E-03,0.,0.99996378825));
#259 = ORIENTED_EDGE('',*,*,#237,.T.);
#260 = ORIENTED_EDGE('',*,*,#261,.F.);
#261 = EDGE_CURVE('',#262,#229,#264,.T.);
#262 = VERTEX_POINT('',#263);
#263 = CARTESIAN_POINT('',(-3.687256526456,-0.66,4.544302860023));
#264 = CIRCLE('',#265,0.89);
#265 = AXIS2_PLACEMENT_3D('',#266,#267,#268);
#266 = CARTESIAN_POINT('',(-3.679987466769,-0.41,3.690167530715));
#267 = DIRECTION('',(-0.99996378825,0.,-8.510122709093E-03));
#268 = DIRECTION('',(-8.510122709093E-03,0.,0.99996378825));
#269 = ORIENTED_EDGE('',*,*,#270,.T.);
#270 = EDGE_CURVE('',#262,#271,#273,.T.);
#271 = VERTEX_POINT('',#272);
#272 = CARTESIAN_POINT('',(-4.327233350937,-0.66,4.538856381489));
#273 = LINE('',#274,#275);
#274 = CARTESIAN_POINT('',(-3.307270286921,-0.66,4.547536706652));
#275 = VECTOR('',#276,1.);
#276 = DIRECTION('',(-0.99996378825,0.,-8.510122709093E-03));
#277 = ORIENTED_EDGE('',*,*,#278,.F.);
#278 = EDGE_CURVE('',#279,#271,#281,.T.);
#279 = VERTEX_POINT('',#280);
#280 = CARTESIAN_POINT('',(-4.312695231561,-0.66,2.830585722874));
#281 = CIRCLE('',#282,0.89);
#282 = AXIS2_PLACEMENT_3D('',#283,#284,#285);
#283 = CARTESIAN_POINT('',(-4.319964291249,-0.41,3.684721052182));
#284 = DIRECTION('',(-0.99996378825,0.,-8.510122709093E-03));
#285 = DIRECTION('',(-8.510122709093E-03,0.,0.99996378825));
#286 = ORIENTED_EDGE('',*,*,#287,.F.);
#287 = EDGE_CURVE('',#288,#279,#290,.T.);
#288 = VERTEX_POINT('',#289);
#289 = CARTESIAN_POINT('',(-3.672718407081,-0.66,2.836032201408));
#290 = LINE('',#291,#292);
#291 = CARTESIAN_POINT('',(-3.292732167546,-0.66,2.839266048037));
#292 = VECTOR('',#293,1.);
#293 = DIRECTION('',(-0.99996378825,0.,-8.510122709093E-03));
#294 = ORIENTED_EDGE('',*,*,#295,.F.);
#295 = EDGE_CURVE('',#296,#288,#298,.T.);
#296 = VERTEX_POINT('',#297);
#297 = CARTESIAN_POINT('',(-3.672743857476,-0.15,2.839022695729));
#298 = CIRCLE('',#299,0.89);
#299 = AXIS2_PLACEMENT_3D('',#300,#301,#302);
#300 = CARTESIAN_POINT('',(-3.679987466769,-0.41,3.690167530715));
#301 = DIRECTION('',(-0.99996378825,0.,-8.510122709093E-03));
#302 = DIRECTION('',(-8.510122709093E-03,0.,0.99996378825));
#303 = ORIENTED_EDGE('',*,*,#304,.T.);
#304 = EDGE_CURVE('',#296,#212,#305,.T.);
#305 = LINE('',#306,#307);
#306 = CARTESIAN_POINT('',(-3.292757617941,-0.15,2.842256542358));
#307 = VECTOR('',#308,1.);
#308 = DIRECTION('',(-0.99996378825,0.,-8.510122709093E-03));
#309 = CYLINDRICAL_SURFACE('',#310,0.89);
#310 = AXIS2_PLACEMENT_3D('',#311,#312,#313);
#311 = CARTESIAN_POINT('',(-3.300001227233,-0.41,3.693401377345));
#312 = DIRECTION('',(-0.99996378825,0.,-8.510122709093E-03));
#313 = DIRECTION('',(-8.510122709093E-03,0.,0.99996378825));
#314 = ADVANCED_FACE('',(#315),#320,.F.);
#315 = FACE_BOUND('',#316,.F.);
#316 = EDGE_LOOP('',(#317,#318,#319));
#317 = ORIENTED_EDGE('',*,*,#253,.T.);
#318 = ORIENTED_EDGE('',*,*,#245,.T.);
#319 = ORIENTED_EDGE('',*,*,#66,.F.);
#320 = PLANE('',#321);
#321 = AXIS2_PLACEMENT_3D('',#322,#323,#324);
#322 = CARTESIAN_POINT('',(-3.300001227233,-0.41,3.693401377345));
#323 = DIRECTION('',(-0.99996378825,0.,-8.510122709093E-03));
#324 = DIRECTION('',(-8.510122709093E-03,0.,0.99996378825));
#325 = ADVANCED_FACE('',(#326),#332,.T.);
#326 = FACE_BOUND('',#327,.T.);
#327 = EDGE_LOOP('',(#328,#329,#330,#331));
#328 = ORIENTED_EDGE('',*,*,#97,.F.);
#329 = ORIENTED_EDGE('',*,*,#137,.T.);
#330 = ORIENTED_EDGE('',*,*,#195,.T.);
#331 = ORIENTED_EDGE('',*,*,#113,.F.);
#332 = PLANE('',#333);
#333 = AXIS2_PLACEMENT_3D('',#334,#335,#336);
#334 = CARTESIAN_POINT('',(3.48,-5.895,0.46));
#335 = DIRECTION('',(1.,0.,0.));
#336 = DIRECTION('',(0.,0.,1.));
#337 = ADVANCED_FACE('',(#338),#357,.T.);
#338 = FACE_BOUND('',#339,.T.);
#339 = EDGE_LOOP('',(#340,#341,#349,#356));
#340 = ORIENTED_EDGE('',*,*,#153,.F.);
#341 = ORIENTED_EDGE('',*,*,#342,.F.);
#342 = EDGE_CURVE('',#343,#154,#345,.T.);
#343 = VERTEX_POINT('',#344);
#344 = CARTESIAN_POINT('',(0.23,-5.08,-4.88));
#345 = LINE('',#346,#347);
#346 = CARTESIAN_POINT('',(0.23,-5.08,-4.88));
#347 = VECTOR('',#348,1.);
#348 = DIRECTION('',(0.,0.,1.));
#349 = ORIENTED_EDGE('',*,*,#350,.T.);
#350 = EDGE_CURVE('',#343,#343,#351,.T.);
#351 = CIRCLE('',#352,0.23);
#352 = AXIS2_PLACEMENT_3D('',#353,#354,#355);
#353 = CARTESIAN_POINT('',(0.,-5.08,-4.88));
#354 = DIRECTION('',(0.,0.,1.));
#355 = DIRECTION('',(1.,0.,0.));
#356 = ORIENTED_EDGE('',*,*,#342,.T.);
#357 = CYLINDRICAL_SURFACE('',#358,0.23);
#358 = AXIS2_PLACEMENT_3D('',#359,#360,#361);
#359 = CARTESIAN_POINT('',(0.,-5.08,-4.88));
#360 = DIRECTION('',(0.,0.,1.));
#361 = DIRECTION('',(1.,0.,0.));
#362 = ADVANCED_FACE('',(#363),#382,.T.);
#363 = FACE_BOUND('',#364,.T.);
#364 = EDGE_LOOP('',(#365,#366,#374,#381));
#365 = ORIENTED_EDGE('',*,*,#164,.F.);
#366 = ORIENTED_EDGE('',*,*,#367,.F.);
#367 = EDGE_CURVE('',#368,#165,#370,.T.);
#368 = VERTEX_POINT('',#369);
#369 = CARTESIAN_POINT('',(0.23,0.,-4.88));
#370 = LINE('',#371,#372);
#371 = CARTESIAN_POINT('',(0.23,-6.E-17,-4.88));
#372 = VECTOR('',#373,1.);
#373 = DIRECTION('',(0.,0.,1.));
#374 = ORIENTED_EDGE('',*,*,#375,.T.);
#375 = EDGE_CURVE('',#368,#368,#376,.T.);
#376 = CIRCLE('',#377,0.23);
#377 = AXIS2_PLACEMENT_3D('',#378,#379,#380);
#378 = CARTESIAN_POINT('',(0.,0.,-4.88));
#379 = DIRECTION('',(0.,0.,1.));
#380 = DIRECTION('',(1.,0.,0.));
#381 = ORIENTED_EDGE('',*,*,#367,.T.);
#382 = CYLINDRICAL_SURFACE('',#383,0.23);
#383 = AXIS2_PLACEMENT_3D('',#384,#385,#386);
#384 = CARTESIAN_POINT('',(0.,0.,-4.88));
#385 = DIRECTION('',(0.,0.,1.));
#386 = DIRECTION('',(1.,0.,0.));
#387 = ADVANCED_FACE('',(#388),#407,.T.);
#388 = FACE_BOUND('',#389,.T.);
#389 = EDGE_LOOP('',(#390,#391,#399,#406));
#390 = ORIENTED_EDGE('',*,*,#175,.F.);
#391 = ORIENTED_EDGE('',*,*,#392,.F.);
#392 = EDGE_CURVE('',#393,#176,#395,.T.);
#393 = VERTEX_POINT('',#394);
#394 = CARTESIAN_POINT('',(-2.31,-2.54,-4.88));
#395 = LINE('',#396,#397);
#396 = CARTESIAN_POINT('',(-2.31,-2.54,-4.88));
#397 = VECTOR('',#398,1.);
#398 = DIRECTION('',(0.,0.,1.));
#399 = ORIENTED_EDGE('',*,*,#400,.T.);
#400 = EDGE_CURVE('',#393,#393,#401,.T.);
#401 = CIRCLE('',#402,0.23);
#402 = AXIS2_PLACEMENT_3D('',#403,#404,#405);
#403 = CARTESIAN_POINT('',(-2.54,-2.54,-4.88));
#404 = DIRECTION('',(0.,0.,1.));
#405 = DIRECTION('',(1.,0.,0.));
#406 = ORIENTED_EDGE('',*,*,#392,.T.);
#407 = CYLINDRICAL_SURFACE('',#408,0.23);
#408 = AXIS2_PLACEMENT_3D('',#409,#410,#411);
#409 = CARTESIAN_POINT('',(-2.54,-2.54,-4.88));
#410 = DIRECTION('',(0.,0.,1.));
#411 = DIRECTION('',(1.,0.,0.));
#412 = ADVANCED_FACE('',(#413),#422,.T.);
#413 = FACE_BOUND('',#414,.T.);
#414 = EDGE_LOOP('',(#415,#421));
#415 = ORIENTED_EDGE('',*,*,#416,.T.);
#416 = EDGE_CURVE('',#212,#210,#417,.T.);
#417 = LINE('',#418,#419);
#418 = CARTESIAN_POINT('',(-4.2808602774,-0.15,-0.910112554828));
#419 = VECTOR('',#420,1.);
#420 = DIRECTION('',(-8.510122709093E-03,0.,0.99996378825));
#421 = ORIENTED_EDGE('',*,*,#209,.T.);
#422 = PLANE('',#423);
#423 = AXIS2_PLACEMENT_3D('',#424,#425,#426);
#424 = CARTESIAN_POINT('',(-4.319964291249,-0.41,3.684721052182));
#425 = DIRECTION('',(-0.99996378825,0.,-8.510122709093E-03));
#426 = DIRECTION('',(-8.510122709093E-03,0.,0.99996378825));
#427 = ADVANCED_FACE('',(#428),#439,.F.);
#428 = FACE_BOUND('',#429,.F.);
#429 = EDGE_LOOP('',(#430,#436,#437,#438));
#430 = ORIENTED_EDGE('',*,*,#431,.F.);
#431 = EDGE_CURVE('',#296,#221,#432,.T.);
#432 = LINE('',#433,#434);
#433 = CARTESIAN_POINT('',(-3.64088345292,-0.15,-0.904666076294));
#434 = VECTOR('',#435,1.);
#435 = DIRECTION('',(-8.510122709093E-03,0.,0.99996378825));
#436 = ORIENTED_EDGE('',*,*,#304,.T.);
#437 = ORIENTED_EDGE('',*,*,#416,.T.);
#438 = ORIENTED_EDGE('',*,*,#220,.F.);
#439 = PLANE('',#440);
#440 = AXIS2_PLACEMENT_3D('',#441,#442,#443);
#441 = CARTESIAN_POINT('',(-3.64088345292,-0.15,-0.904666076294));
#442 = DIRECTION('',(0.,1.,0.));
#443 = DIRECTION('',(-0.99996378825,0.,-8.510122709093E-03));
#444 = ADVANCED_FACE('',(#445),#457,.T.);
#445 = FACE_BOUND('',#446,.T.);
#446 = EDGE_LOOP('',(#447,#448,#449,#455,#456));
#447 = ORIENTED_EDGE('',*,*,#431,.F.);
#448 = ORIENTED_EDGE('',*,*,#295,.T.);
#449 = ORIENTED_EDGE('',*,*,#450,.T.);
#450 = EDGE_CURVE('',#288,#262,#451,.T.);
#451 = LINE('',#452,#453);
#452 = CARTESIAN_POINT('',(-3.64088345292,-0.66,-0.904666076294));
#453 = VECTOR('',#454,1.);
#454 = DIRECTION('',(-8.510122709093E-03,0.,0.99996378825));
#455 = ORIENTED_EDGE('',*,*,#261,.T.);
#456 = ORIENTED_EDGE('',*,*,#228,.T.);
#457 = PLANE('',#458);
#458 = AXIS2_PLACEMENT_3D('',#459,#460,#461);
#459 = CARTESIAN_POINT('',(-3.64088345292,-0.66,-0.904666076294));
#460 = DIRECTION('',(-0.99996378825,0.,-8.510122709093E-03));
#461 = DIRECTION('',(-8.510122709093E-03,0.,0.99996378825));
#462 = ADVANCED_FACE('',(#463),#474,.T.);
#463 = FACE_BOUND('',#464,.T.);
#464 = EDGE_LOOP('',(#465,#466,#467,#473));
#465 = ORIENTED_EDGE('',*,*,#450,.F.);
#466 = ORIENTED_EDGE('',*,*,#287,.T.);
#467 = ORIENTED_EDGE('',*,*,#468,.T.);
#468 = EDGE_CURVE('',#279,#271,#469,.T.);
#469 = LINE('',#470,#471);
#470 = CARTESIAN_POINT('',(-4.2808602774,-0.66,-0.910112554828));
#471 = VECTOR('',#472,1.);
#472 = DIRECTION('',(-8.510122709093E-03,0.,0.99996378825));
#473 = ORIENTED_EDGE('',*,*,#270,.F.);
#474 = PLANE('',#475);
#475 = AXIS2_PLACEMENT_3D('',#476,#477,#478);
#476 = CARTESIAN_POINT('',(-3.64088345292,-0.66,-0.904666076294));
#477 = DIRECTION('',(0.,1.,0.));
#478 = DIRECTION('',(-0.99996378825,0.,-8.510122709093E-03));
#479 = ADVANCED_FACE('',(#480),#484,.T.);
#480 = FACE_BOUND('',#481,.T.);
#481 = EDGE_LOOP('',(#482,#483));
#482 = ORIENTED_EDGE('',*,*,#278,.T.);
#483 = ORIENTED_EDGE('',*,*,#468,.F.);
#484 = PLANE('',#485);
#485 = AXIS2_PLACEMENT_3D('',#486,#487,#488);
#486 = CARTESIAN_POINT('',(-4.319964291249,-0.41,3.684721052182));
#487 = DIRECTION('',(-0.99996378825,0.,-8.510122709093E-03));
#488 = DIRECTION('',(-8.510122709093E-03,0.,0.99996378825));
#489 = ADVANCED_FACE('',(#490),#493,.F.);
#490 = FACE_BOUND('',#491,.T.);
#491 = EDGE_LOOP('',(#492));
#492 = ORIENTED_EDGE('',*,*,#350,.F.);
#493 = PLANE('',#494);
#494 = AXIS2_PLACEMENT_3D('',#495,#496,#497);
#495 = CARTESIAN_POINT('',(0.,-5.08,-4.88));
#496 = DIRECTION('',(0.,0.,1.));
#497 = DIRECTION('',(1.,0.,0.));
#498 = ADVANCED_FACE('',(#499),#502,.F.);
#499 = FACE_BOUND('',#500,.T.);
#500 = EDGE_LOOP('',(#501));
#501 = ORIENTED_EDGE('',*,*,#375,.F.);
#502 = PLANE('',#503);
#503 = AXIS2_PLACEMENT_3D('',#504,#505,#506);
#504 = CARTESIAN_POINT('',(0.,0.,-4.88));
#505 = DIRECTION('',(0.,0.,1.));
#506 = DIRECTION('',(1.,0.,0.));
#507 = ADVANCED_FACE('',(#508),#511,.F.);
#508 = FACE_BOUND('',#509,.T.);
#509 = EDGE_LOOP('',(#510));
#510 = ORIENTED_EDGE('',*,*,#400,.F.);
#511 = PLANE('',#512);
#512 = AXIS2_PLACEMENT_3D('',#513,#514,#515);
#513 = CARTESIAN_POINT('',(-2.54,-2.54,-4.88));
#514 = DIRECTION('',(0.,0.,1.));
#515 = DIRECTION('',(1.,0.,0.));
#516 = ( GEOMETRIC_REPRESENTATION_CONTEXT(3) 
GLOBAL_UNCERTAINTY_ASSIGNED_CONTEXT((#520)) GLOBAL_UNIT_ASSIGNED_CONTEXT
((#517,#518,#519)) REPRESENTATION_CONTEXT('Context #1',
  '3D Context with UNIT and UNCERTAINTY') );
#517 = ( LENGTH_UNIT() NAMED_UNIT(*) SI_UNIT(.MILLI.,.METRE.) );
#518 = ( NAMED_UNIT(*) PLANE_ANGLE_UNIT() SI_UNIT($,.RADIAN.) );
#519 = ( NAMED_UNIT(*) SI_UNIT($,.STERADIAN.) SOLID_ANGLE_UNIT() );
#520 = UNCERTAINTY_MEASURE_WITH_UNIT(LENGTH_MEASURE(1.E-07),#517,
  'distance_accuracy_value','confusion accuracy');
#521 = PRODUCT_RELATED_PRODUCT_CATEGORY('part',$,(#7));
#522 = MECHANICAL_DESIGN_GEOMETRIC_PRESENTATION_REPRESENTATION('',(#523,
    #531,#538,#545,#552,#559,#567,#574,#581,#589,#596,#603,#610,#617,
    #624,#631,#638,#645,#652),#516);
#523 = STYLED_ITEM('color',(#524),#17);
#524 = PRESENTATION_STYLE_ASSIGNMENT((#525));
#525 = SURFACE_STYLE_USAGE(.BOTH.,#526);
#526 = SURFACE_SIDE_STYLE('',(#527));
#527 = SURFACE_STYLE_FILL_AREA(#528);
#528 = FILL_AREA_STYLE('',(#529));
#529 = FILL_AREA_STYLE_COLOUR('',#530);
#530 = COLOUR_RGB('',0.136999994516,0.402000010014,0.726999998093);
#531 = STYLED_ITEM('color',(#532),#76);
#532 = PRESENTATION_STYLE_ASSIGNMENT((#533));
#533 = SURFACE_STYLE_USAGE(.BOTH.,#534);
#534 = SURFACE_SIDE_STYLE('',(#535));
#535 = SURFACE_STYLE_FILL_AREA(#536);
#536 = FILL_AREA_STYLE('',(#537));
#537 = FILL_AREA_STYLE_COLOUR('',#530);
#538 = STYLED_ITEM('color',(#539),#107);
#539 = PRESENTATION_STYLE_ASSIGNMENT((#540));
#540 = SURFACE_STYLE_USAGE(.BOTH.,#541);
#541 = SURFACE_SIDE_STYLE('',(#542));
#542 = SURFACE_STYLE_FILL_AREA(#543);
#543 = FILL_AREA_STYLE('',(#544));
#544 = FILL_AREA_STYLE_COLOUR('',#530);
#545 = STYLED_ITEM('color',(#546),#131);
#546 = PRESENTATION_STYLE_ASSIGNMENT((#547));
#547 = SURFACE_STYLE_USAGE(.BOTH.,#548);
#548 = SURFACE_SIDE_STYLE('',(#549));
#549 = SURFACE_STYLE_FILL_AREA(#550);
#550 = FILL_AREA_STYLE('',(#551));
#551 = FILL_AREA_STYLE_COLOUR('',#530);
#552 = STYLED_ITEM('color',(#553),#188);
#553 = PRESENTATION_STYLE_ASSIGNMENT((#554));
#554 = SURFACE_STYLE_USAGE(.BOTH.,#555);
#555 = SURFACE_SIDE_STYLE('',(#556));
#556 = SURFACE_STYLE_FILL_AREA(#557);
#557 = FILL_AREA_STYLE('',(#558));
#558 = FILL_AREA_STYLE_COLOUR('',#530);
#559 = STYLED_ITEM('color',(#560),#205);
#560 = PRESENTATION_STYLE_ASSIGNMENT((#561));
#561 = SURFACE_STYLE_USAGE(.BOTH.,#562);
#562 = SURFACE_SIDE_STYLE('',(#563));
#563 = SURFACE_STYLE_FILL_AREA(#564);
#564 = FILL_AREA_STYLE('',(#565));
#565 = FILL_AREA_STYLE_COLOUR('',#566);
#566 = COLOUR_RGB('',0.713999986649,0.428400009871,0.181439995766);
#567 = STYLED_ITEM('color',(#568),#314);
#568 = PRESENTATION_STYLE_ASSIGNMENT((#569));
#569 = SURFACE_STYLE_USAGE(.BOTH.,#570);
#570 = SURFACE_SIDE_STYLE('',(#571));
#571 = SURFACE_STYLE_FILL_AREA(#572);
#572 = FILL_AREA_STYLE('',(#573));
#573 = FILL_AREA_STYLE_COLOUR('',#566);
#574 = STYLED_ITEM('color',(#575),#325);
#575 = PRESENTATION_STYLE_ASSIGNMENT((#576));
#576 = SURFACE_STYLE_USAGE(.BOTH.,#577);
#577 = SURFACE_SIDE_STYLE('',(#578));
#578 = SURFACE_STYLE_FILL_AREA(#579);
#579 = FILL_AREA_STYLE('',(#580));
#580 = FILL_AREA_STYLE_COLOUR('',#530);
#581 = STYLED_ITEM('color',(#582),#337);
#582 = PRESENTATION_STYLE_ASSIGNMENT((#583));
#583 = SURFACE_STYLE_USAGE(.BOTH.,#584);
#584 = SURFACE_SIDE_STYLE('',(#585));
#585 = SURFACE_STYLE_FILL_AREA(#586);
#586 = FILL_AREA_STYLE('',(#587));
#587 = FILL_AREA_STYLE_COLOUR('',#588);
#588 = COLOUR_RGB('',0.824000000954,0.819999992847,0.78100001812);
#589 = STYLED_ITEM('color',(#590),#362);
#590 = PRESENTATION_STYLE_ASSIGNMENT((#591));
#591 = SURFACE_STYLE_USAGE(.BOTH.,#592);
#592 = SURFACE_SIDE_STYLE('',(#593));
#593 = SURFACE_STYLE_FILL_AREA(#594);
#594 = FILL_AREA_STYLE('',(#595));
#595 = FILL_AREA_STYLE_COLOUR('',#588);
#596 = STYLED_ITEM('color',(#597),#387);
#597 = PRESENTATION_STYLE_ASSIGNMENT((#598));
#598 = SURFACE_STYLE_USAGE(.BOTH.,#599);
#599 = SURFACE_SIDE_STYLE('',(#600));
#600 = SURFACE_STYLE_FILL_AREA(#601);
#601 = FILL_AREA_STYLE('',(#602));
#602 = FILL_AREA_STYLE_COLOUR('',#588);
#603 = STYLED_ITEM('color',(#604),#412);
#604 = PRESENTATION_STYLE_ASSIGNMENT((#605));
#605 = SURFACE_STYLE_USAGE(.BOTH.,#606);
#606 = SURFACE_SIDE_STYLE('',(#607));
#607 = SURFACE_STYLE_FILL_AREA(#608);
#608 = FILL_AREA_STYLE('',(#609));
#609 = FILL_AREA_STYLE_COLOUR('',#566);
#610 = STYLED_ITEM('color',(#611),#427);
#611 = PRESENTATION_STYLE_ASSIGNMENT((#612));
#612 = SURFACE_STYLE_USAGE(.BOTH.,#613);
#613 = SURFACE_SIDE_STYLE('',(#614));
#614 = SURFACE_STYLE_FILL_AREA(#615);
#615 = FILL_AREA_STYLE('',(#616));
#616 = FILL_AREA_STYLE_COLOUR('',#566);
#617 = STYLED_ITEM('color',(#618),#444);
#618 = PRESENTATION_STYLE_ASSIGNMENT((#619));
#619 = SURFACE_STYLE_USAGE(.BOTH.,#620);
#620 = SURFACE_SIDE_STYLE('',(#621));
#621 = SURFACE_STYLE_FILL_AREA(#622);
#622 = FILL_AREA_STYLE('',(#623));
#623 = FILL_AREA_STYLE_COLOUR('',#566);
#624 = STYLED_ITEM('color',(#625),#462);
#625 = PRESENTATION_STYLE_ASSIGNMENT((#626));
#626 = SURFACE_STYLE_USAGE(.BOTH.,#627);
#627 = SURFACE_SIDE_STYLE('',(#628));
#628 = SURFACE_STYLE_FILL_AREA(#629);
#629 = FILL_AREA_STYLE('',(#630));
#630 = FILL_AREA_STYLE_COLOUR('',#566);
#631 = STYLED_ITEM('color',(#632),#479);
#632 = PRESENTATION_STYLE_ASSIGNMENT((#633));
#633 = SURFACE_STYLE_USAGE(.BOTH.,#634);
#634 = SURFACE_SIDE_STYLE('',(#635));
#635 = SURFACE_STYLE_FILL_AREA(#636);
#636 = FILL_AREA_STYLE('',(#637));
#637 = FILL_AREA_STYLE_COLOUR('',#566);
#638 = STYLED_ITEM('color',(#639),#489);
#639 = PRESENTATION_STYLE_ASSIGNMENT((#640));
#640 = SURFACE_STYLE_USAGE(.BOTH.,#641);
#641 = SURFACE_SIDE_STYLE('',(#642));
#642 = SURFACE_STYLE_FILL_AREA(#643);
#643 = FILL_AREA_STYLE('',(#644));
#644 = FILL_AREA_STYLE_COLOUR('',#588);
#645 = STYLED_ITEM('color',(#646),#498);
#646 = PRESENTATION_STYLE_ASSIGNMENT((#647));
#647 = SURFACE_STYLE_USAGE(.BOTH.,#648);
#648 = SURFACE_SIDE_STYLE('',(#649));
#649 = SURFACE_STYLE_FILL_AREA(#650);
#650 = FILL_AREA_STYLE('',(#651));
#651 = FILL_AREA_STYLE_COLOUR('',#588);
#652 = STYLED_ITEM('color',(#653),#507);
#653 = PRESENTATION_STYLE_ASSIGNMENT((#654));
#654 = SURFACE_STYLE_USAGE(.BOTH.,#655);
#655 = SURFACE_SIDE_STYLE('',(#656));
#656 = SURFACE_STYLE_FILL_AREA(#657);
#657 = FILL_AREA_STYLE('',(#658));
#658 = FILL_AREA_STYLE_COLOUR('',#588);
ENDSEC;
END-ISO-10303-21;
