ISO-10303-21;
HEADER;
/* RV_Disc_D9mm_W4.5mm_P5mm.step 3D STEP model for use in ECAD systems
 * Copyright (C) 2018, kicad StepUp
 * 
 * This work is licensed under the [Creative Commons CC-BY-SA 4.0 License](https://creativecommons.org/licenses/by-sa/4.0/legalcode), 
 * with the following exception:
 * To the extent that the creation of electronic designs that use 'Licensed Material' can be considered to be 'Adapted Material', 
 * then the copyright holder waives article 3 of the license with respect to these designs and any generated files which use data provided 
 * as part of the 'Licensed Material'.
 * You are free to use the library data in your own projects without the obligation to share your project files under this or any other license agreement.
 * However, if you wish to redistribute these libraries, or parts thereof (including in modified form) as a collection then the exception above does not apply. 
 * Please refer to https://github.com/KiCad/kicad-packages3D/blob/master/LICENSE.md for further clarification of the exception.
 * Disclaimer of Warranties and Limitation of Liability.
 * These libraries are provided in the hope that they will be useful, but are provided without warranty of any kind, express or implied.
 * *USE 3D CAD DATA AT YOUR OWN RISK*
 * *DO NOT RELY UPON ANY INFORMATION FOUND HERE WITHOUT INDEPENDENT VERIFICATION.*
 * 
 */

FILE_DESCRIPTION(
/* description */ ('model of RV_Disc_D9mm_W4.5mm_P5mm'),
/* implementation_level */ '2;1');

FILE_NAME(
/* name */ 'RV_Disc_D9mm_W4.5mm_P5mm.step',
/* time_stamp */ '2018-11-11T21:11:47',
/* author */ ('kicad StepUp','ksu'),
/* organization */ ('FreeCAD'),
/* preprocessor_version */ 'OCC',
/* originating_system */ 'kicad StepUp',
/* authorisation */ '');

FILE_SCHEMA(('AUTOMOTIVE_DESIGN { 1 0 10303 214 1 1 1 1 }'));
ENDSEC;

DATA;
#1 = APPLICATION_PROTOCOL_DEFINITION('international standard',
'automotive_design',2000,#2);
#2 = APPLICATION_CONTEXT(
'core data for automotive mechanical design processes');
#3 = SHAPE_DEFINITION_REPRESENTATION(#4,#10);
#4 = PRODUCT_DEFINITION_SHAPE('','',#5);
#5 = PRODUCT_DEFINITION('design','',#6,#9);
#6 = PRODUCT_DEFINITION_FORMATION('','',#7);
#7 = PRODUCT('RV_Disc_D9mm_W45mm_P5mm','RV_Disc_D9mm_W45mm_P5mm','',(#8)
);
#8 = PRODUCT_CONTEXT('',#2,'mechanical');
#9 = PRODUCT_DEFINITION_CONTEXT('part definition',#2,'design');
#10 = ADVANCED_BREP_SHAPE_REPRESENTATION('',(#11,#15),#378);
#11 = AXIS2_PLACEMENT_3D('',#12,#13,#14);
#12 = CARTESIAN_POINT('',(0.E+000,0.E+000,0.E+000));
#13 = DIRECTION('',(0.E+000,0.E+000,1.));
#14 = DIRECTION('',(1.,0.E+000,-0.E+000));
#15 = MANIFOLD_SOLID_BREP('',#16);
#16 = CLOSED_SHELL('',(#17,#50,#143,#238,#247,#273,#282,#308,#334,#360,
#369));
#17 = ADVANCED_FACE('',(#18),#45,.T.);
#18 = FACE_BOUND('',#19,.F.);
#19 = EDGE_LOOP('',(#20,#30,#37,#38));
#20 = ORIENTED_EDGE('',*,*,#21,.T.);
#21 = EDGE_CURVE('',#22,#24,#26,.T.);
#22 = VERTEX_POINT('',#23);
#23 = CARTESIAN_POINT('',(7.,-0.99512195122,4.53));
#24 = VERTEX_POINT('',#25);
#25 = CARTESIAN_POINT('',(7.,-1.10487804878,4.53));
#26 = LINE('',#27,#28);
#27 = CARTESIAN_POINT('',(7.,1.2,4.53));
#28 = VECTOR('',#29,1.);
#29 = DIRECTION('',(0.E+000,-1.,0.E+000));
#30 = ORIENTED_EDGE('',*,*,#31,.T.);
#31 = EDGE_CURVE('',#24,#24,#32,.T.);
#32 = CIRCLE('',#33,4.5);
#33 = AXIS2_PLACEMENT_3D('',#34,#35,#36);
#34 = CARTESIAN_POINT('',(2.5,-1.10487804878,4.53));
#35 = DIRECTION('',(0.E+000,-1.,0.E+000));
#36 = DIRECTION('',(1.,0.E+000,0.E+000));
#37 = ORIENTED_EDGE('',*,*,#21,.F.);
#38 = ORIENTED_EDGE('',*,*,#39,.F.);
#39 = EDGE_CURVE('',#22,#22,#40,.T.);
#40 = CIRCLE('',#41,4.5);
#41 = AXIS2_PLACEMENT_3D('',#42,#43,#44);
#42 = CARTESIAN_POINT('',(2.5,-0.99512195122,4.53));
#43 = DIRECTION('',(0.E+000,-1.,0.E+000));
#44 = DIRECTION('',(1.,0.E+000,0.E+000));
#45 = CYLINDRICAL_SURFACE('',#46,4.5);
#46 = AXIS2_PLACEMENT_3D('',#47,#48,#49);
#47 = CARTESIAN_POINT('',(2.5,1.2,4.53));
#48 = DIRECTION('',(0.E+000,1.,0.E+000));
#49 = DIRECTION('',(1.,0.E+000,0.E+000));
#50 = ADVANCED_FACE('',(#51,#71),#138,.T.);
#51 = FACE_BOUND('',#52,.F.);
#52 = EDGE_LOOP('',(#53,#54,#63,#70));
#53 = ORIENTED_EDGE('',*,*,#39,.T.);
#54 = ORIENTED_EDGE('',*,*,#55,.T.);
#55 = EDGE_CURVE('',#22,#56,#58,.T.);
#56 = VERTEX_POINT('',#57);
#57 = CARTESIAN_POINT('',(4.80487804878,1.2,4.53));
#58 = CIRCLE('',#59,2.19512195122);
#59 = AXIS2_PLACEMENT_3D('',#60,#61,#62);
#60 = CARTESIAN_POINT('',(4.80487804878,-0.99512195122,4.53));
#61 = DIRECTION('',(0.E+000,0.E+000,1.));
#62 = DIRECTION('',(1.,0.E+000,0.E+000));
#63 = ORIENTED_EDGE('',*,*,#64,.F.);
#64 = EDGE_CURVE('',#56,#56,#65,.T.);
#65 = CIRCLE('',#66,2.30487804878);
#66 = AXIS2_PLACEMENT_3D('',#67,#68,#69);
#67 = CARTESIAN_POINT('',(2.5,1.2,4.53));
#68 = DIRECTION('',(0.E+000,-1.,0.E+000));
#69 = DIRECTION('',(1.,0.E+000,0.E+000));
#70 = ORIENTED_EDGE('',*,*,#55,.F.);
#71 = FACE_BOUND('',#72,.F.);
#72 = EDGE_LOOP('',(#73,#97));
#73 = ORIENTED_EDGE('',*,*,#74,.T.);
#74 = EDGE_CURVE('',#75,#77,#79,.T.);
#75 = VERTEX_POINT('',#76);
#76 = CARTESIAN_POINT('',(0.27,0.E+000,0.898565706228));
#77 = VERTEX_POINT('',#78);
#78 = CARTESIAN_POINT('',(-0.136913497063,-0.232711611919,1.053582779849
));
#79 = B_SPLINE_CURVE_WITH_KNOTS('',6,(#80,#81,#82,#83,#84,#85,#86,#87,
#88,#89,#90,#91,#92,#93,#94,#95,#96),.UNSPECIFIED.,.F.,.F.,(7,5,5,7)
,(0.E+000,0.28411687596,0.651254511153,1.),.UNSPECIFIED.);
#80 = CARTESIAN_POINT('',(0.27,-1.110223024625E-016,0.898565706228));
#81 = CARTESIAN_POINT('',(0.27,-2.591118987468E-002,0.883100938582));
#82 = CARTESIAN_POINT('',(0.267015918449,-5.217453054877E-002,
0.869888320117));
#83 = CARTESIAN_POINT('',(0.26089655299,-7.837464242335E-002,
0.859243471963));
#84 = CARTESIAN_POINT('',(0.251554893372,-0.104004450768,0.851457506876)
);
#85 = CARTESIAN_POINT('',(0.239058745732,-0.128470246408,0.84672961001)
);
#86 = CARTESIAN_POINT('',(0.203815301481,-0.180604067687,0.842981156223)
);
#87 = CARTESIAN_POINT('',(0.179125663727,-0.207139467115,0.846030366023)
);
#88 = CARTESIAN_POINT('',(0.150208362722,-0.229584062455,0.854335287227)
);
#89 = CARTESIAN_POINT('',(0.118148519562,-0.246982210935,0.867485728941)
);
#90 = CARTESIAN_POINT('',(8.425580144611E-002,-0.258904530225,
0.884759353887));
#91 = CARTESIAN_POINT('',(1.702596650407E-002,-0.271515201499,
0.924840055847));
#92 = CARTESIAN_POINT('',(-1.626809408869E-002,-0.272739394741,
0.94733498192));
#93 = CARTESIAN_POINT('',(-4.907671949581E-002,-0.269061612282,
0.972105604924));
#94 = CARTESIAN_POINT('',(-8.050976903238E-002,-0.260847939917,
0.99843580494));
#95 = CARTESIAN_POINT('',(-0.109946562766,-0.248577331937,1.025752451875
));
#96 = CARTESIAN_POINT('',(-0.136913497063,-0.232711611919,1.053582779849
));
#97 = ORIENTED_EDGE('',*,*,#98,.T.);
#98 = EDGE_CURVE('',#77,#75,#99,.T.);
#99 = B_SPLINE_CURVE_WITH_KNOTS('',7,(#100,#101,#102,#103,#104,#105,#106
,#107,#108,#109,#110,#111,#112,#113,#114,#115,#116,#117,#118,#119,
#120,#121,#122,#123,#124,#125,#126,#127,#128,#129,#130,#131,#132,
#133,#134,#135,#136,#137),.UNSPECIFIED.,.F.,.F.,(8,6,6,6,6,6,8),(
0.E+000,7.833568605094E-002,0.301595598545,0.468992443689,
0.628381778786,0.782736900745,1.),.UNSPECIFIED.);
#100 = CARTESIAN_POINT('',(-0.136913497063,-0.232711611919,
1.053582779849));
#101 = CARTESIAN_POINT('',(-0.147680653597,-0.226376865482,
1.064694665776));
#102 = CARTESIAN_POINT('',(-0.158063984646,-0.219485544022,
1.075885106796));
#103 = CARTESIAN_POINT('',(-0.168035512873,-0.212065088787,
1.087125956858));
#104 = CARTESIAN_POINT('',(-0.177569612408,-0.204143409575,
1.098390215053));
#105 = CARTESIAN_POINT('',(-0.186642711892,-0.195748732737,
1.109651749985));
#106 = CARTESIAN_POINT('',(-0.195232997533,-0.186909449192,
1.120885024151));
#107 = CARTESIAN_POINT('',(-0.22636873535,-0.151275446194,1.163927689372
));
#108 = CARTESIAN_POINT('',(-0.24531614156,-0.121532457956,1.195336891692
));
#109 = CARTESIAN_POINT('',(-0.259719238022,-8.906866168248E-002,
1.225734315837));
#110 = CARTESIAN_POINT('',(-0.269180901529,-5.454822566392E-002,
1.254542602721));
#111 = CARTESIAN_POINT('',(-0.273336795843,-1.870843513077E-002,
1.281086773734));
#112 = CARTESIAN_POINT('',(-0.271886822681,1.759892738171E-002,
1.304558329534));
#113 = CARTESIAN_POINT('',(-0.259261055183,8.020360728212E-002,
1.338615241107));
#114 = CARTESIAN_POINT('',(-0.250611579973,0.106723083882,1.350950665674
));
#115 = CARTESIAN_POINT('',(-0.238664418039,0.132492797739,1.36062434701)
);
#116 = CARTESIAN_POINT('',(-0.223433023138,0.156984954324,1.36718899919)
);
#117 = CARTESIAN_POINT('',(-0.205072502312,0.179598340099,1.370198620424
));
#118 = CARTESIAN_POINT('',(-0.183960217808,0.199744984103,1.369367236837
));
#119 = CARTESIAN_POINT('',(-0.138505885529,0.233403411933,1.360280996475
));
#120 = CARTESIAN_POINT('',(-0.114350564402,0.247198377131,1.352379808226
));
#121 = CARTESIAN_POINT('',(-8.872666933257E-002,0.257969938581,
1.341018997347));
#122 = CARTESIAN_POINT('',(-6.223928733686E-002,0.265520946657,
1.326455620724));
#123 = CARTESIAN_POINT('',(-3.546828699903E-002,0.269855389767,
1.309149080382));
#124 = CARTESIAN_POINT('',(-8.909767546568E-003,0.271101813714,
1.289630429856));
#125 = CARTESIAN_POINT('',(4.215116023708E-002,0.267874701312,
1.247900211422));
#126 = CARTESIAN_POINT('',(6.670856050339E-002,0.263579442174,
1.225779587981));
#127 = CARTESIAN_POINT('',(9.039787446128E-002,0.256749815089,
1.202494074101));
#128 = CARTESIAN_POINT('',(0.112980665151,0.247580673687,1.178447744753)
);
#129 = CARTESIAN_POINT('',(0.13426923685,0.236261562169,1.153997064355)
);
#130 = CARTESIAN_POINT('',(0.154107816253,0.222962841121,1.129446355932)
);
#131 = CARTESIAN_POINT('',(0.198027838741,0.186541456879,1.070746955991)
);
#132 = CARTESIAN_POINT('',(0.220516424588,0.161645970929,1.036800349588)
);
#133 = CARTESIAN_POINT('',(0.23941366089,0.133587957994,1.003983548652)
);
#134 = CARTESIAN_POINT('',(0.254285013043,0.102791312953,0.973013584227)
);
#135 = CARTESIAN_POINT('',(0.264642751478,6.977155497507E-002,
0.944628320943));
#136 = CARTESIAN_POINT('',(0.27,3.521073754079E-002,0.919580791887));
#137 = CARTESIAN_POINT('',(0.27,-8.326672684689E-017,0.898565706228));
#138 = TOROIDAL_SURFACE('',#139,2.30487804878,2.19512195122);
#139 = AXIS2_PLACEMENT_3D('',#140,#141,#142);
#140 = CARTESIAN_POINT('',(2.5,-0.99512195122,4.53));
#141 = DIRECTION('',(0.E+000,1.,0.E+000));
#142 = DIRECTION('',(1.,0.E+000,0.E+000));
#143 = ADVANCED_FACE('',(#144,#164),#233,.T.);
#144 = FACE_BOUND('',#145,.T.);
#145 = EDGE_LOOP('',(#146,#147,#156,#163));
#146 = ORIENTED_EDGE('',*,*,#31,.T.);
#147 = ORIENTED_EDGE('',*,*,#148,.T.);
#148 = EDGE_CURVE('',#24,#149,#151,.T.);
#149 = VERTEX_POINT('',#150);
#150 = CARTESIAN_POINT('',(4.80487804878,-3.3,4.53));
#151 = CIRCLE('',#152,2.19512195122);
#152 = AXIS2_PLACEMENT_3D('',#153,#154,#155);
#153 = CARTESIAN_POINT('',(4.80487804878,-1.10487804878,4.53));
#154 = DIRECTION('',(0.E+000,0.E+000,-1.));
#155 = DIRECTION('',(1.,0.E+000,0.E+000));
#156 = ORIENTED_EDGE('',*,*,#157,.F.);
#157 = EDGE_CURVE('',#149,#149,#158,.T.);
#158 = CIRCLE('',#159,2.30487804878);
#159 = AXIS2_PLACEMENT_3D('',#160,#161,#162);
#160 = CARTESIAN_POINT('',(2.5,-3.3,4.53));
#161 = DIRECTION('',(0.E+000,-1.,0.E+000));
#162 = DIRECTION('',(1.,0.E+000,0.E+000));
#163 = ORIENTED_EDGE('',*,*,#148,.F.);
#164 = FACE_BOUND('',#165,.T.);
#165 = EDGE_LOOP('',(#166,#193));
#166 = ORIENTED_EDGE('',*,*,#167,.T.);
#167 = EDGE_CURVE('',#168,#170,#172,.T.);
#168 = VERTEX_POINT('',#169);
#169 = CARTESIAN_POINT('',(5.27,-2.1,1.291587575681));
#170 = VERTEX_POINT('',#171);
#171 = CARTESIAN_POINT('',(4.781702808277,-1.941109043411,0.844686390215
));
#172 = B_SPLINE_CURVE_WITH_KNOTS('',7,(#173,#174,#175,#176,#177,#178,
#179,#180,#181,#182,#183,#184,#185,#186,#187,#188,#189,#190,#191,
#192),.UNSPECIFIED.,.F.,.F.,(8,6,6,8),(0.E+000,0.299652149855,
0.713613098255,1.),.UNSPECIFIED.);
#173 = CARTESIAN_POINT('',(5.27,-2.1,1.291587575681));
#174 = CARTESIAN_POINT('',(5.27,-2.071564174632,1.272556299384));
#175 = CARTESIAN_POINT('',(5.266506048125,-2.043431248504,1.251592843457
));
#176 = CARTESIAN_POINT('',(5.259652235399,-2.016034719064,1.229108757441
));
#177 = CARTESIAN_POINT('',(5.249604843011,-1.98976222497,1.205462967765)
);
#178 = CARTESIAN_POINT('',(5.236550945727,-1.964969074872,1.180972664928
));
#179 = CARTESIAN_POINT('',(5.220695973791,-1.941990351763,1.155929064907
));
#180 = CARTESIAN_POINT('',(5.176815595276,-1.892363438425,1.095651588164
));
#181 = CARTESIAN_POINT('',(5.146486425987,-1.867695044601,1.060218299435
));
#182 = CARTESIAN_POINT('',(5.111877917239,-1.847949407917,1.025027149513
));
#183 = CARTESIAN_POINT('',(5.073717094189,-1.834009930416,0.990874185964
));
#184 = CARTESIAN_POINT('',(5.033051670483,-1.826786631736,0.958750359945
));
#185 = CARTESIAN_POINT('',(4.991391112769,-1.826948853867,0.929880705189
));
#186 = CARTESIAN_POINT('',(4.92219506396,-1.839856007823,0.888589682126)
);
#187 = CARTESIAN_POINT('',(4.894281803525,-1.848704491622,0.873852256813
));
#188 = CARTESIAN_POINT('',(4.867373123558,-1.861133851087,0.861681853234
));
#189 = CARTESIAN_POINT('',(4.842114844762,-1.876994596488,0.852456967216
));
#190 = CARTESIAN_POINT('',(4.819112140827,-1.895957616571,0.846470869718
));
#191 = CARTESIAN_POINT('',(4.798864902841,-1.917530375828,0.843885942941
));
#192 = CARTESIAN_POINT('',(4.781702808277,-1.941109043411,0.844686390215
));
#193 = ORIENTED_EDGE('',*,*,#194,.T.);
#194 = EDGE_CURVE('',#170,#168,#195,.T.);
#195 = B_SPLINE_CURVE_WITH_KNOTS('',8,(#196,#197,#198,#199,#200,#201,
#202,#203,#204,#205,#206,#207,#208,#209,#210,#211,#212,#213,#214,
#215,#216,#217,#218,#219,#220,#221,#222,#223,#224,#225,#226,#227,
#228,#229,#230,#231,#232),.UNSPECIFIED.,.F.,.F.,(9,7,7,7,7,9),(
0.E+000,0.406641775166,0.59053369426,0.760428345041,0.904157770638,
1.),.UNSPECIFIED.);
#196 = CARTESIAN_POINT('',(4.781702808277,-1.941109043411,0.844686390215
));
#197 = CARTESIAN_POINT('',(4.74952399112,-1.985318893797,0.846187223716)
);
#198 = CARTESIAN_POINT('',(4.728107070672,-2.03624771109,0.859340465654)
);
#199 = CARTESIAN_POINT('',(4.719166036192,-2.090313463611,0.883891862823
));
#200 = CARTESIAN_POINT('',(4.722450379499,-2.143641561506,0.918087805267
));
#201 = CARTESIAN_POINT('',(4.736418876283,-2.193565786824,0.959532810246
));
#202 = CARTESIAN_POINT('',(4.759491290026,-2.23836758515,1.005906034077)
);
#203 = CARTESIAN_POINT('',(4.7902983747,-2.27689542019,1.055166439451));
#204 = CARTESIAN_POINT('',(4.844706299576,-2.321963686692,1.127851608881
));
#205 = CARTESIAN_POINT('',(4.862995027057,-2.334452698179,1.150626908116
));
#206 = CARTESIAN_POINT('',(4.882521381143,-2.345284915499,1.173343048334
));
#207 = CARTESIAN_POINT('',(4.903170662099,-2.35433558635,1.195777309828)
);
#208 = CARTESIAN_POINT('',(4.924810345518,-2.361467261044,1.217675477289
));
#209 = CARTESIAN_POINT('',(4.947279907213,-2.366535170655,1.238750955565
));
#210 = CARTESIAN_POINT('',(4.970382096207,-2.369397496729,1.258692107216
));
#211 = CARTESIAN_POINT('',(5.015580960305,-2.370422995397,1.294256443419
));
#212 = CARTESIAN_POINT('',(5.037624200561,-2.368927202505,1.310095523436
));
#213 = CARTESIAN_POINT('',(5.059775052365,-2.365344738843,1.324411233765
));
#214 = CARTESIAN_POINT('',(5.081767218943,-2.359609113588,1.336921501774
));
#215 = CARTESIAN_POINT('',(5.103302894653,-2.351706614862,1.347377665991
));
#216 = CARTESIAN_POINT('',(5.12406644282,-2.341692006362,1.355592052994)
);
#217 = CARTESIAN_POINT('',(5.143747287696,-2.329699065899,1.361461465544
));
#218 = CARTESIAN_POINT('',(5.177574588225,-2.304310960479,1.367968800378
));
#219 = CARTESIAN_POINT('',(5.192116139236,-2.291408959266,1.369274946571
));
#220 = CARTESIAN_POINT('',(5.205535223038,-2.277363654656,1.3689016716)
);
#221 = CARTESIAN_POINT('',(5.2177057085,-2.262324491616,1.366898180093)
);
#222 = CARTESIAN_POINT('',(5.228537574591,-2.246452898983,1.363350647546
));
#223 = CARTESIAN_POINT('',(5.237974623117,-2.229911402197,1.358368156389
));
#224 = CARTESIAN_POINT('',(5.245989113478,-2.212855617427,1.352070150817
));
#225 = CARTESIAN_POINT('',(5.256963825988,-2.183808725205,1.339577737637
));
#226 = CARTESIAN_POINT('',(5.260718715176,-2.172022543324,1.334047525436
));
#227 = CARTESIAN_POINT('',(5.263836094951,-2.160112017988,1.328019596908
));
#228 = CARTESIAN_POINT('',(5.26631751556,-2.148116594169,1.321528513102)
);
#229 = CARTESIAN_POINT('',(5.268167342923,-2.136073634035,1.314608089103
));
#230 = CARTESIAN_POINT('',(5.269392131973,-2.124018325744,1.307290910141
));
#231 = CARTESIAN_POINT('',(5.27,-2.111983592232,1.29960784771));
#232 = CARTESIAN_POINT('',(5.27,-2.1,1.291587575681));
#233 = TOROIDAL_SURFACE('',#234,2.30487804878,2.19512195122);
#234 = AXIS2_PLACEMENT_3D('',#235,#236,#237);
#235 = CARTESIAN_POINT('',(2.5,-1.10487804878,4.53));
#236 = DIRECTION('',(0.E+000,-1.,0.E+000));
#237 = DIRECTION('',(1.,0.E+000,0.E+000));
#238 = ADVANCED_FACE('',(#239),#242,.F.);
#239 = FACE_BOUND('',#240,.F.);
#240 = EDGE_LOOP('',(#241));
#241 = ORIENTED_EDGE('',*,*,#64,.T.);
#242 = PLANE('',#243);
#243 = AXIS2_PLACEMENT_3D('',#244,#245,#246);
#244 = CARTESIAN_POINT('',(2.5,1.2,4.53));
#245 = DIRECTION('',(-0.E+000,-1.,-0.E+000));
#246 = DIRECTION('',(0.E+000,0.E+000,-1.));
#247 = ADVANCED_FACE('',(#248),#268,.T.);
#248 = FACE_BOUND('',#249,.T.);
#249 = EDGE_LOOP('',(#250,#251,#259,#266,#267));
#250 = ORIENTED_EDGE('',*,*,#98,.T.);
#251 = ORIENTED_EDGE('',*,*,#252,.T.);
#252 = EDGE_CURVE('',#75,#253,#255,.T.);
#253 = VERTEX_POINT('',#254);
#254 = CARTESIAN_POINT('',(0.27,0.E+000,-2.892));
#255 = LINE('',#256,#257);
#256 = CARTESIAN_POINT('',(0.27,0.E+000,4.53));
#257 = VECTOR('',#258,1.);
#258 = DIRECTION('',(-0.E+000,-0.E+000,-1.));
#259 = ORIENTED_EDGE('',*,*,#260,.T.);
#260 = EDGE_CURVE('',#253,#253,#261,.T.);
#261 = CIRCLE('',#262,0.27);
#262 = AXIS2_PLACEMENT_3D('',#263,#264,#265);
#263 = CARTESIAN_POINT('',(0.E+000,0.E+000,-2.892));
#264 = DIRECTION('',(0.E+000,0.E+000,1.));
#265 = DIRECTION('',(1.,0.E+000,0.E+000));
#266 = ORIENTED_EDGE('',*,*,#252,.F.);
#267 = ORIENTED_EDGE('',*,*,#74,.T.);
#268 = CYLINDRICAL_SURFACE('',#269,0.27);
#269 = AXIS2_PLACEMENT_3D('',#270,#271,#272);
#270 = CARTESIAN_POINT('',(0.E+000,0.E+000,4.53));
#271 = DIRECTION('',(0.E+000,0.E+000,1.));
#272 = DIRECTION('',(1.,0.E+000,0.E+000));
#273 = ADVANCED_FACE('',(#274),#277,.T.);
#274 = FACE_BOUND('',#275,.T.);
#275 = EDGE_LOOP('',(#276));
#276 = ORIENTED_EDGE('',*,*,#157,.T.);
#277 = PLANE('',#278);
#278 = AXIS2_PLACEMENT_3D('',#279,#280,#281);
#279 = CARTESIAN_POINT('',(2.5,-3.3,4.53));
#280 = DIRECTION('',(-0.E+000,-1.,-0.E+000));
#281 = DIRECTION('',(0.E+000,0.E+000,-1.));
#282 = ADVANCED_FACE('',(#283),#303,.T.);
#283 = FACE_BOUND('',#284,.T.);
#284 = EDGE_LOOP('',(#285,#286,#294,#301,#302));
#285 = ORIENTED_EDGE('',*,*,#167,.F.);
#286 = ORIENTED_EDGE('',*,*,#287,.T.);
#287 = EDGE_CURVE('',#168,#288,#290,.T.);
#288 = VERTEX_POINT('',#289);
#289 = CARTESIAN_POINT('',(5.27,-2.1,-2.892));
#290 = LINE('',#291,#292);
#291 = CARTESIAN_POINT('',(5.27,-2.1,4.53));
#292 = VECTOR('',#293,1.);
#293 = DIRECTION('',(-0.E+000,-0.E+000,-1.));
#294 = ORIENTED_EDGE('',*,*,#295,.T.);
#295 = EDGE_CURVE('',#288,#288,#296,.T.);
#296 = CIRCLE('',#297,0.27);
#297 = AXIS2_PLACEMENT_3D('',#298,#299,#300);
#298 = CARTESIAN_POINT('',(5.,-2.1,-2.892));
#299 = DIRECTION('',(0.E+000,0.E+000,1.));
#300 = DIRECTION('',(1.,0.E+000,0.E+000));
#301 = ORIENTED_EDGE('',*,*,#287,.F.);
#302 = ORIENTED_EDGE('',*,*,#194,.F.);
#303 = CYLINDRICAL_SURFACE('',#304,0.27);
#304 = AXIS2_PLACEMENT_3D('',#305,#306,#307);
#305 = CARTESIAN_POINT('',(5.,-2.1,4.53));
#306 = DIRECTION('',(0.E+000,0.E+000,1.));
#307 = DIRECTION('',(1.,0.E+000,0.E+000));
#308 = ADVANCED_FACE('',(#309),#329,.T.);
#309 = FACE_BOUND('',#310,.F.);
#310 = EDGE_LOOP('',(#311,#320,#321,#322));
#311 = ORIENTED_EDGE('',*,*,#312,.F.);
#312 = EDGE_CURVE('',#253,#313,#315,.T.);
#313 = VERTEX_POINT('',#314);
#314 = CARTESIAN_POINT('',(0.162,0.E+000,-3.));
#315 = CIRCLE('',#316,0.108);
#316 = AXIS2_PLACEMENT_3D('',#317,#318,#319);
#317 = CARTESIAN_POINT('',(0.162,0.E+000,-2.892));
#318 = DIRECTION('',(-0.E+000,1.,0.E+000));
#319 = DIRECTION('',(1.,0.E+000,0.E+000));
#320 = ORIENTED_EDGE('',*,*,#260,.T.);
#321 = ORIENTED_EDGE('',*,*,#312,.T.);
#322 = ORIENTED_EDGE('',*,*,#323,.F.);
#323 = EDGE_CURVE('',#313,#313,#324,.T.);
#324 = CIRCLE('',#325,0.162);
#325 = AXIS2_PLACEMENT_3D('',#326,#327,#328);
#326 = CARTESIAN_POINT('',(0.E+000,0.E+000,-3.));
#327 = DIRECTION('',(0.E+000,0.E+000,1.));
#328 = DIRECTION('',(1.,0.E+000,0.E+000));
#329 = TOROIDAL_SURFACE('',#330,0.162,0.108);
#330 = AXIS2_PLACEMENT_3D('',#331,#332,#333);
#331 = CARTESIAN_POINT('',(0.E+000,0.E+000,-2.892));
#332 = DIRECTION('',(-0.E+000,-0.E+000,-1.));
#333 = DIRECTION('',(1.,0.E+000,0.E+000));
#334 = ADVANCED_FACE('',(#335),#355,.T.);
#335 = FACE_BOUND('',#336,.F.);
#336 = EDGE_LOOP('',(#337,#346,#347,#348));
#337 = ORIENTED_EDGE('',*,*,#338,.F.);
#338 = EDGE_CURVE('',#288,#339,#341,.T.);
#339 = VERTEX_POINT('',#340);
#340 = CARTESIAN_POINT('',(5.162,-2.1,-3.));
#341 = CIRCLE('',#342,0.108);
#342 = AXIS2_PLACEMENT_3D('',#343,#344,#345);
#343 = CARTESIAN_POINT('',(5.162,-2.1,-2.892));
#344 = DIRECTION('',(-0.E+000,1.,0.E+000));
#345 = DIRECTION('',(1.,0.E+000,0.E+000));
#346 = ORIENTED_EDGE('',*,*,#295,.T.);
#347 = ORIENTED_EDGE('',*,*,#338,.T.);
#348 = ORIENTED_EDGE('',*,*,#349,.F.);
#349 = EDGE_CURVE('',#339,#339,#350,.T.);
#350 = CIRCLE('',#351,0.162);
#351 = AXIS2_PLACEMENT_3D('',#352,#353,#354);
#352 = CARTESIAN_POINT('',(5.,-2.1,-3.));
#353 = DIRECTION('',(0.E+000,0.E+000,1.));
#354 = DIRECTION('',(1.,0.E+000,0.E+000));
#355 = TOROIDAL_SURFACE('',#356,0.162,0.108);
#356 = AXIS2_PLACEMENT_3D('',#357,#358,#359);
#357 = CARTESIAN_POINT('',(5.,-2.1,-2.892));
#358 = DIRECTION('',(-0.E+000,-0.E+000,-1.));
#359 = DIRECTION('',(1.,0.E+000,0.E+000));
#360 = ADVANCED_FACE('',(#361),#364,.F.);
#361 = FACE_BOUND('',#362,.F.);
#362 = EDGE_LOOP('',(#363));
#363 = ORIENTED_EDGE('',*,*,#323,.T.);
#364 = PLANE('',#365);
#365 = AXIS2_PLACEMENT_3D('',#366,#367,#368);
#366 = CARTESIAN_POINT('',(-1.978356673234E-017,2.854531227236E-017,-3.)
);
#367 = DIRECTION('',(0.E+000,0.E+000,1.));
#368 = DIRECTION('',(1.,0.E+000,0.E+000));
#369 = ADVANCED_FACE('',(#370),#373,.F.);
#370 = FACE_BOUND('',#371,.F.);
#371 = EDGE_LOOP('',(#372));
#372 = ORIENTED_EDGE('',*,*,#349,.T.);
#373 = PLANE('',#374);
#374 = AXIS2_PLACEMENT_3D('',#375,#376,#377);
#375 = CARTESIAN_POINT('',(5.,-2.1,-3.));
#376 = DIRECTION('',(0.E+000,0.E+000,1.));
#377 = DIRECTION('',(1.,0.E+000,0.E+000));
#378 = ( GEOMETRIC_REPRESENTATION_CONTEXT(3)
GLOBAL_UNCERTAINTY_ASSIGNED_CONTEXT((#382)) GLOBAL_UNIT_ASSIGNED_CONTEXT
((#379,#380,#381)) REPRESENTATION_CONTEXT('Context #1',
'3D Context with UNIT and UNCERTAINTY') );
#379 = ( LENGTH_UNIT() NAMED_UNIT(*) SI_UNIT(.MILLI.,.METRE.) );
#380 = ( NAMED_UNIT(*) PLANE_ANGLE_UNIT() SI_UNIT($,.RADIAN.) );
#381 = ( NAMED_UNIT(*) SI_UNIT($,.STERADIAN.) SOLID_ANGLE_UNIT() );
#382 = UNCERTAINTY_MEASURE_WITH_UNIT(LENGTH_MEASURE(1.E-007),#379,
'distance_accuracy_value','confusion accuracy');
#383 = PRODUCT_RELATED_PRODUCT_CATEGORY('part',$,(#7));
#384 = MECHANICAL_DESIGN_GEOMETRIC_PRESENTATION_REPRESENTATION('',(#385,
#393,#400,#407,#414,#422,#429,#436,#443,#450,#457),#378);
#385 = STYLED_ITEM('color',(#386),#17);
#386 = PRESENTATION_STYLE_ASSIGNMENT((#387));
#387 = SURFACE_STYLE_USAGE(.BOTH.,#388);
#388 = SURFACE_SIDE_STYLE('',(#389));
#389 = SURFACE_STYLE_FILL_AREA(#390);
#390 = FILL_AREA_STYLE('',(#391));
#391 = FILL_AREA_STYLE_COLOUR('',#392);
#392 = COLOUR_RGB('',0.136999994516,0.402000010014,0.726999998093);
#393 = STYLED_ITEM('color',(#394),#50);
#394 = PRESENTATION_STYLE_ASSIGNMENT((#395));
#395 = SURFACE_STYLE_USAGE(.BOTH.,#396);
#396 = SURFACE_SIDE_STYLE('',(#397));
#397 = SURFACE_STYLE_FILL_AREA(#398);
#398 = FILL_AREA_STYLE('',(#399));
#399 = FILL_AREA_STYLE_COLOUR('',#392);
#400 = STYLED_ITEM('color',(#401),#143);
#401 = PRESENTATION_STYLE_ASSIGNMENT((#402));
#402 = SURFACE_STYLE_USAGE(.BOTH.,#403);
#403 = SURFACE_SIDE_STYLE('',(#404));
#404 = SURFACE_STYLE_FILL_AREA(#405);
#405 = FILL_AREA_STYLE('',(#406));
#406 = FILL_AREA_STYLE_COLOUR('',#392);
#407 = STYLED_ITEM('color',(#408),#238);
#408 = PRESENTATION_STYLE_ASSIGNMENT((#409));
#409 = SURFACE_STYLE_USAGE(.BOTH.,#410);
#410 = SURFACE_SIDE_STYLE('',(#411));
#411 = SURFACE_STYLE_FILL_AREA(#412);
#412 = FILL_AREA_STYLE('',(#413));
#413 = FILL_AREA_STYLE_COLOUR('',#392);
#414 = STYLED_ITEM('color',(#415),#247);
#415 = PRESENTATION_STYLE_ASSIGNMENT((#416));
#416 = SURFACE_STYLE_USAGE(.BOTH.,#417);
#417 = SURFACE_SIDE_STYLE('',(#418));
#418 = SURFACE_STYLE_FILL_AREA(#419);
#419 = FILL_AREA_STYLE('',(#420));
#420 = FILL_AREA_STYLE_COLOUR('',#421);
#421 = COLOUR_RGB('',0.824000000954,0.819999992847,0.78100001812);
#422 = STYLED_ITEM('color',(#423),#273);
#423 = PRESENTATION_STYLE_ASSIGNMENT((#424));
#424 = SURFACE_STYLE_USAGE(.BOTH.,#425);
#425 = SURFACE_SIDE_STYLE('',(#426));
#426 = SURFACE_STYLE_FILL_AREA(#427);
#427 = FILL_AREA_STYLE('',(#428));
#428 = FILL_AREA_STYLE_COLOUR('',#392);
#429 = STYLED_ITEM('color',(#430),#282);
#430 = PRESENTATION_STYLE_ASSIGNMENT((#431));
#431 = SURFACE_STYLE_USAGE(.BOTH.,#432);
#432 = SURFACE_SIDE_STYLE('',(#433));
#433 = SURFACE_STYLE_FILL_AREA(#434);
#434 = FILL_AREA_STYLE('',(#435));
#435 = FILL_AREA_STYLE_COLOUR('',#421);
#436 = STYLED_ITEM('color',(#437),#308);
#437 = PRESENTATION_STYLE_ASSIGNMENT((#438));
#438 = SURFACE_STYLE_USAGE(.BOTH.,#439);
#439 = SURFACE_SIDE_STYLE('',(#440));
#440 = SURFACE_STYLE_FILL_AREA(#441);
#441 = FILL_AREA_STYLE('',(#442));
#442 = FILL_AREA_STYLE_COLOUR('',#421);
#443 = STYLED_ITEM('color',(#444),#334);
#444 = PRESENTATION_STYLE_ASSIGNMENT((#445));
#445 = SURFACE_STYLE_USAGE(.BOTH.,#446);
#446 = SURFACE_SIDE_STYLE('',(#447));
#447 = SURFACE_STYLE_FILL_AREA(#448);
#448 = FILL_AREA_STYLE('',(#449));
#449 = FILL_AREA_STYLE_COLOUR('',#421);
#450 = STYLED_ITEM('color',(#451),#360);
#451 = PRESENTATION_STYLE_ASSIGNMENT((#452));
#452 = SURFACE_STYLE_USAGE(.BOTH.,#453);
#453 = SURFACE_SIDE_STYLE('',(#454));
#454 = SURFACE_STYLE_FILL_AREA(#455);
#455 = FILL_AREA_STYLE('',(#456));
#456 = FILL_AREA_STYLE_COLOUR('',#421);
#457 = STYLED_ITEM('color',(#458),#369);
#458 = PRESENTATION_STYLE_ASSIGNMENT((#459));
#459 = SURFACE_STYLE_USAGE(.BOTH.,#460);
#460 = SURFACE_SIDE_STYLE('',(#461));
#461 = SURFACE_STYLE_FILL_AREA(#462);
#462 = FILL_AREA_STYLE('',(#463));
#463 = FILL_AREA_STYLE_COLOUR('',#421);
ENDSEC;
END-ISO-10303-21;
