ISO-10303-21;
HEADER;
/* RV_Disc_D9mm_W3.4mm_P5mm.step 3D STEP model for use in ECAD systems
 * Copyright (C) 2018, kicad StepUp
 * 
 * This work is licensed under the [Creative Commons CC-BY-SA 4.0 License](https://creativecommons.org/licenses/by-sa/4.0/legalcode), 
 * with the following exception:
 * To the extent that the creation of electronic designs that use 'Licensed Material' can be considered to be 'Adapted Material', 
 * then the copyright holder waives article 3 of the license with respect to these designs and any generated files which use data provided 
 * as part of the 'Licensed Material'.
 * You are free to use the library data in your own projects without the obligation to share your project files under this or any other license agreement.
 * However, if you wish to redistribute these libraries, or parts thereof (including in modified form) as a collection then the exception above does not apply. 
 * Please refer to https://github.com/KiCad/kicad-packages3D/blob/master/LICENSE.md for further clarification of the exception.
 * Disclaimer of Warranties and Limitation of Liability.
 * These libraries are provided in the hope that they will be useful, but are provided without warranty of any kind, express or implied.
 * *USE 3D CAD DATA AT YOUR OWN RISK*
 * *DO NOT RELY UPON ANY INFORMATION FOUND HERE WITHOUT INDEPENDENT VERIFICATION.*
 * 
 */

FILE_DESCRIPTION(
/* description */ ('model of RV_Disc_D9mm_W3.4mm_P5mm'),
/* implementation_level */ '2;1');

FILE_NAME(
/* name */ 'RV_Disc_D9mm_W3.4mm_P5mm.step',
/* time_stamp */ '2018-11-11T21:09:58',
/* author */ ('kicad StepUp','ksu'),
/* organization */ ('FreeCAD'),
/* preprocessor_version */ 'OCC',
/* originating_system */ 'kicad StepUp',
/* authorisation */ '');

FILE_SCHEMA(('AUTOMOTIVE_DESIGN { 1 0 10303 214 1 1 1 1 }'));
ENDSEC;

DATA;
#1 = APPLICATION_PROTOCOL_DEFINITION('international standard',
'automotive_design',2000,#2);
#2 = APPLICATION_CONTEXT(
'core data for automotive mechanical design processes');
#3 = SHAPE_DEFINITION_REPRESENTATION(#4,#10);
#4 = PRODUCT_DEFINITION_SHAPE('','',#5);
#5 = PRODUCT_DEFINITION('design','',#6,#9);
#6 = PRODUCT_DEFINITION_FORMATION('','',#7);
#7 = PRODUCT('RV_Disc_D9mm_W34mm_P5mm','RV_Disc_D9mm_W34mm_P5mm','',(#8)
);
#8 = PRODUCT_CONTEXT('',#2,'mechanical');
#9 = PRODUCT_DEFINITION_CONTEXT('part definition',#2,'design');
#10 = ADVANCED_BREP_SHAPE_REPRESENTATION('',(#11,#15),#367);
#11 = AXIS2_PLACEMENT_3D('',#12,#13,#14);
#12 = CARTESIAN_POINT('',(0.E+000,0.E+000,0.E+000));
#13 = DIRECTION('',(0.E+000,0.E+000,1.));
#14 = DIRECTION('',(1.,0.E+000,-0.E+000));
#15 = MANIFOLD_SOLID_BREP('',#16);
#16 = CLOSED_SHELL('',(#17,#50,#135,#227,#236,#262,#271,#297,#323,#349,
#358));
#17 = ADVANCED_FACE('',(#18),#45,.T.);
#18 = FACE_BOUND('',#19,.F.);
#19 = EDGE_LOOP('',(#20,#30,#37,#38));
#20 = ORIENTED_EDGE('',*,*,#21,.T.);
#21 = EDGE_CURVE('',#22,#24,#26,.T.);
#22 = VERTEX_POINT('',#23);
#23 = CARTESIAN_POINT('',(7.,-0.583536585366,4.53));
#24 = VERTEX_POINT('',#25);
#25 = CARTESIAN_POINT('',(7.,-0.666463414634,4.53));
#26 = LINE('',#27,#28);
#27 = CARTESIAN_POINT('',(7.,1.075,4.53));
#28 = VECTOR('',#29,1.);
#29 = DIRECTION('',(0.E+000,-1.,0.E+000));
#30 = ORIENTED_EDGE('',*,*,#31,.T.);
#31 = EDGE_CURVE('',#24,#24,#32,.T.);
#32 = CIRCLE('',#33,4.5);
#33 = AXIS2_PLACEMENT_3D('',#34,#35,#36);
#34 = CARTESIAN_POINT('',(2.5,-0.666463414634,4.53));
#35 = DIRECTION('',(0.E+000,-1.,0.E+000));
#36 = DIRECTION('',(1.,0.E+000,0.E+000));
#37 = ORIENTED_EDGE('',*,*,#21,.F.);
#38 = ORIENTED_EDGE('',*,*,#39,.F.);
#39 = EDGE_CURVE('',#22,#22,#40,.T.);
#40 = CIRCLE('',#41,4.5);
#41 = AXIS2_PLACEMENT_3D('',#42,#43,#44);
#42 = CARTESIAN_POINT('',(2.5,-0.583536585366,4.53));
#43 = DIRECTION('',(0.E+000,-1.,0.E+000));
#44 = DIRECTION('',(1.,0.E+000,0.E+000));
#45 = CYLINDRICAL_SURFACE('',#46,4.5);
#46 = AXIS2_PLACEMENT_3D('',#47,#48,#49);
#47 = CARTESIAN_POINT('',(2.5,1.075,4.53));
#48 = DIRECTION('',(0.E+000,1.,0.E+000));
#49 = DIRECTION('',(1.,0.E+000,0.E+000));
#50 = ADVANCED_FACE('',(#51,#71),#130,.T.);
#51 = FACE_BOUND('',#52,.F.);
#52 = EDGE_LOOP('',(#53,#54,#63,#70));
#53 = ORIENTED_EDGE('',*,*,#39,.T.);
#54 = ORIENTED_EDGE('',*,*,#55,.T.);
#55 = EDGE_CURVE('',#22,#56,#58,.T.);
#56 = VERTEX_POINT('',#57);
#57 = CARTESIAN_POINT('',(5.341463414634,1.075,4.53));
#58 = CIRCLE('',#59,1.658536585366);
#59 = AXIS2_PLACEMENT_3D('',#60,#61,#62);
#60 = CARTESIAN_POINT('',(5.341463414634,-0.583536585366,4.53));
#61 = DIRECTION('',(0.E+000,0.E+000,1.));
#62 = DIRECTION('',(1.,0.E+000,0.E+000));
#63 = ORIENTED_EDGE('',*,*,#64,.F.);
#64 = EDGE_CURVE('',#56,#56,#65,.T.);
#65 = CIRCLE('',#66,2.841463414634);
#66 = AXIS2_PLACEMENT_3D('',#67,#68,#69);
#67 = CARTESIAN_POINT('',(2.5,1.075,4.53));
#68 = DIRECTION('',(0.E+000,-1.,0.E+000));
#69 = DIRECTION('',(1.,0.E+000,0.E+000));
#70 = ORIENTED_EDGE('',*,*,#55,.F.);
#71 = FACE_BOUND('',#72,.F.);
#72 = EDGE_LOOP('',(#73,#100));
#73 = ORIENTED_EDGE('',*,*,#74,.T.);
#74 = EDGE_CURVE('',#75,#77,#79,.T.);
#75 = VERTEX_POINT('',#76);
#76 = CARTESIAN_POINT('',(0.27,0.E+000,0.743981458279));
#77 = VERTEX_POINT('',#78);
#78 = CARTESIAN_POINT('',(-0.190997342825,-0.190840286716,0.982280473973
));
#79 = B_SPLINE_CURVE_WITH_KNOTS('',7,(#80,#81,#82,#83,#84,#85,#86,#87,
#88,#89,#90,#91,#92,#93,#94,#95,#96,#97,#98,#99),.UNSPECIFIED.,.F.,
.F.,(8,6,6,8),(0.E+000,0.193022082625,0.537197548488,1.),
.UNSPECIFIED.);
#80 = CARTESIAN_POINT('',(0.27,-1.110223024625E-016,0.743981458279));
#81 = CARTESIAN_POINT('',(0.27,-1.700422431087E-002,0.7365637694));
#82 = CARTESIAN_POINT('',(0.268750657041,-3.412147209758E-002,
0.730124744932));
#83 = CARTESIAN_POINT('',(0.266221879955,-5.124234250267E-002,
0.724725447829));
#84 = CARTESIAN_POINT('',(0.262395648157,-6.824617946971E-002,
0.720416931744));
#85 = CARTESIAN_POINT('',(0.25726974402,-8.50045270768E-002,
0.717237152144));
#86 = CARTESIAN_POINT('',(0.250861485262,-0.10138458487,0.715207877426)
);
#87 = CARTESIAN_POINT('',(0.229570780079,-0.14554685201,0.712769119843)
);
#88 = CARTESIAN_POINT('',(0.211979360564,-0.172219037972,0.714872124435)
);
#89 = CARTESIAN_POINT('',(0.190662957977,-0.196513568534,0.720659451837)
);
#90 = CARTESIAN_POINT('',(0.166049895708,-0.217738254768,0.729951809339)
);
#91 = CARTESIAN_POINT('',(0.138733331278,-0.235329273052,0.742418880962)
);
#92 = CARTESIAN_POINT('',(0.109420384634,-0.248892939575,0.757630098815)
);
#93 = CARTESIAN_POINT('',(3.778541511794E-002,-0.270772036372,
0.798612539207));
#94 = CARTESIAN_POINT('',(-5.5933088338E-003,-0.275684559305,
0.826247758694));
#95 = CARTESIAN_POINT('',(-4.914200511353E-002,-0.272333501069,
0.856703546468));
#96 = CARTESIAN_POINT('',(-9.071722988097E-002,-0.261130393838,
0.888470971836));
#97 = CARTESIAN_POINT('',(-0.128813532518,-0.243123682799,0.920459965031
));
#98 = CARTESIAN_POINT('',(-0.162479330522,-0.219381768529,0.95191894372)
);
#99 = CARTESIAN_POINT('',(-0.190997342825,-0.190840286716,0.982280473973
));
#100 = ORIENTED_EDGE('',*,*,#101,.T.);
#101 = EDGE_CURVE('',#77,#75,#102,.T.);
#102 = B_SPLINE_CURVE_WITH_KNOTS('',6,(#103,#104,#105,#106,#107,#108,
#109,#110,#111,#112,#113,#114,#115,#116,#117,#118,#119,#120,#121,
#122,#123,#124,#125,#126,#127,#128,#129),.UNSPECIFIED.,.F.,.F.,(7,5,
5,5,5,7),(0.E+000,0.266581290769,0.447430228671,0.604971312935,
0.760024080512,1.),.UNSPECIFIED.);
#103 = CARTESIAN_POINT('',(-0.190997342825,-0.190840286716,
0.982280473973));
#104 = CARTESIAN_POINT('',(-0.223828771095,-0.157981839118,
1.017234256589));
#105 = CARTESIAN_POINT('',(-0.249567849381,-0.118654339329,
1.050613230621));
#106 = CARTESIAN_POINT('',(-0.266973124002,-7.458181465766E-002,
1.081366373416));
#107 = CARTESIAN_POINT('',(-0.275133186783,-2.760406976198E-002,
1.108537464949));
#108 = CARTESIAN_POINT('',(-0.273400459568,2.01258249413E-002,
1.13081547343));
#109 = CARTESIAN_POINT('',(-0.253884568436,9.736248843985E-002,
1.157332195085));
#110 = CARTESIAN_POINT('',(-0.24144504545,0.127781738903,1.165064470707)
);
#111 = CARTESIAN_POINT('',(-0.224471689091,0.156597008612,1.169311771102
));
#112 = CARTESIAN_POINT('',(-0.203159113258,0.182895504764,1.169526794936
));
#113 = CARTESIAN_POINT('',(-0.178062964336,0.205734973621,1.165263285783
));
#114 = CARTESIAN_POINT('',(-0.125699999374,0.24074782123,1.148966036434)
);
#115 = CARTESIAN_POINT('',(-9.911906920771E-002,0.253923445046,
1.138000842533));
#116 = CARTESIAN_POINT('',(-7.093625260754E-002,0.263516265774,
1.123675876365));
#117 = CARTESIAN_POINT('',(-4.190896923212E-002,0.269266858709,
1.106271365591));
#118 = CARTESIAN_POINT('',(-1.283582001572E-002,0.271190940443,
1.08640271052));
#119 = CARTESIAN_POINT('',(4.351683346325E-002,0.267936945414,
1.043597840074));
#120 = CARTESIAN_POINT('',(7.083675841951E-002,0.262869462301,
1.020700379401));
#121 = CARTESIAN_POINT('',(9.699160368339E-002,0.254581532586,
0.996740989168));
#122 = CARTESIAN_POINT('',(0.121602995817,0.243405893347,0.972323908185)
);
#123 = CARTESIAN_POINT('',(0.144426448288,0.229640653285,0.947918042942)
);
#124 = CARTESIAN_POINT('',(0.197496199302,0.188566278968,0.886743374476)
);
#125 = CARTESIAN_POINT('',(0.224905689574,0.158010890969,0.850588837074)
);
#126 = CARTESIAN_POINT('',(0.246702870375,0.122797917324,0.816918600958)
);
#127 = CARTESIAN_POINT('',(0.262058416857,8.379397676719E-002,
0.787069071963));
#128 = CARTESIAN_POINT('',(0.27,4.227138075136E-002,0.762421343872));
#129 = CARTESIAN_POINT('',(0.27,-8.326672684689E-017,0.743981458279));
#130 = TOROIDAL_SURFACE('',#131,2.841463414634,1.658536585366);
#131 = AXIS2_PLACEMENT_3D('',#132,#133,#134);
#132 = CARTESIAN_POINT('',(2.5,-0.583536585366,4.53));
#133 = DIRECTION('',(0.E+000,1.,0.E+000));
#134 = DIRECTION('',(1.,0.E+000,0.E+000));
#135 = ADVANCED_FACE('',(#136,#156),#222,.T.);
#136 = FACE_BOUND('',#137,.T.);
#137 = EDGE_LOOP('',(#138,#139,#148,#155));
#138 = ORIENTED_EDGE('',*,*,#31,.T.);
#139 = ORIENTED_EDGE('',*,*,#140,.T.);
#140 = EDGE_CURVE('',#24,#141,#143,.T.);
#141 = VERTEX_POINT('',#142);
#142 = CARTESIAN_POINT('',(5.341463414634,-2.325,4.53));
#143 = CIRCLE('',#144,1.658536585366);
#144 = AXIS2_PLACEMENT_3D('',#145,#146,#147);
#145 = CARTESIAN_POINT('',(5.341463414634,-0.666463414634,4.53));
#146 = DIRECTION('',(0.E+000,0.E+000,-1.));
#147 = DIRECTION('',(1.,0.E+000,0.E+000));
#148 = ORIENTED_EDGE('',*,*,#149,.F.);
#149 = EDGE_CURVE('',#141,#141,#150,.T.);
#150 = CIRCLE('',#151,2.841463414634);
#151 = AXIS2_PLACEMENT_3D('',#152,#153,#154);
#152 = CARTESIAN_POINT('',(2.5,-2.325,4.53));
#153 = DIRECTION('',(0.E+000,-1.,0.E+000));
#154 = DIRECTION('',(1.,0.E+000,0.E+000));
#155 = ORIENTED_EDGE('',*,*,#140,.F.);
#156 = FACE_BOUND('',#157,.T.);
#157 = EDGE_LOOP('',(#158,#177));
#158 = ORIENTED_EDGE('',*,*,#159,.T.);
#159 = EDGE_CURVE('',#160,#162,#164,.T.);
#160 = VERTEX_POINT('',#161);
#161 = CARTESIAN_POINT('',(5.27,-1.25,1.119144330486));
#162 = VERTEX_POINT('',#163);
#163 = CARTESIAN_POINT('',(5.112981720265,-1.004775346088,0.909268034537
));
#164 = B_SPLINE_CURVE_WITH_KNOTS('',6,(#165,#166,#167,#168,#169,#170,
#171,#172,#173,#174,#175,#176),.UNSPECIFIED.,.F.,.F.,(7,5,7),(
0.E+000,0.683498853644,1.),.UNSPECIFIED.);
#165 = CARTESIAN_POINT('',(5.27,-1.25,1.119144330486));
#166 = CARTESIAN_POINT('',(5.27,-1.214781553791,1.10209130764));
#167 = CARTESIAN_POINT('',(5.264487373049,-1.179867623138,1.082158995978
));
#168 = CARTESIAN_POINT('',(5.253640958245,-1.146207718904,1.05993892853)
);
#169 = CARTESIAN_POINT('',(5.237783040951,-1.114659710623,1.035922611677
));
#170 = CARTESIAN_POINT('',(5.21733323117,-1.086013841147,1.01053784527)
);
#171 = CARTESIAN_POINT('',(5.181488260168,-1.049438978572,0.972066776569
));
#172 = CARTESIAN_POINT('',(5.169276369646,-1.038646576122,0.959697117845
));
#173 = CARTESIAN_POINT('',(5.156252241704,-1.028711720518,0.947180014117
));
#174 = CARTESIAN_POINT('',(5.142478460339,-1.019708167189,0.934565053338
));
#175 = CARTESIAN_POINT('',(5.128027168254,-1.01170719641,0.921907095743)
);
#176 = CARTESIAN_POINT('',(5.112981720265,-1.004775346088,0.909268034537
));
#177 = ORIENTED_EDGE('',*,*,#178,.T.);
#178 = EDGE_CURVE('',#162,#160,#179,.T.);
#179 = B_SPLINE_CURVE_WITH_KNOTS('',6,(#180,#181,#182,#183,#184,#185,
#186,#187,#188,#189,#190,#191,#192,#193,#194,#195,#196,#197,#198,
#199,#200,#201,#202,#203,#204,#205,#206,#207,#208,#209,#210,#211,
#212,#213,#214,#215,#216,#217,#218,#219,#220,#221),.UNSPECIFIED.,.F.
,.F.,(7,5,5,5,5,5,5,5,7),(0.E+000,0.14559266538,0.296099360067,
0.438100594955,0.566616569852,0.685555698669,0.809754458305,
0.920137672454,1.),.UNSPECIFIED.);
#180 = CARTESIAN_POINT('',(5.112981720265,-1.004775346088,0.909268034537
));
#181 = CARTESIAN_POINT('',(5.082626709006,-0.990789960296,0.883768039756
));
#182 = CARTESIAN_POINT('',(5.049827564728,-0.981145043455,0.858323325132
));
#183 = CARTESIAN_POINT('',(5.015306998196,-0.9764178839,0.833481882675)
);
#184 = CARTESIAN_POINT('',(4.980039471513,-0.977095879057,0.809937982791
));
#185 = CARTESIAN_POINT('',(4.945308510758,-0.983310621993,0.788574223669
));
#186 = CARTESIAN_POINT('',(4.878274856524,-1.006318380482,0.751082922003
));
#187 = CARTESIAN_POINT('',(4.846026487775,-1.023484968276,0.735118897981
));
#188 = CARTESIAN_POINT('',(4.816781359356,-1.045750561841,0.722984438813
));
#189 = CARTESIAN_POINT('',(4.791602823154,-1.072365456753,0.715313057709
));
#190 = CARTESIAN_POINT('',(4.771252425663,-1.102259414749,0.712470744003
));
#191 = CARTESIAN_POINT('',(4.741759037257,-1.164403563941,0.716255171112
));
#192 = CARTESIAN_POINT('',(4.732042675926,-1.196435295777,0.722356424506
));
#193 = CARTESIAN_POINT('',(4.727230284184,-1.2293204775,0.732696938488)
);
#194 = CARTESIAN_POINT('',(4.727230228467,-1.262057690204,0.74692993426)
);
#195 = CARTESIAN_POINT('',(4.731733672861,-1.293874474149,0.76453712468)
);
#196 = CARTESIAN_POINT('',(4.748211356654,-1.351562014224,0.803432109504
));
#197 = CARTESIAN_POINT('',(4.759435715384,-1.377712230028,0.824212436528
));
#198 = CARTESIAN_POINT('',(4.773795855812,-1.402169762632,0.846888092655
));
#199 = CARTESIAN_POINT('',(4.791003094711,-1.424584991937,0.871014778848
));
#200 = CARTESIAN_POINT('',(4.810789350266,-1.44465581244,0.896136816544)
);
#201 = CARTESIAN_POINT('',(4.853338803475,-1.478185172362,0.945475569894
));
#202 = CARTESIAN_POINT('',(4.875755534761,-1.492013393139,0.969603154879
));
#203 = CARTESIAN_POINT('',(4.89993643242,-1.503324876722,0.993770135844)
);
#204 = CARTESIAN_POINT('',(4.925645126352,-1.511835209741,1.017525891489
));
#205 = CARTESIAN_POINT('',(4.952529224847,-1.517227467517,1.040299182841
));
#206 = CARTESIAN_POINT('',(5.008878632782,-1.521393123018,1.08366115492)
);
#207 = CARTESIAN_POINT('',(5.038427625088,-1.519864905823,1.104125657131
));
#208 = CARTESIAN_POINT('',(5.067997879908,-1.514388062819,1.122100185652
));
#209 = CARTESIAN_POINT('',(5.09675228129,-1.504927874805,1.136920453713)
);
#210 = CARTESIAN_POINT('',(5.123888731603,-1.491744697236,1.148276749828
));
#211 = CARTESIAN_POINT('',(5.170882232775,-1.46071643678,1.163133883289)
);
#212 = CARTESIAN_POINT('',(5.19122440251,-1.443545706139,1.167371700726)
);
#213 = CARTESIAN_POINT('',(5.209356329426,-1.424126791817,1.168835588629
));
#214 = CARTESIAN_POINT('',(5.224964061412,-1.402889313924,1.167687067876
));
#215 = CARTESIAN_POINT('',(5.237875332167,-1.380280709427,1.164165018411
));
#216 = CARTESIAN_POINT('',(5.255346871113,-1.339678703694,1.154430596425
));
#217 = CARTESIAN_POINT('',(5.261229681943,-1.322136290198,1.14923098289)
);
#218 = CARTESIAN_POINT('',(5.265632841638,-1.304252405117,1.143011613765
));
#219 = CARTESIAN_POINT('',(5.268552017239,-1.286176773207,1.135866312412
));
#220 = CARTESIAN_POINT('',(5.27,-1.268049744198,1.127884145364));
#221 = CARTESIAN_POINT('',(5.27,-1.25,1.119144330486));
#222 = TOROIDAL_SURFACE('',#223,2.841463414634,1.658536585366);
#223 = AXIS2_PLACEMENT_3D('',#224,#225,#226);
#224 = CARTESIAN_POINT('',(2.5,-0.666463414634,4.53));
#225 = DIRECTION('',(0.E+000,-1.,0.E+000));
#226 = DIRECTION('',(1.,0.E+000,0.E+000));
#227 = ADVANCED_FACE('',(#228),#231,.F.);
#228 = FACE_BOUND('',#229,.F.);
#229 = EDGE_LOOP('',(#230));
#230 = ORIENTED_EDGE('',*,*,#64,.T.);
#231 = PLANE('',#232);
#232 = AXIS2_PLACEMENT_3D('',#233,#234,#235);
#233 = CARTESIAN_POINT('',(2.5,1.075,4.53));
#234 = DIRECTION('',(-0.E+000,-1.,-0.E+000));
#235 = DIRECTION('',(0.E+000,0.E+000,-1.));
#236 = ADVANCED_FACE('',(#237),#257,.T.);
#237 = FACE_BOUND('',#238,.T.);
#238 = EDGE_LOOP('',(#239,#240,#248,#255,#256));
#239 = ORIENTED_EDGE('',*,*,#101,.T.);
#240 = ORIENTED_EDGE('',*,*,#241,.T.);
#241 = EDGE_CURVE('',#75,#242,#244,.T.);
#242 = VERTEX_POINT('',#243);
#243 = CARTESIAN_POINT('',(0.27,0.E+000,-2.892));
#244 = LINE('',#245,#246);
#245 = CARTESIAN_POINT('',(0.27,0.E+000,4.53));
#246 = VECTOR('',#247,1.);
#247 = DIRECTION('',(-0.E+000,-0.E+000,-1.));
#248 = ORIENTED_EDGE('',*,*,#249,.T.);
#249 = EDGE_CURVE('',#242,#242,#250,.T.);
#250 = CIRCLE('',#251,0.27);
#251 = AXIS2_PLACEMENT_3D('',#252,#253,#254);
#252 = CARTESIAN_POINT('',(0.E+000,0.E+000,-2.892));
#253 = DIRECTION('',(0.E+000,0.E+000,1.));
#254 = DIRECTION('',(1.,0.E+000,0.E+000));
#255 = ORIENTED_EDGE('',*,*,#241,.F.);
#256 = ORIENTED_EDGE('',*,*,#74,.T.);
#257 = CYLINDRICAL_SURFACE('',#258,0.27);
#258 = AXIS2_PLACEMENT_3D('',#259,#260,#261);
#259 = CARTESIAN_POINT('',(0.E+000,0.E+000,4.53));
#260 = DIRECTION('',(0.E+000,0.E+000,1.));
#261 = DIRECTION('',(1.,0.E+000,0.E+000));
#262 = ADVANCED_FACE('',(#263),#266,.T.);
#263 = FACE_BOUND('',#264,.T.);
#264 = EDGE_LOOP('',(#265));
#265 = ORIENTED_EDGE('',*,*,#149,.T.);
#266 = PLANE('',#267);
#267 = AXIS2_PLACEMENT_3D('',#268,#269,#270);
#268 = CARTESIAN_POINT('',(2.5,-2.325,4.53));
#269 = DIRECTION('',(-0.E+000,-1.,-0.E+000));
#270 = DIRECTION('',(0.E+000,0.E+000,-1.));
#271 = ADVANCED_FACE('',(#272),#292,.T.);
#272 = FACE_BOUND('',#273,.T.);
#273 = EDGE_LOOP('',(#274,#275,#283,#290,#291));
#274 = ORIENTED_EDGE('',*,*,#159,.F.);
#275 = ORIENTED_EDGE('',*,*,#276,.T.);
#276 = EDGE_CURVE('',#160,#277,#279,.T.);
#277 = VERTEX_POINT('',#278);
#278 = CARTESIAN_POINT('',(5.27,-1.25,-2.892));
#279 = LINE('',#280,#281);
#280 = CARTESIAN_POINT('',(5.27,-1.25,4.53));
#281 = VECTOR('',#282,1.);
#282 = DIRECTION('',(-0.E+000,-0.E+000,-1.));
#283 = ORIENTED_EDGE('',*,*,#284,.T.);
#284 = EDGE_CURVE('',#277,#277,#285,.T.);
#285 = CIRCLE('',#286,0.27);
#286 = AXIS2_PLACEMENT_3D('',#287,#288,#289);
#287 = CARTESIAN_POINT('',(5.,-1.25,-2.892));
#288 = DIRECTION('',(0.E+000,0.E+000,1.));
#289 = DIRECTION('',(1.,0.E+000,0.E+000));
#290 = ORIENTED_EDGE('',*,*,#276,.F.);
#291 = ORIENTED_EDGE('',*,*,#178,.F.);
#292 = CYLINDRICAL_SURFACE('',#293,0.27);
#293 = AXIS2_PLACEMENT_3D('',#294,#295,#296);
#294 = CARTESIAN_POINT('',(5.,-1.25,4.53));
#295 = DIRECTION('',(0.E+000,0.E+000,1.));
#296 = DIRECTION('',(1.,0.E+000,0.E+000));
#297 = ADVANCED_FACE('',(#298),#318,.T.);
#298 = FACE_BOUND('',#299,.F.);
#299 = EDGE_LOOP('',(#300,#309,#310,#311));
#300 = ORIENTED_EDGE('',*,*,#301,.F.);
#301 = EDGE_CURVE('',#242,#302,#304,.T.);
#302 = VERTEX_POINT('',#303);
#303 = CARTESIAN_POINT('',(0.162,0.E+000,-3.));
#304 = CIRCLE('',#305,0.108);
#305 = AXIS2_PLACEMENT_3D('',#306,#307,#308);
#306 = CARTESIAN_POINT('',(0.162,0.E+000,-2.892));
#307 = DIRECTION('',(-0.E+000,1.,0.E+000));
#308 = DIRECTION('',(1.,0.E+000,0.E+000));
#309 = ORIENTED_EDGE('',*,*,#249,.T.);
#310 = ORIENTED_EDGE('',*,*,#301,.T.);
#311 = ORIENTED_EDGE('',*,*,#312,.F.);
#312 = EDGE_CURVE('',#302,#302,#313,.T.);
#313 = CIRCLE('',#314,0.162);
#314 = AXIS2_PLACEMENT_3D('',#315,#316,#317);
#315 = CARTESIAN_POINT('',(0.E+000,0.E+000,-3.));
#316 = DIRECTION('',(0.E+000,0.E+000,1.));
#317 = DIRECTION('',(1.,0.E+000,0.E+000));
#318 = TOROIDAL_SURFACE('',#319,0.162,0.108);
#319 = AXIS2_PLACEMENT_3D('',#320,#321,#322);
#320 = CARTESIAN_POINT('',(0.E+000,0.E+000,-2.892));
#321 = DIRECTION('',(-0.E+000,-0.E+000,-1.));
#322 = DIRECTION('',(1.,0.E+000,0.E+000));
#323 = ADVANCED_FACE('',(#324),#344,.T.);
#324 = FACE_BOUND('',#325,.F.);
#325 = EDGE_LOOP('',(#326,#335,#336,#337));
#326 = ORIENTED_EDGE('',*,*,#327,.F.);
#327 = EDGE_CURVE('',#277,#328,#330,.T.);
#328 = VERTEX_POINT('',#329);
#329 = CARTESIAN_POINT('',(5.162,-1.25,-3.));
#330 = CIRCLE('',#331,0.108);
#331 = AXIS2_PLACEMENT_3D('',#332,#333,#334);
#332 = CARTESIAN_POINT('',(5.162,-1.25,-2.892));
#333 = DIRECTION('',(-0.E+000,1.,0.E+000));
#334 = DIRECTION('',(1.,0.E+000,0.E+000));
#335 = ORIENTED_EDGE('',*,*,#284,.T.);
#336 = ORIENTED_EDGE('',*,*,#327,.T.);
#337 = ORIENTED_EDGE('',*,*,#338,.F.);
#338 = EDGE_CURVE('',#328,#328,#339,.T.);
#339 = CIRCLE('',#340,0.162);
#340 = AXIS2_PLACEMENT_3D('',#341,#342,#343);
#341 = CARTESIAN_POINT('',(5.,-1.25,-3.));
#342 = DIRECTION('',(0.E+000,0.E+000,1.));
#343 = DIRECTION('',(1.,0.E+000,0.E+000));
#344 = TOROIDAL_SURFACE('',#345,0.162,0.108);
#345 = AXIS2_PLACEMENT_3D('',#346,#347,#348);
#346 = CARTESIAN_POINT('',(5.,-1.25,-2.892));
#347 = DIRECTION('',(-0.E+000,-0.E+000,-1.));
#348 = DIRECTION('',(1.,0.E+000,0.E+000));
#349 = ADVANCED_FACE('',(#350),#353,.F.);
#350 = FACE_BOUND('',#351,.F.);
#351 = EDGE_LOOP('',(#352));
#352 = ORIENTED_EDGE('',*,*,#312,.T.);
#353 = PLANE('',#354);
#354 = AXIS2_PLACEMENT_3D('',#355,#356,#357);
#355 = CARTESIAN_POINT('',(-1.978356673234E-017,2.854531227236E-017,-3.)
);
#356 = DIRECTION('',(0.E+000,0.E+000,1.));
#357 = DIRECTION('',(1.,0.E+000,0.E+000));
#358 = ADVANCED_FACE('',(#359),#362,.F.);
#359 = FACE_BOUND('',#360,.F.);
#360 = EDGE_LOOP('',(#361));
#361 = ORIENTED_EDGE('',*,*,#338,.T.);
#362 = PLANE('',#363);
#363 = AXIS2_PLACEMENT_3D('',#364,#365,#366);
#364 = CARTESIAN_POINT('',(5.,-1.25,-3.));
#365 = DIRECTION('',(0.E+000,0.E+000,1.));
#366 = DIRECTION('',(1.,0.E+000,0.E+000));
#367 = ( GEOMETRIC_REPRESENTATION_CONTEXT(3)
GLOBAL_UNCERTAINTY_ASSIGNED_CONTEXT((#371)) GLOBAL_UNIT_ASSIGNED_CONTEXT
((#368,#369,#370)) REPRESENTATION_CONTEXT('Context #1',
'3D Context with UNIT and UNCERTAINTY') );
#368 = ( LENGTH_UNIT() NAMED_UNIT(*) SI_UNIT(.MILLI.,.METRE.) );
#369 = ( NAMED_UNIT(*) PLANE_ANGLE_UNIT() SI_UNIT($,.RADIAN.) );
#370 = ( NAMED_UNIT(*) SI_UNIT($,.STERADIAN.) SOLID_ANGLE_UNIT() );
#371 = UNCERTAINTY_MEASURE_WITH_UNIT(LENGTH_MEASURE(1.E-007),#368,
'distance_accuracy_value','confusion accuracy');
#372 = PRODUCT_RELATED_PRODUCT_CATEGORY('part',$,(#7));
#373 = MECHANICAL_DESIGN_GEOMETRIC_PRESENTATION_REPRESENTATION('',(#374,
#382,#389,#396,#403,#411,#418,#425,#432,#439,#446),#367);
#374 = STYLED_ITEM('color',(#375),#17);
#375 = PRESENTATION_STYLE_ASSIGNMENT((#376));
#376 = SURFACE_STYLE_USAGE(.BOTH.,#377);
#377 = SURFACE_SIDE_STYLE('',(#378));
#378 = SURFACE_STYLE_FILL_AREA(#379);
#379 = FILL_AREA_STYLE('',(#380));
#380 = FILL_AREA_STYLE_COLOUR('',#381);
#381 = COLOUR_RGB('',0.136999994516,0.402000010014,0.726999998093);
#382 = STYLED_ITEM('color',(#383),#50);
#383 = PRESENTATION_STYLE_ASSIGNMENT((#384));
#384 = SURFACE_STYLE_USAGE(.BOTH.,#385);
#385 = SURFACE_SIDE_STYLE('',(#386));
#386 = SURFACE_STYLE_FILL_AREA(#387);
#387 = FILL_AREA_STYLE('',(#388));
#388 = FILL_AREA_STYLE_COLOUR('',#381);
#389 = STYLED_ITEM('color',(#390),#135);
#390 = PRESENTATION_STYLE_ASSIGNMENT((#391));
#391 = SURFACE_STYLE_USAGE(.BOTH.,#392);
#392 = SURFACE_SIDE_STYLE('',(#393));
#393 = SURFACE_STYLE_FILL_AREA(#394);
#394 = FILL_AREA_STYLE('',(#395));
#395 = FILL_AREA_STYLE_COLOUR('',#381);
#396 = STYLED_ITEM('color',(#397),#227);
#397 = PRESENTATION_STYLE_ASSIGNMENT((#398));
#398 = SURFACE_STYLE_USAGE(.BOTH.,#399);
#399 = SURFACE_SIDE_STYLE('',(#400));
#400 = SURFACE_STYLE_FILL_AREA(#401);
#401 = FILL_AREA_STYLE('',(#402));
#402 = FILL_AREA_STYLE_COLOUR('',#381);
#403 = STYLED_ITEM('color',(#404),#236);
#404 = PRESENTATION_STYLE_ASSIGNMENT((#405));
#405 = SURFACE_STYLE_USAGE(.BOTH.,#406);
#406 = SURFACE_SIDE_STYLE('',(#407));
#407 = SURFACE_STYLE_FILL_AREA(#408);
#408 = FILL_AREA_STYLE('',(#409));
#409 = FILL_AREA_STYLE_COLOUR('',#410);
#410 = COLOUR_RGB('',0.824000000954,0.819999992847,0.78100001812);
#411 = STYLED_ITEM('color',(#412),#262);
#412 = PRESENTATION_STYLE_ASSIGNMENT((#413));
#413 = SURFACE_STYLE_USAGE(.BOTH.,#414);
#414 = SURFACE_SIDE_STYLE('',(#415));
#415 = SURFACE_STYLE_FILL_AREA(#416);
#416 = FILL_AREA_STYLE('',(#417));
#417 = FILL_AREA_STYLE_COLOUR('',#381);
#418 = STYLED_ITEM('color',(#419),#271);
#419 = PRESENTATION_STYLE_ASSIGNMENT((#420));
#420 = SURFACE_STYLE_USAGE(.BOTH.,#421);
#421 = SURFACE_SIDE_STYLE('',(#422));
#422 = SURFACE_STYLE_FILL_AREA(#423);
#423 = FILL_AREA_STYLE('',(#424));
#424 = FILL_AREA_STYLE_COLOUR('',#410);
#425 = STYLED_ITEM('color',(#426),#297);
#426 = PRESENTATION_STYLE_ASSIGNMENT((#427));
#427 = SURFACE_STYLE_USAGE(.BOTH.,#428);
#428 = SURFACE_SIDE_STYLE('',(#429));
#429 = SURFACE_STYLE_FILL_AREA(#430);
#430 = FILL_AREA_STYLE('',(#431));
#431 = FILL_AREA_STYLE_COLOUR('',#410);
#432 = STYLED_ITEM('color',(#433),#323);
#433 = PRESENTATION_STYLE_ASSIGNMENT((#434));
#434 = SURFACE_STYLE_USAGE(.BOTH.,#435);
#435 = SURFACE_SIDE_STYLE('',(#436));
#436 = SURFACE_STYLE_FILL_AREA(#437);
#437 = FILL_AREA_STYLE('',(#438));
#438 = FILL_AREA_STYLE_COLOUR('',#410);
#439 = STYLED_ITEM('color',(#440),#349);
#440 = PRESENTATION_STYLE_ASSIGNMENT((#441));
#441 = SURFACE_STYLE_USAGE(.BOTH.,#442);
#442 = SURFACE_SIDE_STYLE('',(#443));
#443 = SURFACE_STYLE_FILL_AREA(#444);
#444 = FILL_AREA_STYLE('',(#445));
#445 = FILL_AREA_STYLE_COLOUR('',#410);
#446 = STYLED_ITEM('color',(#447),#358);
#447 = PRESENTATION_STYLE_ASSIGNMENT((#448));
#448 = SURFACE_STYLE_USAGE(.BOTH.,#449);
#449 = SURFACE_SIDE_STYLE('',(#450));
#450 = SURFACE_STYLE_FILL_AREA(#451);
#451 = FILL_AREA_STYLE('',(#452));
#452 = FILL_AREA_STYLE_COLOUR('',#410);
ENDSEC;
END-ISO-10303-21;
