ISO-10303-21;
HEADER;
/* RV_Disc_D21.5mm_W4.7mm_P10mm.step 3D STEP model for use in ECAD systems
 * Copyright (C) 2018, kicad StepUp
 * 
 * This work is licensed under the [Creative Commons CC-BY-SA 4.0 License](https://creativecommons.org/licenses/by-sa/4.0/legalcode), 
 * with the following exception:
 * To the extent that the creation of electronic designs that use 'Licensed Material' can be considered to be 'Adapted Material', 
 * then the copyright holder waives article 3 of the license with respect to these designs and any generated files which use data provided 
 * as part of the 'Licensed Material'.
 * You are free to use the library data in your own projects without the obligation to share your project files under this or any other license agreement.
 * However, if you wish to redistribute these libraries, or parts thereof (including in modified form) as a collection then the exception above does not apply. 
 * Please refer to https://github.com/KiCad/kicad-packages3D/blob/master/LICENSE.md for further clarification of the exception.
 * Disclaimer of Warranties and Limitation of Liability.
 * These libraries are provided in the hope that they will be useful, but are provided without warranty of any kind, express or implied.
 * *USE 3D CAD DATA AT YOUR OWN RISK*
 * *DO NOT RELY UPON ANY INFORMATION FOUND HERE WITHOUT INDEPENDENT VERIFICATION.*
 * 
 */

FILE_DESCRIPTION(
/* description */ ('model of RV_Disc_D21.5mm_W4.7mm_P10mm'),
/* implementation_level */ '2;1');

FILE_NAME(
/* name */ 'RV_Disc_D21.5mm_W4.7mm_P10mm.step',
/* time_stamp */ '2018-11-11T21:03:02',
/* author */ ('kicad StepUp','ksu'),
/* organization */ ('FreeCAD'),
/* preprocessor_version */ 'OCC',
/* originating_system */ 'kicad StepUp',
/* authorisation */ '');

FILE_SCHEMA(('AUTOMOTIVE_DESIGN { 1 0 10303 214 1 1 1 1 }'));
ENDSEC;

DATA;
#1 = APPLICATION_PROTOCOL_DEFINITION('international standard',
'automotive_design',2000,#2);
#2 = APPLICATION_CONTEXT(
'core data for automotive mechanical design processes');
#3 = SHAPE_DEFINITION_REPRESENTATION(#4,#10);
#4 = PRODUCT_DEFINITION_SHAPE('','',#5);
#5 = PRODUCT_DEFINITION('design','',#6,#9);
#6 = PRODUCT_DEFINITION_FORMATION('','',#7);
#7 = PRODUCT('RV_Disc_D215mm_W47mm_P10mm','RV_Disc_D215mm_W47mm_P10mm',
'',(#8));
#8 = PRODUCT_CONTEXT('',#2,'mechanical');
#9 = PRODUCT_DEFINITION_CONTEXT('part definition',#2,'design');
#10 = ADVANCED_BREP_SHAPE_REPRESENTATION('',(#11,#15),#403);
#11 = AXIS2_PLACEMENT_3D('',#12,#13,#14);
#12 = CARTESIAN_POINT('',(0.E+000,0.E+000,0.E+000));
#13 = DIRECTION('',(0.E+000,0.E+000,1.));
#14 = DIRECTION('',(1.,0.E+000,-0.E+000));
#15 = MANIFOLD_SOLID_BREP('',#16);
#16 = CLOSED_SHELL('',(#17,#50,#162,#263,#272,#298,#307,#333,#359,#385,
#394));
#17 = ADVANCED_FACE('',(#18),#45,.T.);
#18 = FACE_BOUND('',#19,.F.);
#19 = EDGE_LOOP('',(#20,#30,#37,#38));
#20 = ORIENTED_EDGE('',*,*,#21,.T.);
#21 = EDGE_CURVE('',#22,#24,#26,.T.);
#22 = VERTEX_POINT('',#23);
#23 = CARTESIAN_POINT('',(15.75,-0.892682926829,10.78));
#24 = VERTEX_POINT('',#25);
#25 = CARTESIAN_POINT('',(15.75,-1.007317073171,10.78));
#26 = LINE('',#27,#28);
#27 = CARTESIAN_POINT('',(15.75,1.4,10.78));
#28 = VECTOR('',#29,1.);
#29 = DIRECTION('',(0.E+000,-1.,0.E+000));
#30 = ORIENTED_EDGE('',*,*,#31,.T.);
#31 = EDGE_CURVE('',#24,#24,#32,.T.);
#32 = CIRCLE('',#33,10.75);
#33 = AXIS2_PLACEMENT_3D('',#34,#35,#36);
#34 = CARTESIAN_POINT('',(5.,-1.007317073171,10.78));
#35 = DIRECTION('',(0.E+000,-1.,0.E+000));
#36 = DIRECTION('',(1.,0.E+000,0.E+000));
#37 = ORIENTED_EDGE('',*,*,#21,.F.);
#38 = ORIENTED_EDGE('',*,*,#39,.F.);
#39 = EDGE_CURVE('',#22,#22,#40,.T.);
#40 = CIRCLE('',#41,10.75);
#41 = AXIS2_PLACEMENT_3D('',#42,#43,#44);
#42 = CARTESIAN_POINT('',(5.,-0.892682926829,10.78));
#43 = DIRECTION('',(0.E+000,-1.,0.E+000));
#44 = DIRECTION('',(1.,0.E+000,0.E+000));
#45 = CYLINDRICAL_SURFACE('',#46,10.75);
#46 = AXIS2_PLACEMENT_3D('',#47,#48,#49);
#47 = CARTESIAN_POINT('',(5.,1.4,10.78));
#48 = DIRECTION('',(0.E+000,1.,0.E+000));
#49 = DIRECTION('',(1.,0.E+000,0.E+000));
#50 = ADVANCED_FACE('',(#51,#71),#157,.T.);
#51 = FACE_BOUND('',#52,.F.);
#52 = EDGE_LOOP('',(#53,#54,#63,#70));
#53 = ORIENTED_EDGE('',*,*,#39,.T.);
#54 = ORIENTED_EDGE('',*,*,#55,.T.);
#55 = EDGE_CURVE('',#22,#56,#58,.T.);
#56 = VERTEX_POINT('',#57);
#57 = CARTESIAN_POINT('',(13.457317073171,1.4,10.78));
#58 = CIRCLE('',#59,2.292682926829);
#59 = AXIS2_PLACEMENT_3D('',#60,#61,#62);
#60 = CARTESIAN_POINT('',(13.457317073171,-0.892682926829,10.78));
#61 = DIRECTION('',(0.E+000,0.E+000,1.));
#62 = DIRECTION('',(1.,0.E+000,0.E+000));
#63 = ORIENTED_EDGE('',*,*,#64,.F.);
#64 = EDGE_CURVE('',#56,#56,#65,.T.);
#65 = CIRCLE('',#66,8.457317073171);
#66 = AXIS2_PLACEMENT_3D('',#67,#68,#69);
#67 = CARTESIAN_POINT('',(5.,1.4,10.78));
#68 = DIRECTION('',(0.E+000,-1.,0.E+000));
#69 = DIRECTION('',(1.,0.E+000,0.E+000));
#70 = ORIENTED_EDGE('',*,*,#55,.F.);
#71 = FACE_BOUND('',#72,.F.);
#72 = EDGE_LOOP('',(#73,#110));
#73 = ORIENTED_EDGE('',*,*,#74,.T.);
#74 = EDGE_CURVE('',#75,#77,#79,.T.);
#75 = VERTEX_POINT('',#76);
#76 = CARTESIAN_POINT('',(0.45,0.E+000,1.240461249198));
#77 = VERTEX_POINT('',#78);
#78 = CARTESIAN_POINT('',(-0.295466372606,-0.339410699093,1.502699701537
));
#79 = B_SPLINE_CURVE_WITH_KNOTS('',8,(#80,#81,#82,#83,#84,#85,#86,#87,
#88,#89,#90,#91,#92,#93,#94,#95,#96,#97,#98,#99,#100,#101,#102,#103,
#104,#105,#106,#107,#108,#109),.UNSPECIFIED.,.F.,.F.,(9,7,7,7,9),(
0.E+000,0.213240290077,0.417250492072,0.538523220672,1.),
.UNSPECIFIED.);
#80 = CARTESIAN_POINT('',(0.45,-1.110223024625E-016,1.240461249198));
#81 = CARTESIAN_POINT('',(0.45,-2.57567250207E-002,1.228398294287));
#82 = CARTESIAN_POINT('',(0.448315137495,-5.174689785631E-002,
1.217501724452));
#83 = CARTESIAN_POINT('',(0.444892032971,-7.784392346371E-002,
1.207857003182));
#84 = CARTESIAN_POINT('',(0.439687484564,-0.103907099331,1.199541074812)
);
#85 = CARTESIAN_POINT('',(0.432673189659,-0.129781705228,1.192618458304)
);
#86 = CARTESIAN_POINT('',(0.423840542627,-0.155300896089,1.187137561814)
);
#87 = CARTESIAN_POINT('',(0.413205508722,-0.180289398019,1.183127218064)
);
#88 = CARTESIAN_POINT('',(0.388958023371,-0.22779767598,1.178169337278)
);
#89 = CARTESIAN_POINT('',(0.375491931571,-0.250382341476,1.177096225912)
);
#90 = CARTESIAN_POINT('',(0.360454054819,-0.272165994311,1.177380561153)
);
#91 = CARTESIAN_POINT('',(0.343903118776,-0.292998941408,1.179008514641)
);
#92 = CARTESIAN_POINT('',(0.325915822209,-0.312740544442,1.181948839477)
);
#93 = CARTESIAN_POINT('',(0.306584840533,-0.331260958058,1.186155734806)
);
#94 = CARTESIAN_POINT('',(0.286016829346,-0.348442868088,1.191571710401)
);
#95 = CARTESIAN_POINT('',(0.251439067435,-0.373540000128,1.202029258211)
);
#96 = CARTESIAN_POINT('',(0.238151845779,-0.382387832091,1.206332086709)
);
#97 = CARTESIAN_POINT('',(0.224492758526,-0.390705567376,1.211025332439)
);
#98 = CARTESIAN_POINT('',(0.21048714262,-0.398473587162,1.216094462937)
);
#99 = CARTESIAN_POINT('',(0.196161572947,-0.405673880416,1.221524180691)
);
#100 = CARTESIAN_POINT('',(0.18154375886,-0.412290112207,1.227298586261)
);
#101 = CARTESIAN_POINT('',(0.166662440694,-0.418307692033,1.233401341393
));
#102 = CARTESIAN_POINT('',(9.402988022445E-002,-0.444285761051,
1.264224770295));
#103 = CARTESIAN_POINT('',(3.259654996525E-002,-0.456193814913,
1.293372312128));
#104 = CARTESIAN_POINT('',(-3.02319059117E-002,-0.458091191192,
1.32606722556));
#105 = CARTESIAN_POINT('',(-9.185922022544E-002,-0.450025978845,
1.360782173111));
#106 = CARTESIAN_POINT('',(-0.150260531232,-0.432942720969,
1.396380677646));
#107 = CARTESIAN_POINT('',(-0.204113132914,-0.408100503382,
1.432125549697));
#108 = CARTESIAN_POINT('',(-0.252679798339,-0.376657591807,
1.467612356227));
#109 = CARTESIAN_POINT('',(-0.295466372606,-0.339410699093,
1.502699701537));
#110 = ORIENTED_EDGE('',*,*,#111,.T.);
#111 = EDGE_CURVE('',#77,#75,#112,.T.);
#112 = B_SPLINE_CURVE_WITH_KNOTS('',7,(#113,#114,#115,#116,#117,#118,
#119,#120,#121,#122,#123,#124,#125,#126,#127,#128,#129,#130,#131,
#132,#133,#134,#135,#136,#137,#138,#139,#140,#141,#142,#143,#144,
#145,#146,#147,#148,#149,#150,#151,#152,#153,#154,#155,#156),
.UNSPECIFIED.,.F.,.F.,(8,6,6,6,6,6,6,8),(0.E+000,8.372309344522E-002,
0.354212599745,0.408818603221,0.500247630964,0.629822713683,
0.784473994303,1.),.UNSPECIFIED.);
#113 = CARTESIAN_POINT('',(-0.295466372606,-0.339410699093,
1.502699701537));
#114 = CARTESIAN_POINT('',(-0.311715805166,-0.325265119982,
1.516025130391));
#115 = CARTESIAN_POINT('',(-0.327100226194,-0.310277148674,
1.529280268641));
#116 = CARTESIAN_POINT('',(-0.34158050173,-0.294507336044,1.542446523576
));
#117 = CARTESIAN_POINT('',(-0.355121593048,-0.278016374837,
1.555506957919));
#118 = CARTESIAN_POINT('',(-0.367692209227,-0.260864978368,
1.568445565594));
#119 = CARTESIAN_POINT('',(-0.379264459707,-0.243113759221,
1.581246547488));
#120 = CARTESIAN_POINT('',(-0.423894982336,-0.165730341221,
1.634753180321));
#121 = CARTESIAN_POINT('',(-0.447256396288,-0.101075960672,
1.673957889081));
#122 = CARTESIAN_POINT('',(-0.459163351539,-3.282260487513E-002,
1.711036037827));
#123 = CARTESIAN_POINT('',(-0.459040016158,3.705339998446E-002,
1.745359791216));
#124 = CARTESIAN_POINT('',(-0.446533239255,0.106395875607,1.775974367829
));
#125 = CARTESIAN_POINT('',(-0.421555761156,0.172883257949,1.801318158502
));
#126 = CARTESIAN_POINT('',(-0.376955328586,0.246195946188,1.822772872653
));
#127 = CARTESIAN_POINT('',(-0.368972040643,0.258282218643,1.826069992912
));
#128 = CARTESIAN_POINT('',(-0.360501375429,0.270117510584,1.829042216044
));
#129 = CARTESIAN_POINT('',(-0.351549296108,0.281677811068,1.831670194617
));
#130 = CARTESIAN_POINT('',(-0.342123623717,0.292938343809,1.833933931839
));
#131 = CARTESIAN_POINT('',(-0.332234347581,0.303873826815,1.835813191486
));
#132 = CARTESIAN_POINT('',(-0.304580568286,0.332181464506,1.839757084718
));
#133 = CARTESIAN_POINT('',(-0.286001705317,0.348922267851,1.841092158644
));
#134 = CARTESIAN_POINT('',(-0.266216626894,0.364559901238,1.841199399945
));
#135 = CARTESIAN_POINT('',(-0.245307096316,0.378970412411,1.839986134903
));
#136 = CARTESIAN_POINT('',(-0.223378449472,0.392034998029,1.837372201669
));
#137 = CARTESIAN_POINT('',(-0.200560684209,0.403647864029,1.8333014062)
);
#138 = CARTESIAN_POINT('',(-0.143632401576,0.428004313208,1.819889632847
));
#139 = CARTESIAN_POINT('',(-0.108755076726,0.439209906939,1.809052255017
));
#140 = CARTESIAN_POINT('',(-7.283819972541E-002,0.447080835281,
1.795181034029));
#141 = CARTESIAN_POINT('',(-3.644308165459E-002,0.451460269494,
1.778369596003));
#142 = CARTESIAN_POINT('',(-1.941339639456E-004,0.452349343397,
1.758938844569));
#143 = CARTESIAN_POINT('',(3.526886693929E-002,0.449939766937,
1.73743536121));
#144 = CARTESIAN_POINT('',(0.110023801946,0.438280136618,1.68724529262)
);
#145 = CARTESIAN_POINT('',(0.148911760654,0.427767610836,1.65785036514)
);
#146 = CARTESIAN_POINT('',(0.185690510966,0.413575354833,1.627033954234)
);
#147 = CARTESIAN_POINT('',(0.220171869856,0.396129734122,1.595389486956)
);
#148 = CARTESIAN_POINT('',(0.252242651305,0.375778153453,1.563405152277)
);
#149 = CARTESIAN_POINT('',(0.28181780894,0.352782272583,1.531466024022)
);
#150 = CARTESIAN_POINT('',(0.346416410501,0.291837816347,1.45589106449)
);
#151 = CARTESIAN_POINT('',(0.378940411071,0.251624907748,1.41267199657)
);
#152 = CARTESIAN_POINT('',(0.406093534507,0.207246765595,1.371164399531)
);
#153 = CARTESIAN_POINT('',(0.42741695668,0.159178226741,1.332256064972)
);
#154 = CARTESIAN_POINT('',(0.442283766946,0.108002317144,1.296885128051)
);
#155 = CARTESIAN_POINT('',(0.45,5.455257797124E-002,1.266010510129));
#156 = CARTESIAN_POINT('',(0.45,-1.110223024625E-016,1.240461249198));
#157 = TOROIDAL_SURFACE('',#158,8.457317073171,2.292682926829);
#158 = AXIS2_PLACEMENT_3D('',#159,#160,#161);
#159 = CARTESIAN_POINT('',(5.,-0.892682926829,10.78));
#160 = DIRECTION('',(0.E+000,1.,0.E+000));
#161 = DIRECTION('',(1.,0.E+000,0.E+000));
#162 = ADVANCED_FACE('',(#163,#183),#258,.T.);
#163 = FACE_BOUND('',#164,.T.);
#164 = EDGE_LOOP('',(#165,#166,#175,#182));
#165 = ORIENTED_EDGE('',*,*,#31,.T.);
#166 = ORIENTED_EDGE('',*,*,#167,.T.);
#167 = EDGE_CURVE('',#24,#168,#170,.T.);
#168 = VERTEX_POINT('',#169);
#169 = CARTESIAN_POINT('',(13.457317073171,-3.3,10.78));
#170 = CIRCLE('',#171,2.292682926829);
#171 = AXIS2_PLACEMENT_3D('',#172,#173,#174);
#172 = CARTESIAN_POINT('',(13.457317073171,-1.007317073171,10.78));
#173 = DIRECTION('',(0.E+000,0.E+000,-1.));
#174 = DIRECTION('',(1.,0.E+000,0.E+000));
#175 = ORIENTED_EDGE('',*,*,#176,.F.);
#176 = EDGE_CURVE('',#168,#168,#177,.T.);
#177 = CIRCLE('',#178,8.457317073171);
#178 = AXIS2_PLACEMENT_3D('',#179,#180,#181);
#179 = CARTESIAN_POINT('',(5.,-3.3,10.78));
#180 = DIRECTION('',(0.E+000,-1.,0.E+000));
#181 = DIRECTION('',(1.,0.E+000,0.E+000));
#182 = ORIENTED_EDGE('',*,*,#167,.F.);
#183 = FACE_BOUND('',#184,.T.);
#184 = EDGE_LOOP('',(#185,#208));
#185 = ORIENTED_EDGE('',*,*,#186,.T.);
#186 = EDGE_CURVE('',#187,#189,#191,.T.);
#187 = VERTEX_POINT('',#188);
#188 = CARTESIAN_POINT('',(10.45,-1.9,1.724460282343));
#189 = VERTEX_POINT('',#190);
#190 = CARTESIAN_POINT('',(9.815983419166,-1.489344550775,1.226484165234
));
#191 = B_SPLINE_CURVE_WITH_KNOTS('',8,(#192,#193,#194,#195,#196,#197,
#198,#199,#200,#201,#202,#203,#204,#205,#206,#207),.UNSPECIFIED.,.F.
,.F.,(9,7,9),(0.E+000,0.272762194906,1.),.UNSPECIFIED.);
#192 = CARTESIAN_POINT('',(10.45,-1.9,1.724460282343));
#193 = CARTESIAN_POINT('',(10.45,-1.870607426362,1.709958756038));
#194 = CARTESIAN_POINT('',(10.447805913271,-1.841308569994,
1.694833222908));
#195 = CARTESIAN_POINT('',(10.443442196453,-1.812261586072,
1.679161388702));
#196 = CARTESIAN_POINT('',(10.436939505062,-1.783622262609,
1.663008646391));
#197 = CARTESIAN_POINT('',(10.428335302608,-1.755544519182,1.64643051303
));
#198 = CARTESIAN_POINT('',(10.417674469727,-1.728180905672,
1.629475066626));
#199 = CARTESIAN_POINT('',(10.405009913303,-1.701683100986,1.612185383)
);
#200 = CARTESIAN_POINT('',(10.351458732156,-1.608265869173,
1.547721132914));
#201 = CARTESIAN_POINT('',(10.298981531839,-1.548037171061,
1.499082090855));
#202 = CARTESIAN_POINT('',(10.234002522518,-1.497369279333,
1.448927128703));
#203 = CARTESIAN_POINT('',(10.157443077974,-1.459269444185,
1.397772079322));
#204 = CARTESIAN_POINT('',(10.07184816097,-1.437590751296,1.346968950723
));
#205 = CARTESIAN_POINT('',(9.981908748972,-1.435612603485,1.298773997423
));
#206 = CARTESIAN_POINT('',(9.89453576904,-1.454144884321,1.257605642658)
);
#207 = CARTESIAN_POINT('',(9.815983419166,-1.489344550775,1.226484165234
));
#208 = ORIENTED_EDGE('',*,*,#209,.T.);
#209 = EDGE_CURVE('',#189,#187,#210,.T.);
#210 = B_SPLINE_CURVE_WITH_KNOTS('',6,(#211,#212,#213,#214,#215,#216,
#217,#218,#219,#220,#221,#222,#223,#224,#225,#226,#227,#228,#229,
#230,#231,#232,#233,#234,#235,#236,#237,#238,#239,#240,#241,#242,
#243,#244,#245,#246,#247,#248,#249,#250,#251,#252,#253,#254,#255,
#256,#257),.UNSPECIFIED.,.F.,.F.,(7,5,5,5,5,5,5,5,5,7),(0.E+000,
5.348262258471E-002,0.150328990365,0.253771598652,0.30732213336,
0.46306490945,0.610697311388,0.732330983997,0.861281852388,1.),
.UNSPECIFIED.);
#211 = CARTESIAN_POINT('',(9.815983419166,-1.489344550775,1.226484165234
));
#212 = CARTESIAN_POINT('',(9.799303876151,-1.496818730118,1.219875934899
));
#213 = CARTESIAN_POINT('',(9.783008763902,-1.505096825084,1.213730134145
));
#214 = CARTESIAN_POINT('',(9.767147695851,-1.514152235095,1.208075351525
));
#215 = CARTESIAN_POINT('',(9.7517674932,-1.523954116721,1.202938407699)
);
#216 = CARTESIAN_POINT('',(9.736912184918,-1.53446738368,1.198344355435)
);
#217 = CARTESIAN_POINT('',(9.696748156418,-1.565907097309,1.187022799445
));
#218 = CARTESIAN_POINT('',(9.672726506218,-1.588367322747,1.181584233504
));
#219 = CARTESIAN_POINT('',(9.650808597225,-1.612796115008,1.178138724196
));
#220 = CARTESIAN_POINT('',(9.631201584909,-1.638909714294,1.176790887035
));
#221 = CARTESIAN_POINT('',(9.614057452787,-1.666389474278,1.177594942221
));
#222 = CARTESIAN_POINT('',(9.58387084312,-1.725338877261,1.183680778818)
);
#223 = CARTESIAN_POINT('',(9.571183420265,-1.756960935123,1.189264538333
));
#224 = CARTESIAN_POINT('',(9.561505336216,-1.78934211003,1.197275937219)
);
#225 = CARTESIAN_POINT('',(9.554835954428,-1.822082156911,1.207617701975
));
#226 = CARTESIAN_POINT('',(9.551100134614,-1.854818570119,1.22013216547)
);
#227 = CARTESIAN_POINT('',(9.549704792527,-1.904034720438,1.242127943501
));
#228 = CARTESIAN_POINT('',(9.549983592649,-1.920741164796,1.250161623284
));
#229 = CARTESIAN_POINT('',(9.55100104527,-1.937325122799,1.258700050304)
);
#230 = CARTESIAN_POINT('',(9.552738457071,-1.953749766399,1.267715162353
));
#231 = CARTESIAN_POINT('',(9.555175813184,-1.969982372103,1.277177874731
));
#232 = CARTESIAN_POINT('',(9.567359006625,-2.032561166528,1.315796489735
));
#233 = CARTESIAN_POINT('',(9.582172447149,-2.077242328318,1.348062447605
));
#234 = CARTESIAN_POINT('',(9.602236691634,-2.11936004031,1.383152501261)
);
#235 = CARTESIAN_POINT('',(9.627066725442,-2.158438938562,1.420332128219
));
#236 = CARTESIAN_POINT('',(9.656298539333,-2.194101893317,1.458906245719
));
#237 = CARTESIAN_POINT('',(9.72135499951,-2.256044743494,1.535323768021)
);
#238 = CARTESIAN_POINT('',(9.75671595796,-2.282677718789,1.573052808148)
);
#239 = CARTESIAN_POINT('',(9.7956128242,-2.305480936471,1.610748437667)
);
#240 = CARTESIAN_POINT('',(9.837897484763,-2.32393513629,1.647680710707)
);
#241 = CARTESIAN_POINT('',(9.883312459711,-2.337309203369,1.682821852931
));
#242 = CARTESIAN_POINT('',(9.970790743239,-2.350827705955,1.741461492827
));
#243 = CARTESIAN_POINT('',(10.012204228999,-2.352913498658,
1.766033909801));
#244 = CARTESIAN_POINT('',(10.054495474297,-2.350310371366,
1.787504674447));
#245 = CARTESIAN_POINT('',(10.096546241842,-2.342801769726,
1.805021873333));
#246 = CARTESIAN_POINT('',(10.13733104347,-2.330593012934,1.818329398693
));
#247 = CARTESIAN_POINT('',(10.217099974221,-2.296682672554,
1.837276247781));
#248 = CARTESIAN_POINT('',(10.255865773396,-2.274438216127,
1.842415554236));
#249 = CARTESIAN_POINT('',(10.29145171741,-2.247889489431,1.843060754846
));
#250 = CARTESIAN_POINT('',(10.323246151919,-2.217773048432,1.83975815738
));
#251 = CARTESIAN_POINT('',(10.350931983787,-2.184830454558,
1.833106292072));
#252 = CARTESIAN_POINT('',(10.399552420626,-2.111942512054,
1.813429322115));
#253 = CARTESIAN_POINT('',(10.419815566904,-2.071657796221,
1.799960173489));
#254 = CARTESIAN_POINT('',(10.434979080675,-2.029642106959,
1.783862536736));
#255 = CARTESIAN_POINT('',(10.445022025268,-1.98661269598,1.765672242021
));
#256 = CARTESIAN_POINT('',(10.45,-1.943205950965,1.745776967373));
#257 = CARTESIAN_POINT('',(10.45,-1.9,1.724460282343));
#258 = TOROIDAL_SURFACE('',#259,8.457317073171,2.292682926829);
#259 = AXIS2_PLACEMENT_3D('',#260,#261,#262);
#260 = CARTESIAN_POINT('',(5.,-1.007317073171,10.78));
#261 = DIRECTION('',(0.E+000,-1.,0.E+000));
#262 = DIRECTION('',(1.,0.E+000,0.E+000));
#263 = ADVANCED_FACE('',(#264),#267,.F.);
#264 = FACE_BOUND('',#265,.F.);
#265 = EDGE_LOOP('',(#266));
#266 = ORIENTED_EDGE('',*,*,#64,.T.);
#267 = PLANE('',#268);
#268 = AXIS2_PLACEMENT_3D('',#269,#270,#271);
#269 = CARTESIAN_POINT('',(5.,1.4,10.78));
#270 = DIRECTION('',(-0.E+000,-1.,-0.E+000));
#271 = DIRECTION('',(0.E+000,0.E+000,-1.));
#272 = ADVANCED_FACE('',(#273),#293,.T.);
#273 = FACE_BOUND('',#274,.T.);
#274 = EDGE_LOOP('',(#275,#276,#284,#291,#292));
#275 = ORIENTED_EDGE('',*,*,#111,.T.);
#276 = ORIENTED_EDGE('',*,*,#277,.T.);
#277 = EDGE_CURVE('',#75,#278,#280,.T.);
#278 = VERTEX_POINT('',#279);
#279 = CARTESIAN_POINT('',(0.45,0.E+000,-2.82));
#280 = LINE('',#281,#282);
#281 = CARTESIAN_POINT('',(0.45,0.E+000,10.78));
#282 = VECTOR('',#283,1.);
#283 = DIRECTION('',(-0.E+000,-0.E+000,-1.));
#284 = ORIENTED_EDGE('',*,*,#285,.T.);
#285 = EDGE_CURVE('',#278,#278,#286,.T.);
#286 = CIRCLE('',#287,0.45);
#287 = AXIS2_PLACEMENT_3D('',#288,#289,#290);
#288 = CARTESIAN_POINT('',(0.E+000,0.E+000,-2.82));
#289 = DIRECTION('',(0.E+000,0.E+000,1.));
#290 = DIRECTION('',(1.,0.E+000,0.E+000));
#291 = ORIENTED_EDGE('',*,*,#277,.F.);
#292 = ORIENTED_EDGE('',*,*,#74,.T.);
#293 = CYLINDRICAL_SURFACE('',#294,0.45);
#294 = AXIS2_PLACEMENT_3D('',#295,#296,#297);
#295 = CARTESIAN_POINT('',(0.E+000,0.E+000,10.78));
#296 = DIRECTION('',(0.E+000,0.E+000,1.));
#297 = DIRECTION('',(1.,0.E+000,0.E+000));
#298 = ADVANCED_FACE('',(#299),#302,.T.);
#299 = FACE_BOUND('',#300,.T.);
#300 = EDGE_LOOP('',(#301));
#301 = ORIENTED_EDGE('',*,*,#176,.T.);
#302 = PLANE('',#303);
#303 = AXIS2_PLACEMENT_3D('',#304,#305,#306);
#304 = CARTESIAN_POINT('',(5.,-3.3,10.78));
#305 = DIRECTION('',(-0.E+000,-1.,-0.E+000));
#306 = DIRECTION('',(0.E+000,0.E+000,-1.));
#307 = ADVANCED_FACE('',(#308),#328,.T.);
#308 = FACE_BOUND('',#309,.T.);
#309 = EDGE_LOOP('',(#310,#311,#319,#326,#327));
#310 = ORIENTED_EDGE('',*,*,#186,.F.);
#311 = ORIENTED_EDGE('',*,*,#312,.T.);
#312 = EDGE_CURVE('',#187,#313,#315,.T.);
#313 = VERTEX_POINT('',#314);
#314 = CARTESIAN_POINT('',(10.45,-1.9,-2.82));
#315 = LINE('',#316,#317);
#316 = CARTESIAN_POINT('',(10.45,-1.9,10.78));
#317 = VECTOR('',#318,1.);
#318 = DIRECTION('',(-0.E+000,-0.E+000,-1.));
#319 = ORIENTED_EDGE('',*,*,#320,.T.);
#320 = EDGE_CURVE('',#313,#313,#321,.T.);
#321 = CIRCLE('',#322,0.45);
#322 = AXIS2_PLACEMENT_3D('',#323,#324,#325);
#323 = CARTESIAN_POINT('',(10.,-1.9,-2.82));
#324 = DIRECTION('',(0.E+000,0.E+000,1.));
#325 = DIRECTION('',(1.,0.E+000,0.E+000));
#326 = ORIENTED_EDGE('',*,*,#312,.F.);
#327 = ORIENTED_EDGE('',*,*,#209,.F.);
#328 = CYLINDRICAL_SURFACE('',#329,0.45);
#329 = AXIS2_PLACEMENT_3D('',#330,#331,#332);
#330 = CARTESIAN_POINT('',(10.,-1.9,10.78));
#331 = DIRECTION('',(0.E+000,0.E+000,1.));
#332 = DIRECTION('',(1.,0.E+000,0.E+000));
#333 = ADVANCED_FACE('',(#334),#354,.T.);
#334 = FACE_BOUND('',#335,.F.);
#335 = EDGE_LOOP('',(#336,#345,#346,#347));
#336 = ORIENTED_EDGE('',*,*,#337,.F.);
#337 = EDGE_CURVE('',#278,#338,#340,.T.);
#338 = VERTEX_POINT('',#339);
#339 = CARTESIAN_POINT('',(0.27,0.E+000,-3.));
#340 = CIRCLE('',#341,0.18);
#341 = AXIS2_PLACEMENT_3D('',#342,#343,#344);
#342 = CARTESIAN_POINT('',(0.27,0.E+000,-2.82));
#343 = DIRECTION('',(-0.E+000,1.,0.E+000));
#344 = DIRECTION('',(1.,0.E+000,0.E+000));
#345 = ORIENTED_EDGE('',*,*,#285,.T.);
#346 = ORIENTED_EDGE('',*,*,#337,.T.);
#347 = ORIENTED_EDGE('',*,*,#348,.F.);
#348 = EDGE_CURVE('',#338,#338,#349,.T.);
#349 = CIRCLE('',#350,0.27);
#350 = AXIS2_PLACEMENT_3D('',#351,#352,#353);
#351 = CARTESIAN_POINT('',(0.E+000,0.E+000,-3.));
#352 = DIRECTION('',(0.E+000,0.E+000,1.));
#353 = DIRECTION('',(1.,0.E+000,0.E+000));
#354 = TOROIDAL_SURFACE('',#355,0.27,0.18);
#355 = AXIS2_PLACEMENT_3D('',#356,#357,#358);
#356 = CARTESIAN_POINT('',(0.E+000,0.E+000,-2.82));
#357 = DIRECTION('',(-0.E+000,-0.E+000,-1.));
#358 = DIRECTION('',(1.,0.E+000,0.E+000));
#359 = ADVANCED_FACE('',(#360),#380,.T.);
#360 = FACE_BOUND('',#361,.F.);
#361 = EDGE_LOOP('',(#362,#371,#372,#373));
#362 = ORIENTED_EDGE('',*,*,#363,.F.);
#363 = EDGE_CURVE('',#313,#364,#366,.T.);
#364 = VERTEX_POINT('',#365);
#365 = CARTESIAN_POINT('',(10.27,-1.9,-3.));
#366 = CIRCLE('',#367,0.18);
#367 = AXIS2_PLACEMENT_3D('',#368,#369,#370);
#368 = CARTESIAN_POINT('',(10.27,-1.9,-2.82));
#369 = DIRECTION('',(-0.E+000,1.,0.E+000));
#370 = DIRECTION('',(1.,0.E+000,0.E+000));
#371 = ORIENTED_EDGE('',*,*,#320,.T.);
#372 = ORIENTED_EDGE('',*,*,#363,.T.);
#373 = ORIENTED_EDGE('',*,*,#374,.F.);
#374 = EDGE_CURVE('',#364,#364,#375,.T.);
#375 = CIRCLE('',#376,0.27);
#376 = AXIS2_PLACEMENT_3D('',#377,#378,#379);
#377 = CARTESIAN_POINT('',(10.,-1.9,-3.));
#378 = DIRECTION('',(0.E+000,0.E+000,1.));
#379 = DIRECTION('',(1.,0.E+000,0.E+000));
#380 = TOROIDAL_SURFACE('',#381,0.27,0.18);
#381 = AXIS2_PLACEMENT_3D('',#382,#383,#384);
#382 = CARTESIAN_POINT('',(10.,-1.9,-2.82));
#383 = DIRECTION('',(-0.E+000,-0.E+000,-1.));
#384 = DIRECTION('',(1.,0.E+000,0.E+000));
#385 = ADVANCED_FACE('',(#386),#389,.F.);
#386 = FACE_BOUND('',#387,.F.);
#387 = EDGE_LOOP('',(#388));
#388 = ORIENTED_EDGE('',*,*,#348,.T.);
#389 = PLANE('',#390);
#390 = AXIS2_PLACEMENT_3D('',#391,#392,#393);
#391 = CARTESIAN_POINT('',(-1.18701400394E-017,2.911085817041E-017,-3.)
);
#392 = DIRECTION('',(0.E+000,0.E+000,1.));
#393 = DIRECTION('',(1.,0.E+000,0.E+000));
#394 = ADVANCED_FACE('',(#395),#398,.F.);
#395 = FACE_BOUND('',#396,.F.);
#396 = EDGE_LOOP('',(#397));
#397 = ORIENTED_EDGE('',*,*,#374,.T.);
#398 = PLANE('',#399);
#399 = AXIS2_PLACEMENT_3D('',#400,#401,#402);
#400 = CARTESIAN_POINT('',(10.,-1.9,-3.));
#401 = DIRECTION('',(0.E+000,0.E+000,1.));
#402 = DIRECTION('',(1.,0.E+000,0.E+000));
#403 = ( GEOMETRIC_REPRESENTATION_CONTEXT(3)
GLOBAL_UNCERTAINTY_ASSIGNED_CONTEXT((#407)) GLOBAL_UNIT_ASSIGNED_CONTEXT
((#404,#405,#406)) REPRESENTATION_CONTEXT('Context #1',
'3D Context with UNIT and UNCERTAINTY') );
#404 = ( LENGTH_UNIT() NAMED_UNIT(*) SI_UNIT(.MILLI.,.METRE.) );
#405 = ( NAMED_UNIT(*) PLANE_ANGLE_UNIT() SI_UNIT($,.RADIAN.) );
#406 = ( NAMED_UNIT(*) SI_UNIT($,.STERADIAN.) SOLID_ANGLE_UNIT() );
#407 = UNCERTAINTY_MEASURE_WITH_UNIT(LENGTH_MEASURE(1.E-007),#404,
'distance_accuracy_value','confusion accuracy');
#408 = PRODUCT_RELATED_PRODUCT_CATEGORY('part',$,(#7));
#409 = MECHANICAL_DESIGN_GEOMETRIC_PRESENTATION_REPRESENTATION('',(#410,
#418,#425,#432,#439,#447,#454,#461,#468,#475,#482),#403);
#410 = STYLED_ITEM('color',(#411),#17);
#411 = PRESENTATION_STYLE_ASSIGNMENT((#412));
#412 = SURFACE_STYLE_USAGE(.BOTH.,#413);
#413 = SURFACE_SIDE_STYLE('',(#414));
#414 = SURFACE_STYLE_FILL_AREA(#415);
#415 = FILL_AREA_STYLE('',(#416));
#416 = FILL_AREA_STYLE_COLOUR('',#417);
#417 = COLOUR_RGB('',0.136999994516,0.402000010014,0.726999998093);
#418 = STYLED_ITEM('color',(#419),#50);
#419 = PRESENTATION_STYLE_ASSIGNMENT((#420));
#420 = SURFACE_STYLE_USAGE(.BOTH.,#421);
#421 = SURFACE_SIDE_STYLE('',(#422));
#422 = SURFACE_STYLE_FILL_AREA(#423);
#423 = FILL_AREA_STYLE('',(#424));
#424 = FILL_AREA_STYLE_COLOUR('',#417);
#425 = STYLED_ITEM('color',(#426),#162);
#426 = PRESENTATION_STYLE_ASSIGNMENT((#427));
#427 = SURFACE_STYLE_USAGE(.BOTH.,#428);
#428 = SURFACE_SIDE_STYLE('',(#429));
#429 = SURFACE_STYLE_FILL_AREA(#430);
#430 = FILL_AREA_STYLE('',(#431));
#431 = FILL_AREA_STYLE_COLOUR('',#417);
#432 = STYLED_ITEM('color',(#433),#263);
#433 = PRESENTATION_STYLE_ASSIGNMENT((#434));
#434 = SURFACE_STYLE_USAGE(.BOTH.,#435);
#435 = SURFACE_SIDE_STYLE('',(#436));
#436 = SURFACE_STYLE_FILL_AREA(#437);
#437 = FILL_AREA_STYLE('',(#438));
#438 = FILL_AREA_STYLE_COLOUR('',#417);
#439 = STYLED_ITEM('color',(#440),#272);
#440 = PRESENTATION_STYLE_ASSIGNMENT((#441));
#441 = SURFACE_STYLE_USAGE(.BOTH.,#442);
#442 = SURFACE_SIDE_STYLE('',(#443));
#443 = SURFACE_STYLE_FILL_AREA(#444);
#444 = FILL_AREA_STYLE('',(#445));
#445 = FILL_AREA_STYLE_COLOUR('',#446);
#446 = COLOUR_RGB('',0.824000000954,0.819999992847,0.78100001812);
#447 = STYLED_ITEM('color',(#448),#298);
#448 = PRESENTATION_STYLE_ASSIGNMENT((#449));
#449 = SURFACE_STYLE_USAGE(.BOTH.,#450);
#450 = SURFACE_SIDE_STYLE('',(#451));
#451 = SURFACE_STYLE_FILL_AREA(#452);
#452 = FILL_AREA_STYLE('',(#453));
#453 = FILL_AREA_STYLE_COLOUR('',#417);
#454 = STYLED_ITEM('color',(#455),#307);
#455 = PRESENTATION_STYLE_ASSIGNMENT((#456));
#456 = SURFACE_STYLE_USAGE(.BOTH.,#457);
#457 = SURFACE_SIDE_STYLE('',(#458));
#458 = SURFACE_STYLE_FILL_AREA(#459);
#459 = FILL_AREA_STYLE('',(#460));
#460 = FILL_AREA_STYLE_COLOUR('',#446);
#461 = STYLED_ITEM('color',(#462),#333);
#462 = PRESENTATION_STYLE_ASSIGNMENT((#463));
#463 = SURFACE_STYLE_USAGE(.BOTH.,#464);
#464 = SURFACE_SIDE_STYLE('',(#465));
#465 = SURFACE_STYLE_FILL_AREA(#466);
#466 = FILL_AREA_STYLE('',(#467));
#467 = FILL_AREA_STYLE_COLOUR('',#446);
#468 = STYLED_ITEM('color',(#469),#359);
#469 = PRESENTATION_STYLE_ASSIGNMENT((#470));
#470 = SURFACE_STYLE_USAGE(.BOTH.,#471);
#471 = SURFACE_SIDE_STYLE('',(#472));
#472 = SURFACE_STYLE_FILL_AREA(#473);
#473 = FILL_AREA_STYLE('',(#474));
#474 = FILL_AREA_STYLE_COLOUR('',#446);
#475 = STYLED_ITEM('color',(#476),#385);
#476 = PRESENTATION_STYLE_ASSIGNMENT((#477));
#477 = SURFACE_STYLE_USAGE(.BOTH.,#478);
#478 = SURFACE_SIDE_STYLE('',(#479));
#479 = SURFACE_STYLE_FILL_AREA(#480);
#480 = FILL_AREA_STYLE('',(#481));
#481 = FILL_AREA_STYLE_COLOUR('',#446);
#482 = STYLED_ITEM('color',(#483),#394);
#483 = PRESENTATION_STYLE_ASSIGNMENT((#484));
#484 = SURFACE_STYLE_USAGE(.BOTH.,#485);
#485 = SURFACE_SIDE_STYLE('',(#486));
#486 = SURFACE_STYLE_FILL_AREA(#487);
#487 = FILL_AREA_STYLE('',(#488));
#488 = FILL_AREA_STYLE_COLOUR('',#446);
ENDSEC;
END-ISO-10303-21;
