ISO-10303-21;
HEADER;
/* RV_Disc_D15.5mm_W4.4mm_P7.5mm.step 3D STEP model for use in ECAD systems
 * Copyright (C) 2018, kicad StepUp
 * 
 * This work is licensed under the [Creative Commons CC-BY-SA 4.0 License](https://creativecommons.org/licenses/by-sa/4.0/legalcode), 
 * with the following exception:
 * To the extent that the creation of electronic designs that use 'Licensed Material' can be considered to be 'Adapted Material', 
 * then the copyright holder waives article 3 of the license with respect to these designs and any generated files which use data provided 
 * as part of the 'Licensed Material'.
 * You are free to use the library data in your own projects without the obligation to share your project files under this or any other license agreement.
 * However, if you wish to redistribute these libraries, or parts thereof (including in modified form) as a collection then the exception above does not apply. 
 * Please refer to https://github.com/KiCad/kicad-packages3D/blob/master/LICENSE.md for further clarification of the exception.
 * Disclaimer of Warranties and Limitation of Liability.
 * These libraries are provided in the hope that they will be useful, but are provided without warranty of any kind, express or implied.
 * *USE 3D CAD DATA AT YOUR OWN RISK*
 * *DO NOT RELY UPON ANY INFORMATION FOUND HERE WITHOUT INDEPENDENT VERIFICATION.*
 * 
 */

FILE_DESCRIPTION(
/* description */ ('model of RV_Disc_D15.5mm_W4.4mm_P7.5mm'),
/* implementation_level */ '2;1');

FILE_NAME(
/* name */ 'RV_Disc_D15.5mm_W4.4mm_P7.5mm.step',
/* time_stamp */ '2018-11-11T20:58:12',
/* author */ ('kicad StepUp','ksu'),
/* organization */ ('FreeCAD'),
/* preprocessor_version */ 'OCC',
/* originating_system */ 'kicad StepUp',
/* authorisation */ '');

FILE_SCHEMA(('AUTOMOTIVE_DESIGN { 1 0 10303 214 1 1 1 1 }'));
ENDSEC;

DATA;
#1 = APPLICATION_PROTOCOL_DEFINITION('international standard',
'automotive_design',2000,#2);
#2 = APPLICATION_CONTEXT(
'core data for automotive mechanical design processes');
#3 = SHAPE_DEFINITION_REPRESENTATION(#4,#10);
#4 = PRODUCT_DEFINITION_SHAPE('','',#5);
#5 = PRODUCT_DEFINITION('design','',#6,#9);
#6 = PRODUCT_DEFINITION_FORMATION('','',#7);
#7 = PRODUCT('RV_Disc_D155mm_W44mm_P75mm','RV_Disc_D155mm_W44mm_P75mm',
'',(#8));
#8 = PRODUCT_CONTEXT('',#2,'mechanical');
#9 = PRODUCT_DEFINITION_CONTEXT('part definition',#2,'design');
#10 = ADVANCED_BREP_SHAPE_REPRESENTATION('',(#11,#15),#386);
#11 = AXIS2_PLACEMENT_3D('',#12,#13,#14);
#12 = CARTESIAN_POINT('',(0.E+000,0.E+000,0.E+000));
#13 = DIRECTION('',(0.E+000,0.E+000,1.));
#14 = DIRECTION('',(1.,0.E+000,-0.E+000));
#15 = MANIFOLD_SOLID_BREP('',#16);
#16 = CLOSED_SHELL('',(#17,#50,#146,#246,#255,#281,#290,#316,#342,#368,
#377));
#17 = ADVANCED_FACE('',(#18),#45,.T.);
#18 = FACE_BOUND('',#19,.F.);
#19 = EDGE_LOOP('',(#20,#30,#37,#38));
#20 = ORIENTED_EDGE('',*,*,#21,.T.);
#21 = EDGE_CURVE('',#22,#24,#26,.T.);
#22 = VERTEX_POINT('',#23);
#23 = CARTESIAN_POINT('',(11.5,-0.879676463415,7.78));
#24 = VERTEX_POINT('',#25);
#25 = CARTESIAN_POINT('',(11.5,-0.986993536585,7.78));
#26 = LINE('',#27,#28);
#27 = CARTESIAN_POINT('',(11.5,1.266665,7.78));
#28 = VECTOR('',#29,1.);
#29 = DIRECTION('',(0.E+000,-1.,0.E+000));
#30 = ORIENTED_EDGE('',*,*,#31,.T.);
#31 = EDGE_CURVE('',#24,#24,#32,.T.);
#32 = CIRCLE('',#33,7.75);
#33 = AXIS2_PLACEMENT_3D('',#34,#35,#36);
#34 = CARTESIAN_POINT('',(3.75,-0.986993536585,7.78));
#35 = DIRECTION('',(0.E+000,-1.,0.E+000));
#36 = DIRECTION('',(1.,0.E+000,0.E+000));
#37 = ORIENTED_EDGE('',*,*,#21,.F.);
#38 = ORIENTED_EDGE('',*,*,#39,.F.);
#39 = EDGE_CURVE('',#22,#22,#40,.T.);
#40 = CIRCLE('',#41,7.75);
#41 = AXIS2_PLACEMENT_3D('',#42,#43,#44);
#42 = CARTESIAN_POINT('',(3.75,-0.879676463415,7.78));
#43 = DIRECTION('',(0.E+000,-1.,0.E+000));
#44 = DIRECTION('',(1.,0.E+000,0.E+000));
#45 = CYLINDRICAL_SURFACE('',#46,7.75);
#46 = AXIS2_PLACEMENT_3D('',#47,#48,#49);
#47 = CARTESIAN_POINT('',(3.75,1.266665,7.78));
#48 = DIRECTION('',(0.E+000,1.,0.E+000));
#49 = DIRECTION('',(1.,0.E+000,0.E+000));
#50 = ADVANCED_FACE('',(#51,#71),#141,.T.);
#51 = FACE_BOUND('',#52,.F.);
#52 = EDGE_LOOP('',(#53,#54,#63,#70));
#53 = ORIENTED_EDGE('',*,*,#39,.T.);
#54 = ORIENTED_EDGE('',*,*,#55,.T.);
#55 = EDGE_CURVE('',#22,#56,#58,.T.);
#56 = VERTEX_POINT('',#57);
#57 = CARTESIAN_POINT('',(9.353658536585,1.266665,7.78));
#58 = CIRCLE('',#59,2.146341463415);
#59 = AXIS2_PLACEMENT_3D('',#60,#61,#62);
#60 = CARTESIAN_POINT('',(9.353658536585,-0.879676463415,7.78));
#61 = DIRECTION('',(0.E+000,0.E+000,1.));
#62 = DIRECTION('',(1.,0.E+000,0.E+000));
#63 = ORIENTED_EDGE('',*,*,#64,.F.);
#64 = EDGE_CURVE('',#56,#56,#65,.T.);
#65 = CIRCLE('',#66,5.603658536585);
#66 = AXIS2_PLACEMENT_3D('',#67,#68,#69);
#67 = CARTESIAN_POINT('',(3.75,1.266665,7.78));
#68 = DIRECTION('',(0.E+000,-1.,0.E+000));
#69 = DIRECTION('',(1.,0.E+000,0.E+000));
#70 = ORIENTED_EDGE('',*,*,#55,.F.);
#71 = FACE_BOUND('',#72,.F.);
#72 = EDGE_LOOP('',(#73,#100));
#73 = ORIENTED_EDGE('',*,*,#74,.T.);
#74 = EDGE_CURVE('',#75,#77,#79,.T.);
#75 = VERTEX_POINT('',#76);
#76 = CARTESIAN_POINT('',(0.36,0.E+000,1.021047422777));
#77 = VERTEX_POINT('',#78);
#78 = CARTESIAN_POINT('',(-5.960181808952E-002,-0.355031862345,
1.10583428972));
#79 = B_SPLINE_CURVE_WITH_KNOTS('',7,(#80,#81,#82,#83,#84,#85,#86,#87,
#88,#89,#90,#91,#92,#93,#94,#95,#96,#97,#98,#99),.UNSPECIFIED.,.F.,
.F.,(8,6,6,8),(0.E+000,0.30899369637,0.50932043513,1.),.UNSPECIFIED.);
#80 = CARTESIAN_POINT('',(0.36,-5.551115123126E-017,1.021047422777));
#81 = CARTESIAN_POINT('',(0.36,-2.596141990269E-002,1.007997422581));
#82 = CARTESIAN_POINT('',(0.357815722304,-5.218335842359E-002,
0.996457977441));
#83 = CARTESIAN_POINT('',(0.353368447893,-7.845345322744E-002,
0.986571600684));
#84 = CARTESIAN_POINT('',(0.346601332191,-0.104530192506,0.97846459272)
);
#85 = CARTESIAN_POINT('',(0.337494336115,-0.13014330215,0.972235613804)
);
#86 = CARTESIAN_POINT('',(0.326078236082,-0.15500320277,0.96794510709));
#87 = CARTESIAN_POINT('',(0.303610774642,-0.194260137881,0.964088804958)
);
#88 = CARTESIAN_POINT('',(0.293842130508,-0.209263768125,0.963391902985)
);
#89 = CARTESIAN_POINT('',(0.283166730319,-0.22375179373,0.963518624581)
);
#90 = CARTESIAN_POINT('',(0.27161892536,-0.237648293725,0.964464137364)
);
#91 = CARTESIAN_POINT('',(0.25924179776,-0.250881291678,0.966215839858)
);
#92 = CARTESIAN_POINT('',(0.24608648981,-0.263383987659,0.968754183328)
);
#93 = CARTESIAN_POINT('',(0.198226266598,-0.303783325385,0.980134811876)
);
#94 = CARTESIAN_POINT('',(0.159955406638,-0.327699785359,0.992774029661)
);
#95 = CARTESIAN_POINT('',(0.118191140085,-0.346042362674,1.009598558795)
);
#96 = CARTESIAN_POINT('',(7.397376611562E-002,-0.358128675795,
1.030074765885));
#97 = CARTESIAN_POINT('',(2.862105226785E-002,-0.363527297459,
1.053498622798));
#98 = CARTESIAN_POINT('',(-1.636797055122E-002,-0.362289847303,
1.079049793534));
#99 = CARTESIAN_POINT('',(-5.960181808952E-002,-0.355031862345,
1.10583428972));
#100 = ORIENTED_EDGE('',*,*,#101,.T.);
#101 = EDGE_CURVE('',#77,#75,#102,.T.);
#102 = B_SPLINE_CURVE_WITH_KNOTS('',7,(#103,#104,#105,#106,#107,#108,
#109,#110,#111,#112,#113,#114,#115,#116,#117,#118,#119,#120,#121,
#122,#123,#124,#125,#126,#127,#128,#129,#130,#131,#132,#133,#134,
#135,#136,#137,#138,#139,#140),.UNSPECIFIED.,.F.,.F.,(8,6,6,6,6,6,8)
,(0.E+000,0.179244727901,0.411490715345,0.551665320912,0.680856696979,
0.812638432532,1.),.UNSPECIFIED.);
#103 = CARTESIAN_POINT('',(-5.960181808952E-002,-0.355031862345,
1.10583428972));
#104 = CARTESIAN_POINT('',(-0.102932662765,-0.347757593763,
1.132678878163));
#105 = CARTESIAN_POINT('',(-0.1445219335,-0.33443202273,1.160775874428)
);
#106 = CARTESIAN_POINT('',(-0.183431290102,-0.315584512487,
1.189515979129));
#107 = CARTESIAN_POINT('',(-0.218931047084,-0.291883303328,
1.218435062294));
#108 = CARTESIAN_POINT('',(-0.250487149588,-0.264031531281,
1.247185263562));
#109 = CARTESIAN_POINT('',(-0.277715872992,-0.232705475009,
1.275493474437));
#110 = CARTESIAN_POINT('',(-0.329576415478,-0.154260654628,
1.338886093531));
#111 = CARTESIAN_POINT('',(-0.351013451334,-0.105280994096,
1.373442463292));
#112 = CARTESIAN_POINT('',(-0.363971875081,-5.301723801162E-002,
1.4062178586));
#113 = CARTESIAN_POINT('',(-0.367944089606,1.089121177259E-003,
1.436593231818));
#114 = CARTESIAN_POINT('',(-0.36257102965,5.547208815867E-002,
1.463764296576));
#115 = CARTESIAN_POINT('',(-0.347691405201,0.108407636978,1.486564471657
));
#116 = CARTESIAN_POINT('',(-0.308886245839,0.18787568488,1.513700733907)
);
#117 = CARTESIAN_POINT('',(-0.290892565495,0.216540845409,1.521768194542
));
#118 = CARTESIAN_POINT('',(-0.269572369585,0.243512261242,1.52735451166)
);
#119 = CARTESIAN_POINT('',(-0.245064694372,0.268287899826,1.530080274839
));
#120 = CARTESIAN_POINT('',(-0.217645032463,0.29034000347,1.529565834244)
);
#121 = CARTESIAN_POINT('',(-0.187752342437,0.309178798582,1.525525106469
));
#122 = CARTESIAN_POINT('',(-0.126705361538,0.338527910015,1.510889373493
));
#123 = CARTESIAN_POINT('',(-9.580647839817E-002,0.349588064406,
1.500826031187));
#124 = CARTESIAN_POINT('',(-6.379903593821E-002,0.35732112459,
1.487680267924));
#125 = CARTESIAN_POINT('',(-3.128441414109E-002,0.361565582583,
1.471599137891));
#126 = CARTESIAN_POINT('',(1.106748103786E-003,0.362337259209,
1.452953200588));
#127 = CARTESIAN_POINT('',(3.276992883472E-002,0.359833414751,
1.432304340196));
#128 = CARTESIAN_POINT('',(9.419327167777E-002,0.348884250634,
1.38786156473));
#129 = CARTESIAN_POINT('',(0.124009561435,0.340301704167,1.363935508836)
);
#130 = CARTESIAN_POINT('',(0.152356961434,0.328955212461,1.338977654301)
);
#131 = CARTESIAN_POINT('',(0.179052008611,0.31512172723,1.313405222133)
);
#132 = CARTESIAN_POINT('',(0.203966417628,0.299043549132,1.287574546956)
);
#133 = CARTESIAN_POINT('',(0.226999527954,0.280918402269,1.261778898307)
);
#134 = CARTESIAN_POINT('',(0.277986468072,0.232442349833,1.200002372257)
);
#135 = CARTESIAN_POINT('',(0.303883038087,0.200192881466,1.164357296874)
);
#136 = CARTESIAN_POINT('',(0.325444692416,0.16464458921,1.130092130782)
);
#137 = CARTESIAN_POINT('',(0.342295603964,0.126239533082,1.097916712105)
);
#138 = CARTESIAN_POINT('',(0.353974935988,8.549997142235E-002,
1.068553208844));
#139 = CARTESIAN_POINT('',(0.36,4.311725659719E-002,1.042721129729));
#140 = CARTESIAN_POINT('',(0.36,-5.551115123126E-017,1.021047422777));
#141 = TOROIDAL_SURFACE('',#142,5.603658536585,2.146341463415);
#142 = AXIS2_PLACEMENT_3D('',#143,#144,#145);
#143 = CARTESIAN_POINT('',(3.75,-0.879676463415,7.78));
#144 = DIRECTION('',(0.E+000,1.,0.E+000));
#145 = DIRECTION('',(1.,0.E+000,0.E+000));
#146 = ADVANCED_FACE('',(#147,#167),#241,.T.);
#147 = FACE_BOUND('',#148,.T.);
#148 = EDGE_LOOP('',(#149,#150,#159,#166));
#149 = ORIENTED_EDGE('',*,*,#31,.T.);
#150 = ORIENTED_EDGE('',*,*,#151,.T.);
#151 = EDGE_CURVE('',#24,#152,#154,.T.);
#152 = VERTEX_POINT('',#153);
#153 = CARTESIAN_POINT('',(9.353658536585,-3.133335,7.78));
#154 = CIRCLE('',#155,2.146341463415);
#155 = AXIS2_PLACEMENT_3D('',#156,#157,#158);
#156 = CARTESIAN_POINT('',(9.353658536585,-0.986993536585,7.78));
#157 = DIRECTION('',(0.E+000,0.E+000,-1.));
#158 = DIRECTION('',(1.,0.E+000,0.E+000));
#159 = ORIENTED_EDGE('',*,*,#160,.F.);
#160 = EDGE_CURVE('',#152,#152,#161,.T.);
#161 = CIRCLE('',#162,5.603658536585);
#162 = AXIS2_PLACEMENT_3D('',#163,#164,#165);
#163 = CARTESIAN_POINT('',(3.75,-3.133335,7.78));
#164 = DIRECTION('',(0.E+000,-1.,0.E+000));
#165 = DIRECTION('',(1.,0.E+000,0.E+000));
#166 = ORIENTED_EDGE('',*,*,#151,.F.);
#167 = FACE_BOUND('',#168,.T.);
#168 = EDGE_LOOP('',(#169,#206));
#169 = ORIENTED_EDGE('',*,*,#170,.T.);
#170 = EDGE_CURVE('',#171,#173,#175,.T.);
#171 = VERTEX_POINT('',#172);
#172 = CARTESIAN_POINT('',(7.86,-1.86667,1.433076340372));
#173 = VERTEX_POINT('',#174);
#174 = CARTESIAN_POINT('',(7.146843451598,-1.796809765811,0.991017294808
));
#175 = B_SPLINE_CURVE_WITH_KNOTS('',8,(#176,#177,#178,#179,#180,#181,
#182,#183,#184,#185,#186,#187,#188,#189,#190,#191,#192,#193,#194,
#195,#196,#197,#198,#199,#200,#201,#202,#203,#204,#205),
.UNSPECIFIED.,.F.,.F.,(9,7,7,7,9),(0.E+000,0.208583844604,
0.62402640369,0.89093174998,1.),.UNSPECIFIED.);
#176 = CARTESIAN_POINT('',(7.86,-1.86667,1.433076340372));
#177 = CARTESIAN_POINT('',(7.86,-1.84022326109,1.418919369809));
#178 = CARTESIAN_POINT('',(7.857779509667,-1.813886464531,1.403978646823
));
#179 = CARTESIAN_POINT('',(7.85337107149,-1.787842043776,1.388361224445)
);
#180 = CARTESIAN_POINT('',(7.846815752034,-1.762267112086,1.372160026304
));
#181 = CARTESIAN_POINT('',(7.838163543334,-1.737334507398,1.355457039667
));
#182 = CARTESIAN_POINT('',(7.827473764282,-1.713213837208,1.338326508468
));
#183 = CARTESIAN_POINT('',(7.814815462013,-1.690072523436,1.320838126348
));
#184 = CARTESIAN_POINT('',(7.771292834815,-1.624267414242,1.267651471645
));
#185 = CARTESIAN_POINT('',(7.734922621277,-1.585153000605,1.231215883158
));
#186 = CARTESIAN_POINT('',(7.691725300675,-1.551764965324,1.194124777796
));
#187 = CARTESIAN_POINT('',(7.642347175015,-1.525432833632,1.156862605429
));
#188 = CARTESIAN_POINT('',(7.587915456715,-1.507704179495,1.120214618674
));
#189 = CARTESIAN_POINT('',(7.530260718993,-1.500016737085,1.085315864131
));
#190 = CARTESIAN_POINT('',(7.47197094678,-1.503147518,1.053807425246));
#191 = CARTESIAN_POINT('',(7.379759538373,-1.525322011524,1.01017421855)
);
#192 = CARTESIAN_POINT('',(7.344699497876,-1.538246591066,0.995205283619
));
#193 = CARTESIAN_POINT('',(7.311287741244,-1.55527356377,0.982679519197)
);
#194 = CARTESIAN_POINT('',(7.280126162329,-1.576124181096,0.972917605045
));
#195 = CARTESIAN_POINT('',(7.251750050928,-1.600402793214,0.966191543463
));
#196 = CARTESIAN_POINT('',(7.226602332837,-1.627615165255,0.962698956689
));
#197 = CARTESIAN_POINT('',(7.205011386635,-1.657191734502,0.962536379649
));
#198 = CARTESIAN_POINT('',(7.179882725574,-1.70131608393,0.966952703857)
);
#199 = CARTESIAN_POINT('',(7.173219082908,-1.714408997862,0.968784648276
));
#200 = CARTESIAN_POINT('',(7.167194726986,-1.727752944163,0.971165452195
));
#201 = CARTESIAN_POINT('',(7.161818563785,-1.741306383529,0.974089860139
));
#202 = CARTESIAN_POINT('',(7.15709555188,-1.755028256733,0.977549563395)
);
#203 = CARTESIAN_POINT('',(7.153027066867,-1.76887839784,0.98153347313)
);
#204 = CARTESIAN_POINT('',(7.149611265796,-1.78281794743,0.986027993508)
);
#205 = CARTESIAN_POINT('',(7.146843451598,-1.796809765811,0.991017294808
));
#206 = ORIENTED_EDGE('',*,*,#207,.T.);
#207 = EDGE_CURVE('',#173,#171,#208,.T.);
#208 = B_SPLINE_CURVE_WITH_KNOTS('',7,(#209,#210,#211,#212,#213,#214,
#215,#216,#217,#218,#219,#220,#221,#222,#223,#224,#225,#226,#227,
#228,#229,#230,#231,#232,#233,#234,#235,#236,#237,#238,#239,#240),
.UNSPECIFIED.,.F.,.F.,(8,6,6,6,6,8),(0.E+000,0.314725106883,
0.499418037636,0.672101476768,0.84173136319,1.),.UNSPECIFIED.);
#209 = CARTESIAN_POINT('',(7.146843451598,-1.796809765811,0.991017294808
));
#210 = CARTESIAN_POINT('',(7.136311291949,-1.850051802461,1.010002715822
));
#211 = CARTESIAN_POINT('',(7.135371793573,-1.90399394927,1.036275968537)
);
#212 = CARTESIAN_POINT('',(7.143678054015,-1.956551621966,1.068910441698
));
#213 = CARTESIAN_POINT('',(7.160314512414,-2.006135109262,1.106570553812
));
#214 = CARTESIAN_POINT('',(7.184346178498,-2.051695099347,1.147871297658
));
#215 = CARTESIAN_POINT('',(7.215024712211,-2.09243189177,1.191514580317)
);
#216 = CARTESIAN_POINT('',(7.273402958857,-2.147991979144,1.262278257336
));
#217 = CARTESIAN_POINT('',(7.297074729155,-2.166547154184,1.288749045198
));
#218 = CARTESIAN_POINT('',(7.322724482453,-2.182945205696,1.315251584867
));
#219 = CARTESIAN_POINT('',(7.35024481916,-2.196971878299,1.341469405864)
);
#220 = CARTESIAN_POINT('',(7.379495630772,-2.208361983619,1.367013486764
));
#221 = CARTESIAN_POINT('',(7.410272054655,-2.216812549747,1.391426040866
));
#222 = CARTESIAN_POINT('',(7.472187797427,-2.226871561943,1.435519501572
));
#223 = CARTESIAN_POINT('',(7.503254738042,-2.228902471513,1.455462842493
));
#224 = CARTESIAN_POINT('',(7.534962224316,-2.227777533375,1.473434917371
));
#225 = CARTESIAN_POINT('',(7.566736196304,-2.223324996079,1.488919627095
));
#226 = CARTESIAN_POINT('',(7.597985379263,-2.215541840402,1.501582283371
));
#227 = CARTESIAN_POINT('',(7.62815145855,-2.204586048431,1.511294380365)
);
#228 = CARTESIAN_POINT('',(7.684865502398,-2.177152515716,1.524774128326
));
#229 = CARTESIAN_POINT('',(7.711493160514,-2.160763676426,1.528650015215
));
#230 = CARTESIAN_POINT('',(7.736228402938,-2.14182651839,1.529757175436)
);
#231 = CARTESIAN_POINT('',(7.758752533641,-2.120672371943,1.528276320104
));
#232 = CARTESIAN_POINT('',(7.778849113893,-2.097662870591,1.524456589801
));
#233 = CARTESIAN_POINT('',(7.796390919413,-2.073151957325,1.518560563467
));
#234 = CARTESIAN_POINT('',(7.82522773829,-2.023498106704,1.503619947847)
);
#235 = CARTESIAN_POINT('',(7.836862568717,-1.99850740853,1.494812728012)
);
#236 = CARTESIAN_POINT('',(7.846162244668,-1.972749284613,1.484605733227
));
#237 = CARTESIAN_POINT('',(7.853110238397,-1.946467662013,1.473180887709
));
#238 = CARTESIAN_POINT('',(7.857714688725,-1.919889702355,1.460697761757
));
#239 = CARTESIAN_POINT('',(7.86,-1.893225270904,1.44729140824));
#240 = CARTESIAN_POINT('',(7.86,-1.86667,1.433076340372));
#241 = TOROIDAL_SURFACE('',#242,5.603658536585,2.146341463415);
#242 = AXIS2_PLACEMENT_3D('',#243,#244,#245);
#243 = CARTESIAN_POINT('',(3.75,-0.986993536585,7.78));
#244 = DIRECTION('',(0.E+000,-1.,0.E+000));
#245 = DIRECTION('',(1.,0.E+000,0.E+000));
#246 = ADVANCED_FACE('',(#247),#250,.F.);
#247 = FACE_BOUND('',#248,.F.);
#248 = EDGE_LOOP('',(#249));
#249 = ORIENTED_EDGE('',*,*,#64,.T.);
#250 = PLANE('',#251);
#251 = AXIS2_PLACEMENT_3D('',#252,#253,#254);
#252 = CARTESIAN_POINT('',(3.75,1.266665,7.78));
#253 = DIRECTION('',(-0.E+000,-1.,-0.E+000));
#254 = DIRECTION('',(0.E+000,0.E+000,-1.));
#255 = ADVANCED_FACE('',(#256),#276,.T.);
#256 = FACE_BOUND('',#257,.T.);
#257 = EDGE_LOOP('',(#258,#259,#267,#274,#275));
#258 = ORIENTED_EDGE('',*,*,#101,.T.);
#259 = ORIENTED_EDGE('',*,*,#260,.T.);
#260 = EDGE_CURVE('',#75,#261,#263,.T.);
#261 = VERTEX_POINT('',#262);
#262 = CARTESIAN_POINT('',(0.36,0.E+000,-2.856));
#263 = LINE('',#264,#265);
#264 = CARTESIAN_POINT('',(0.36,0.E+000,7.78));
#265 = VECTOR('',#266,1.);
#266 = DIRECTION('',(-0.E+000,-0.E+000,-1.));
#267 = ORIENTED_EDGE('',*,*,#268,.T.);
#268 = EDGE_CURVE('',#261,#261,#269,.T.);
#269 = CIRCLE('',#270,0.36);
#270 = AXIS2_PLACEMENT_3D('',#271,#272,#273);
#271 = CARTESIAN_POINT('',(0.E+000,0.E+000,-2.856));
#272 = DIRECTION('',(0.E+000,0.E+000,1.));
#273 = DIRECTION('',(1.,0.E+000,0.E+000));
#274 = ORIENTED_EDGE('',*,*,#260,.F.);
#275 = ORIENTED_EDGE('',*,*,#74,.T.);
#276 = CYLINDRICAL_SURFACE('',#277,0.36);
#277 = AXIS2_PLACEMENT_3D('',#278,#279,#280);
#278 = CARTESIAN_POINT('',(0.E+000,0.E+000,7.78));
#279 = DIRECTION('',(0.E+000,0.E+000,1.));
#280 = DIRECTION('',(1.,0.E+000,0.E+000));
#281 = ADVANCED_FACE('',(#282),#285,.T.);
#282 = FACE_BOUND('',#283,.T.);
#283 = EDGE_LOOP('',(#284));
#284 = ORIENTED_EDGE('',*,*,#160,.T.);
#285 = PLANE('',#286);
#286 = AXIS2_PLACEMENT_3D('',#287,#288,#289);
#287 = CARTESIAN_POINT('',(3.75,-3.133335,7.78));
#288 = DIRECTION('',(-0.E+000,-1.,-0.E+000));
#289 = DIRECTION('',(0.E+000,0.E+000,-1.));
#290 = ADVANCED_FACE('',(#291),#311,.T.);
#291 = FACE_BOUND('',#292,.T.);
#292 = EDGE_LOOP('',(#293,#294,#302,#309,#310));
#293 = ORIENTED_EDGE('',*,*,#170,.F.);
#294 = ORIENTED_EDGE('',*,*,#295,.T.);
#295 = EDGE_CURVE('',#171,#296,#298,.T.);
#296 = VERTEX_POINT('',#297);
#297 = CARTESIAN_POINT('',(7.86,-1.86667,-2.856));
#298 = LINE('',#299,#300);
#299 = CARTESIAN_POINT('',(7.86,-1.86667,7.78));
#300 = VECTOR('',#301,1.);
#301 = DIRECTION('',(-0.E+000,-0.E+000,-1.));
#302 = ORIENTED_EDGE('',*,*,#303,.T.);
#303 = EDGE_CURVE('',#296,#296,#304,.T.);
#304 = CIRCLE('',#305,0.36);
#305 = AXIS2_PLACEMENT_3D('',#306,#307,#308);
#306 = CARTESIAN_POINT('',(7.5,-1.86667,-2.856));
#307 = DIRECTION('',(0.E+000,0.E+000,1.));
#308 = DIRECTION('',(1.,0.E+000,0.E+000));
#309 = ORIENTED_EDGE('',*,*,#295,.F.);
#310 = ORIENTED_EDGE('',*,*,#207,.F.);
#311 = CYLINDRICAL_SURFACE('',#312,0.36);
#312 = AXIS2_PLACEMENT_3D('',#313,#314,#315);
#313 = CARTESIAN_POINT('',(7.5,-1.86667,7.78));
#314 = DIRECTION('',(0.E+000,0.E+000,1.));
#315 = DIRECTION('',(1.,0.E+000,0.E+000));
#316 = ADVANCED_FACE('',(#317),#337,.T.);
#317 = FACE_BOUND('',#318,.F.);
#318 = EDGE_LOOP('',(#319,#328,#329,#330));
#319 = ORIENTED_EDGE('',*,*,#320,.F.);
#320 = EDGE_CURVE('',#261,#321,#323,.T.);
#321 = VERTEX_POINT('',#322);
#322 = CARTESIAN_POINT('',(0.216,0.E+000,-3.));
#323 = CIRCLE('',#324,0.144);
#324 = AXIS2_PLACEMENT_3D('',#325,#326,#327);
#325 = CARTESIAN_POINT('',(0.216,0.E+000,-2.856));
#326 = DIRECTION('',(-0.E+000,1.,0.E+000));
#327 = DIRECTION('',(1.,0.E+000,0.E+000));
#328 = ORIENTED_EDGE('',*,*,#268,.T.);
#329 = ORIENTED_EDGE('',*,*,#320,.T.);
#330 = ORIENTED_EDGE('',*,*,#331,.F.);
#331 = EDGE_CURVE('',#321,#321,#332,.T.);
#332 = CIRCLE('',#333,0.216);
#333 = AXIS2_PLACEMENT_3D('',#334,#335,#336);
#334 = CARTESIAN_POINT('',(0.E+000,0.E+000,-3.));
#335 = DIRECTION('',(0.E+000,0.E+000,1.));
#336 = DIRECTION('',(1.,0.E+000,0.E+000));
#337 = TOROIDAL_SURFACE('',#338,0.216,0.144);
#338 = AXIS2_PLACEMENT_3D('',#339,#340,#341);
#339 = CARTESIAN_POINT('',(0.E+000,0.E+000,-2.856));
#340 = DIRECTION('',(-0.E+000,-0.E+000,-1.));
#341 = DIRECTION('',(1.,0.E+000,0.E+000));
#342 = ADVANCED_FACE('',(#343),#363,.T.);
#343 = FACE_BOUND('',#344,.F.);
#344 = EDGE_LOOP('',(#345,#354,#355,#356));
#345 = ORIENTED_EDGE('',*,*,#346,.F.);
#346 = EDGE_CURVE('',#296,#347,#349,.T.);
#347 = VERTEX_POINT('',#348);
#348 = CARTESIAN_POINT('',(7.716,-1.86667,-3.));
#349 = CIRCLE('',#350,0.144);
#350 = AXIS2_PLACEMENT_3D('',#351,#352,#353);
#351 = CARTESIAN_POINT('',(7.716,-1.86667,-2.856));
#352 = DIRECTION('',(-0.E+000,1.,0.E+000));
#353 = DIRECTION('',(1.,0.E+000,0.E+000));
#354 = ORIENTED_EDGE('',*,*,#303,.T.);
#355 = ORIENTED_EDGE('',*,*,#346,.T.);
#356 = ORIENTED_EDGE('',*,*,#357,.F.);
#357 = EDGE_CURVE('',#347,#347,#358,.T.);
#358 = CIRCLE('',#359,0.216);
#359 = AXIS2_PLACEMENT_3D('',#360,#361,#362);
#360 = CARTESIAN_POINT('',(7.5,-1.86667,-3.));
#361 = DIRECTION('',(0.E+000,0.E+000,1.));
#362 = DIRECTION('',(1.,0.E+000,0.E+000));
#363 = TOROIDAL_SURFACE('',#364,0.216,0.144);
#364 = AXIS2_PLACEMENT_3D('',#365,#366,#367);
#365 = CARTESIAN_POINT('',(7.5,-1.86667,-2.856));
#366 = DIRECTION('',(-0.E+000,-0.E+000,-1.));
#367 = DIRECTION('',(1.,0.E+000,0.E+000));
#368 = ADVANCED_FACE('',(#369),#372,.F.);
#369 = FACE_BOUND('',#370,.F.);
#370 = EDGE_LOOP('',(#371));
#371 = ORIENTED_EDGE('',*,*,#331,.T.);
#372 = PLANE('',#373);
#373 = AXIS2_PLACEMENT_3D('',#374,#375,#376);
#374 = CARTESIAN_POINT('',(-1.483767504926E-017,1.497958850874E-017,-3.)
);
#375 = DIRECTION('',(0.E+000,0.E+000,1.));
#376 = DIRECTION('',(1.,0.E+000,0.E+000));
#377 = ADVANCED_FACE('',(#378),#381,.F.);
#378 = FACE_BOUND('',#379,.F.);
#379 = EDGE_LOOP('',(#380));
#380 = ORIENTED_EDGE('',*,*,#357,.T.);
#381 = PLANE('',#382);
#382 = AXIS2_PLACEMENT_3D('',#383,#384,#385);
#383 = CARTESIAN_POINT('',(7.5,-1.86667,-3.));
#384 = DIRECTION('',(0.E+000,0.E+000,1.));
#385 = DIRECTION('',(1.,0.E+000,0.E+000));
#386 = ( GEOMETRIC_REPRESENTATION_CONTEXT(3)
GLOBAL_UNCERTAINTY_ASSIGNED_CONTEXT((#390)) GLOBAL_UNIT_ASSIGNED_CONTEXT
((#387,#388,#389)) REPRESENTATION_CONTEXT('Context #1',
'3D Context with UNIT and UNCERTAINTY') );
#387 = ( LENGTH_UNIT() NAMED_UNIT(*) SI_UNIT(.MILLI.,.METRE.) );
#388 = ( NAMED_UNIT(*) PLANE_ANGLE_UNIT() SI_UNIT($,.RADIAN.) );
#389 = ( NAMED_UNIT(*) SI_UNIT($,.STERADIAN.) SOLID_ANGLE_UNIT() );
#390 = UNCERTAINTY_MEASURE_WITH_UNIT(LENGTH_MEASURE(1.E-007),#387,
'distance_accuracy_value','confusion accuracy');
#391 = PRODUCT_RELATED_PRODUCT_CATEGORY('part',$,(#7));
#392 = MECHANICAL_DESIGN_GEOMETRIC_PRESENTATION_REPRESENTATION('',(#393,
#401,#408,#415,#422,#430,#437,#444,#451,#458,#465),#386);
#393 = STYLED_ITEM('color',(#394),#17);
#394 = PRESENTATION_STYLE_ASSIGNMENT((#395));
#395 = SURFACE_STYLE_USAGE(.BOTH.,#396);
#396 = SURFACE_SIDE_STYLE('',(#397));
#397 = SURFACE_STYLE_FILL_AREA(#398);
#398 = FILL_AREA_STYLE('',(#399));
#399 = FILL_AREA_STYLE_COLOUR('',#400);
#400 = COLOUR_RGB('',0.136999994516,0.402000010014,0.726999998093);
#401 = STYLED_ITEM('color',(#402),#50);
#402 = PRESENTATION_STYLE_ASSIGNMENT((#403));
#403 = SURFACE_STYLE_USAGE(.BOTH.,#404);
#404 = SURFACE_SIDE_STYLE('',(#405));
#405 = SURFACE_STYLE_FILL_AREA(#406);
#406 = FILL_AREA_STYLE('',(#407));
#407 = FILL_AREA_STYLE_COLOUR('',#400);
#408 = STYLED_ITEM('color',(#409),#146);
#409 = PRESENTATION_STYLE_ASSIGNMENT((#410));
#410 = SURFACE_STYLE_USAGE(.BOTH.,#411);
#411 = SURFACE_SIDE_STYLE('',(#412));
#412 = SURFACE_STYLE_FILL_AREA(#413);
#413 = FILL_AREA_STYLE('',(#414));
#414 = FILL_AREA_STYLE_COLOUR('',#400);
#415 = STYLED_ITEM('color',(#416),#246);
#416 = PRESENTATION_STYLE_ASSIGNMENT((#417));
#417 = SURFACE_STYLE_USAGE(.BOTH.,#418);
#418 = SURFACE_SIDE_STYLE('',(#419));
#419 = SURFACE_STYLE_FILL_AREA(#420);
#420 = FILL_AREA_STYLE('',(#421));
#421 = FILL_AREA_STYLE_COLOUR('',#400);
#422 = STYLED_ITEM('color',(#423),#255);
#423 = PRESENTATION_STYLE_ASSIGNMENT((#424));
#424 = SURFACE_STYLE_USAGE(.BOTH.,#425);
#425 = SURFACE_SIDE_STYLE('',(#426));
#426 = SURFACE_STYLE_FILL_AREA(#427);
#427 = FILL_AREA_STYLE('',(#428));
#428 = FILL_AREA_STYLE_COLOUR('',#429);
#429 = COLOUR_RGB('',0.824000000954,0.819999992847,0.78100001812);
#430 = STYLED_ITEM('color',(#431),#281);
#431 = PRESENTATION_STYLE_ASSIGNMENT((#432));
#432 = SURFACE_STYLE_USAGE(.BOTH.,#433);
#433 = SURFACE_SIDE_STYLE('',(#434));
#434 = SURFACE_STYLE_FILL_AREA(#435);
#435 = FILL_AREA_STYLE('',(#436));
#436 = FILL_AREA_STYLE_COLOUR('',#400);
#437 = STYLED_ITEM('color',(#438),#290);
#438 = PRESENTATION_STYLE_ASSIGNMENT((#439));
#439 = SURFACE_STYLE_USAGE(.BOTH.,#440);
#440 = SURFACE_SIDE_STYLE('',(#441));
#441 = SURFACE_STYLE_FILL_AREA(#442);
#442 = FILL_AREA_STYLE('',(#443));
#443 = FILL_AREA_STYLE_COLOUR('',#429);
#444 = STYLED_ITEM('color',(#445),#316);
#445 = PRESENTATION_STYLE_ASSIGNMENT((#446));
#446 = SURFACE_STYLE_USAGE(.BOTH.,#447);
#447 = SURFACE_SIDE_STYLE('',(#448));
#448 = SURFACE_STYLE_FILL_AREA(#449);
#449 = FILL_AREA_STYLE('',(#450));
#450 = FILL_AREA_STYLE_COLOUR('',#429);
#451 = STYLED_ITEM('color',(#452),#342);
#452 = PRESENTATION_STYLE_ASSIGNMENT((#453));
#453 = SURFACE_STYLE_USAGE(.BOTH.,#454);
#454 = SURFACE_SIDE_STYLE('',(#455));
#455 = SURFACE_STYLE_FILL_AREA(#456);
#456 = FILL_AREA_STYLE('',(#457));
#457 = FILL_AREA_STYLE_COLOUR('',#429);
#458 = STYLED_ITEM('color',(#459),#368);
#459 = PRESENTATION_STYLE_ASSIGNMENT((#460));
#460 = SURFACE_STYLE_USAGE(.BOTH.,#461);
#461 = SURFACE_SIDE_STYLE('',(#462));
#462 = SURFACE_STYLE_FILL_AREA(#463);
#463 = FILL_AREA_STYLE('',(#464));
#464 = FILL_AREA_STYLE_COLOUR('',#429);
#465 = STYLED_ITEM('color',(#466),#377);
#466 = PRESENTATION_STYLE_ASSIGNMENT((#467));
#467 = SURFACE_STYLE_USAGE(.BOTH.,#468);
#468 = SURFACE_SIDE_STYLE('',(#469));
#469 = SURFACE_STYLE_FILL_AREA(#470);
#470 = FILL_AREA_STYLE('',(#471));
#471 = FILL_AREA_STYLE_COLOUR('',#429);
ENDSEC;
END-ISO-10303-21;
