ISO-10303-21;
HEADER;
/* RV_Disc_D9mm_W5.5mm_P5mm.step 3D STEP model for use in ECAD systems
 * Copyright (C) 2018, kicad StepUp
 * 
 * This work is licensed under the [Creative Commons CC-BY-SA 4.0 License](https://creativecommons.org/licenses/by-sa/4.0/legalcode), 
 * with the following exception:
 * To the extent that the creation of electronic designs that use 'Licensed Material' can be considered to be 'Adapted Material', 
 * then the copyright holder waives article 3 of the license with respect to these designs and any generated files which use data provided 
 * as part of the 'Licensed Material'.
 * You are free to use the library data in your own projects without the obligation to share your project files under this or any other license agreement.
 * However, if you wish to redistribute these libraries, or parts thereof (including in modified form) as a collection then the exception above does not apply. 
 * Please refer to https://github.com/KiCad/kicad-packages3D/blob/master/LICENSE.md for further clarification of the exception.
 * Disclaimer of Warranties and Limitation of Liability.
 * These libraries are provided in the hope that they will be useful, but are provided without warranty of any kind, express or implied.
 * *USE 3D CAD DATA AT YOUR OWN RISK*
 * *DO NOT RELY UPON ANY INFORMATION FOUND HERE WITHOUT INDEPENDENT VERIFICATION.*
 * 
 */

FILE_DESCRIPTION(
/* description */ ('model of RV_Disc_D9mm_W5.5mm_P5mm'),
/* implementation_level */ '2;1');

FILE_NAME(
/* name */ 'RV_Disc_D9mm_W5.5mm_P5mm.step',
/* time_stamp */ '2018-11-11T21:13:05',
/* author */ ('kicad StepUp','ksu'),
/* organization */ ('FreeCAD'),
/* preprocessor_version */ 'OCC',
/* originating_system */ 'kicad StepUp',
/* authorisation */ '');

FILE_SCHEMA(('AUTOMOTIVE_DESIGN { 1 0 10303 214 1 1 1 1 }'));
ENDSEC;

DATA;
#1 = APPLICATION_PROTOCOL_DEFINITION('international standard',
'automotive_design',2000,#2);
#2 = APPLICATION_CONTEXT(
'core data for automotive mechanical design processes');
#3 = SHAPE_DEFINITION_REPRESENTATION(#4,#10);
#4 = PRODUCT_DEFINITION_SHAPE('','',#5);
#5 = PRODUCT_DEFINITION('design','',#6,#9);
#6 = PRODUCT_DEFINITION_FORMATION('','',#7);
#7 = PRODUCT('RV_Disc_D9mm_W55mm_P5mm','RV_Disc_D9mm_W55mm_P5mm','',(#8)
);
#8 = PRODUCT_CONTEXT('',#2,'mechanical');
#9 = PRODUCT_DEFINITION_CONTEXT('part definition',#2,'design');
#10 = ADVANCED_BREP_SHAPE_REPRESENTATION('',(#11,#15),#406);
#11 = AXIS2_PLACEMENT_3D('',#12,#13,#14);
#12 = CARTESIAN_POINT('',(0.E+000,0.E+000,0.E+000));
#13 = DIRECTION('',(0.E+000,0.E+000,1.));
#14 = DIRECTION('',(1.,0.E+000,-0.E+000));
#15 = MANIFOLD_SOLID_BREP('',#16);
#16 = CLOSED_SHELL('',(#17,#50,#160,#266,#275,#301,#310,#336,#362,#388,
#397));
#17 = ADVANCED_FACE('',(#18),#45,.T.);
#18 = FACE_BOUND('',#19,.F.);
#19 = EDGE_LOOP('',(#20,#30,#37,#38));
#20 = ORIENTED_EDGE('',*,*,#21,.T.);
#21 = EDGE_CURVE('',#22,#24,#26,.T.);
#22 = VERTEX_POINT('',#23);
#23 = CARTESIAN_POINT('',(7.,-1.332926829268,4.53));
#24 = VERTEX_POINT('',#25);
#25 = CARTESIAN_POINT('',(7.,-1.467073170732,4.53));
#26 = LINE('',#27,#28);
#27 = CARTESIAN_POINT('',(7.,1.35,4.53));
#28 = VECTOR('',#29,1.);
#29 = DIRECTION('',(0.E+000,-1.,0.E+000));
#30 = ORIENTED_EDGE('',*,*,#31,.T.);
#31 = EDGE_CURVE('',#24,#24,#32,.T.);
#32 = CIRCLE('',#33,4.5);
#33 = AXIS2_PLACEMENT_3D('',#34,#35,#36);
#34 = CARTESIAN_POINT('',(2.5,-1.467073170732,4.53));
#35 = DIRECTION('',(0.E+000,-1.,0.E+000));
#36 = DIRECTION('',(1.,0.E+000,0.E+000));
#37 = ORIENTED_EDGE('',*,*,#21,.F.);
#38 = ORIENTED_EDGE('',*,*,#39,.F.);
#39 = EDGE_CURVE('',#22,#22,#40,.T.);
#40 = CIRCLE('',#41,4.5);
#41 = AXIS2_PLACEMENT_3D('',#42,#43,#44);
#42 = CARTESIAN_POINT('',(2.5,-1.332926829268,4.53));
#43 = DIRECTION('',(0.E+000,-1.,0.E+000));
#44 = DIRECTION('',(1.,0.E+000,0.E+000));
#45 = CYLINDRICAL_SURFACE('',#46,4.5);
#46 = AXIS2_PLACEMENT_3D('',#47,#48,#49);
#47 = CARTESIAN_POINT('',(2.5,1.35,4.53));
#48 = DIRECTION('',(0.E+000,1.,0.E+000));
#49 = DIRECTION('',(1.,0.E+000,0.E+000));
#50 = ADVANCED_FACE('',(#51,#71),#143,.T.);
#51 = FACE_BOUND('',#52,.F.);
#52 = EDGE_LOOP('',(#53,#54,#63,#70));
#53 = ORIENTED_EDGE('',*,*,#39,.T.);
#54 = ORIENTED_EDGE('',*,*,#55,.T.);
#55 = EDGE_CURVE('',#22,#56,#58,.T.);
#56 = VERTEX_POINT('',#57);
#57 = CARTESIAN_POINT('',(4.317073170732,1.35,4.53));
#58 = CIRCLE('',#59,2.682926829268);
#59 = AXIS2_PLACEMENT_3D('',#60,#61,#62);
#60 = CARTESIAN_POINT('',(4.317073170732,-1.332926829268,4.53));
#61 = DIRECTION('',(0.E+000,0.E+000,1.));
#62 = DIRECTION('',(1.,0.E+000,0.E+000));
#63 = ORIENTED_EDGE('',*,*,#64,.F.);
#64 = EDGE_CURVE('',#56,#56,#65,.T.);
#65 = CIRCLE('',#66,1.817073170732);
#66 = AXIS2_PLACEMENT_3D('',#67,#68,#69);
#67 = CARTESIAN_POINT('',(2.5,1.35,4.53));
#68 = DIRECTION('',(0.E+000,-1.,0.E+000));
#69 = DIRECTION('',(1.,0.E+000,0.E+000));
#70 = ORIENTED_EDGE('',*,*,#55,.F.);
#71 = FACE_BOUND('',#72,.F.);
#72 = EDGE_LOOP('',(#73,#96));
#73 = ORIENTED_EDGE('',*,*,#74,.T.);
#74 = EDGE_CURVE('',#75,#77,#79,.T.);
#75 = VERTEX_POINT('',#76);
#76 = CARTESIAN_POINT('',(0.27,0.E+000,1.035437186658));
#77 = VERTEX_POINT('',#78);
#78 = CARTESIAN_POINT('',(-8.335881746071E-002,-0.256809866539,
1.124187451029));
#79 = B_SPLINE_CURVE_WITH_KNOTS('',8,(#80,#81,#82,#83,#84,#85,#86,#87,
#88,#89,#90,#91,#92,#93,#94,#95),.UNSPECIFIED.,.F.,.F.,(9,7,9),(
0.E+000,0.354998284996,1.),.UNSPECIFIED.);
#80 = CARTESIAN_POINT('',(0.27,-5.551115123126E-017,1.035437186658));
#81 = CARTESIAN_POINT('',(0.27,-2.164233987375E-002,1.020739974474));
#82 = CARTESIAN_POINT('',(0.268017210005,-4.354739399202E-002,
1.00751218109));
#83 = CARTESIAN_POINT('',(0.263968236659,-6.55141184827E-002,
0.995928708338));
#84 = CARTESIAN_POINT('',(0.257787601164,-8.730638029707E-002,
0.986165831028));
#85 = CARTESIAN_POINT('',(0.249448500139,-0.108652566711,0.978386695082)
);
#86 = CARTESIAN_POINT('',(0.238980098322,-0.129255038494,0.972725104124)
);
#87 = CARTESIAN_POINT('',(0.22648135312,-0.148809426734,0.969267594534)
);
#88 = CARTESIAN_POINT('',(0.186058673003,-0.200145862363,0.96579209726)
);
#89 = CARTESIAN_POINT('',(0.15383736131,-0.228913905696,0.970888321885)
);
#90 = CARTESIAN_POINT('',(0.116588909699,-0.251517998999,0.983488357557)
);
#91 = CARTESIAN_POINT('',(7.612354318478E-002,-0.266799862339,
1.00288099764));
#92 = CARTESIAN_POINT('',(3.441253156505E-002,-0.274491854277,
1.027859052945));
#93 = CARTESIAN_POINT('',(-6.879332658263E-003,-0.274935326181,
1.057164183069));
#94 = CARTESIAN_POINT('',(-4.645471715429E-002,-0.268788698203,
1.089611892701));
#95 = CARTESIAN_POINT('',(-8.335881746071E-002,-0.256809866539,
1.124187451029));
#96 = ORIENTED_EDGE('',*,*,#97,.T.);
#97 = EDGE_CURVE('',#77,#75,#98,.T.);
#98 = B_SPLINE_CURVE_WITH_KNOTS('',7,(#99,#100,#101,#102,#103,#104,#105,
#106,#107,#108,#109,#110,#111,#112,#113,#114,#115,#116,#117,#118,
#119,#120,#121,#122,#123,#124,#125,#126,#127,#128,#129,#130,#131,
#132,#133,#134,#135,#136,#137,#138,#139,#140,#141,#142),
.UNSPECIFIED.,.F.,.F.,(8,6,6,6,6,6,6,8),(0.E+000,0.132499577789,
0.330198453338,0.386943450024,0.486297533014,0.628361582871,
0.797701420098,1.),.UNSPECIFIED.);
#99 = CARTESIAN_POINT('',(-8.335881746071E-002,-0.256809866539,
1.124187451029));
#100 = CARTESIAN_POINT('',(-0.104746442951,-0.249867581987,
1.144225579218));
#101 = CARTESIAN_POINT('',(-0.125247758247,-0.240915703925,
1.165021093137));
#102 = CARTESIAN_POINT('',(-0.144675097849,-0.230098059095,
1.186380562281));
#103 = CARTESIAN_POINT('',(-0.162870427337,-0.217564592384,
1.208125964696));
#104 = CARTESIAN_POINT('',(-0.179698971851,-0.203467839121,
1.230090220473));
#105 = CARTESIAN_POINT('',(-0.195042844556,-0.187959397379,
1.252112725238));
#106 = CARTESIAN_POINT('',(-0.229313392886,-0.146159885308,
1.306744316685));
#107 = CARTESIAN_POINT('',(-0.246273732671,-0.11833579973,1.339207940447
));
#108 = CARTESIAN_POINT('',(-0.259338978236,-8.81977117885E-002,
1.370915959644));
#109 = CARTESIAN_POINT('',(-0.268183466271,-5.624112032356E-002,
1.401321474475));
#110 = CARTESIAN_POINT('',(-0.272481856668,-2.301915348912E-002,
1.429776637169));
#111 = CARTESIAN_POINT('',(-0.271932228423,1.081483924193E-002,
1.455500522398));
#112 = CARTESIAN_POINT('',(-0.26470012894,5.412712455324E-002,
1.483915757079));
#113 = CARTESIAN_POINT('',(-0.262670008716,6.376912801549E-002,
1.489950897528));
#114 = CARTESIAN_POINT('',(-0.260217968935,7.337409425437E-002,
1.495662218463));
#115 = CARTESIAN_POINT('',(-0.257340303965,8.292049945869E-002,
1.501026528792));
#116 = CARTESIAN_POINT('',(-0.254034785219,9.238518422072E-002,
1.50601994236));
#117 = CARTESIAN_POINT('',(-0.250301172241,0.101743523826,1.510618459516
));
#118 = CARTESIAN_POINT('',(-0.238858999179,0.127123413801,1.522117412929
));
#119 = CARTESIAN_POINT('',(-0.23026963185,0.142874375176,1.528154707587)
);
#120 = CARTESIAN_POINT('',(-0.220387350369,0.158078635144,1.532781855143
));
#121 = CARTESIAN_POINT('',(-0.209251723298,0.172580246254,1.535876494915
));
#122 = CARTESIAN_POINT('',(-0.19693858019,0.18621959299,1.537340501416)
);
#123 = CARTESIAN_POINT('',(-0.183564677789,0.198846487068,1.537118519704
));
#124 = CARTESIAN_POINT('',(-0.148870742598,0.226769262733,1.532498105062
));
#125 = CARTESIAN_POINT('',(-0.12659065381,0.240891626272,1.526343144369)
);
#126 = CARTESIAN_POINT('',(-0.102909431408,0.252329510883,1.516761622533
));
#127 = CARTESIAN_POINT('',(-7.836536626699E-002,0.260905115163,
1.504014871078));
#128 = CARTESIAN_POINT('',(-5.345923138789E-002,0.26662478865,
1.488538780018));
#129 = CARTESIAN_POINT('',(-2.860179984954E-002,0.269595319251,
1.47080137991));
#130 = CARTESIAN_POINT('',(2.507122556548E-002,0.270413608015,
1.427932089741));
#131 = CARTESIAN_POINT('',(5.373036162019E-002,0.267168098861,
1.402034136062));
#132 = CARTESIAN_POINT('',(8.13879766488E-002,0.260491097928,
1.3742406456));
#133 = CARTESIAN_POINT('',(0.10768440754,0.250671050664,1.345187799359)
);
#134 = CARTESIAN_POINT('',(0.132339482463,0.237982382472,1.315420738501)
);
#135 = CARTESIAN_POINT('',(0.15511673671,0.222666472185,1.28539478889));
#136 = CARTESIAN_POINT('',(0.200478644922,0.183756971641,1.219819277332)
);
#137 = CARTESIAN_POINT('',(0.222136038851,0.159155366104,1.184370932481)
);
#138 = CARTESIAN_POINT('',(0.240368621575,0.131517722908,1.149870189444)
);
#139 = CARTESIAN_POINT('',(0.254747455908,0.101225757905,1.116993666122)
);
#140 = CARTESIAN_POINT('',(0.264788177813,6.875180072264E-002,
1.086457436417));
#141 = CARTESIAN_POINT('',(0.27,3.472937681069E-002,1.059021744658));
#142 = CARTESIAN_POINT('',(0.27,-5.551115123126E-017,1.035437186658));
#143 = SURFACE_OF_REVOLUTION('',#144,#157);
#144 = B_SPLINE_CURVE_WITH_KNOTS('',6,(#145,#146,#147,#148,#149,#150,
#151,#152,#153,#154,#155,#156),.UNSPECIFIED.,.F.,.F.,(7,5,7),(
0.E+000,0.785398163397,1.570796326795),.UNSPECIFIED.);
#145 = CARTESIAN_POINT('',(7.,-1.332926829268,4.53));
#146 = CARTESIAN_POINT('',(7.,-0.981732528562,4.53));
#147 = CARTESIAN_POINT('',(6.944834744635,-0.630538814447,4.53));
#148 = CARTESIAN_POINT('',(6.834502796754,-0.29017333585,4.53));
#149 = CARTESIAN_POINT('',(6.671844527285,2.851787067579E-002,4.53));
#150 = CARTESIAN_POINT('',(6.462520796678,0.315857053591,4.53));
#151 = CARTESIAN_POINT('',(5.965857053591,0.812520796678,4.53));
#152 = CARTESIAN_POINT('',(5.678517870676,1.021844527285,4.53));
#153 = CARTESIAN_POINT('',(5.35982666415,1.184502796754,4.53));
#154 = CARTESIAN_POINT('',(5.019461185553,1.294834744635,4.53));
#155 = CARTESIAN_POINT('',(4.668267471438,1.35,4.53));
#156 = CARTESIAN_POINT('',(4.317073170732,1.35,4.53));
#157 = AXIS1_PLACEMENT('',#158,#159);
#158 = CARTESIAN_POINT('',(2.5,-1.332926829268,4.53));
#159 = DIRECTION('',(0.E+000,1.,0.E+000));
#160 = ADVANCED_FACE('',(#161,#181),#249,.T.);
#161 = FACE_BOUND('',#162,.T.);
#162 = EDGE_LOOP('',(#163,#164,#173,#180));
#163 = ORIENTED_EDGE('',*,*,#31,.T.);
#164 = ORIENTED_EDGE('',*,*,#165,.T.);
#165 = EDGE_CURVE('',#24,#166,#168,.T.);
#166 = VERTEX_POINT('',#167);
#167 = CARTESIAN_POINT('',(4.317073170732,-4.15,4.53));
#168 = CIRCLE('',#169,2.682926829268);
#169 = AXIS2_PLACEMENT_3D('',#170,#171,#172);
#170 = CARTESIAN_POINT('',(4.317073170732,-1.467073170732,4.53));
#171 = DIRECTION('',(0.E+000,0.E+000,-1.));
#172 = DIRECTION('',(1.,0.E+000,0.E+000));
#173 = ORIENTED_EDGE('',*,*,#174,.F.);
#174 = EDGE_CURVE('',#166,#166,#175,.T.);
#175 = CIRCLE('',#176,1.817073170732);
#176 = AXIS2_PLACEMENT_3D('',#177,#178,#179);
#177 = CARTESIAN_POINT('',(2.5,-4.15,4.53));
#178 = DIRECTION('',(0.E+000,-1.,0.E+000));
#179 = DIRECTION('',(1.,0.E+000,0.E+000));
#180 = ORIENTED_EDGE('',*,*,#165,.F.);
#181 = FACE_BOUND('',#182,.T.);
#182 = EDGE_LOOP('',(#183,#202));
#183 = ORIENTED_EDGE('',*,*,#184,.T.);
#184 = EDGE_CURVE('',#185,#187,#189,.T.);
#185 = VERTEX_POINT('',#186);
#186 = CARTESIAN_POINT('',(5.27,-2.8,1.445851939936));
#187 = VERTEX_POINT('',#188);
#188 = CARTESIAN_POINT('',(5.02099394699,-2.530817433347,1.071109879472)
);
#189 = B_SPLINE_CURVE_WITH_KNOTS('',6,(#190,#191,#192,#193,#194,#195,
#196,#197,#198,#199,#200,#201),.UNSPECIFIED.,.F.,.F.,(7,5,7),(
0.E+000,0.469795247603,1.),.UNSPECIFIED.);
#190 = CARTESIAN_POINT('',(5.27,-2.8,1.445851939936));
#191 = CARTESIAN_POINT('',(5.27,-2.767919986836,1.42116752028));
#192 = CARTESIAN_POINT('',(5.265426067446,-2.736344238859,1.39381542276)
);
#193 = CARTESIAN_POINT('',(5.25654805752,-2.705934737339,1.364581027334)
);
#194 = CARTESIAN_POINT('',(5.243675736344,-2.677237632925,1.334105924876
));
#195 = CARTESIAN_POINT('',(5.227123547214,-2.650742298017,1.302929026266
));
#196 = CARTESIAN_POINT('',(5.18478182821,-2.60004446632,1.236149883686)
);
#197 = CARTESIAN_POINT('',(5.15809253024,-2.576592252611,1.200516883512)
);
#198 = CARTESIAN_POINT('',(5.127660097845,-2.557240307079,1.165380087526
));
#199 = CARTESIAN_POINT('',(5.094062504907,-2.542700838949,1.131484087043
));
#200 = CARTESIAN_POINT('',(5.058128105193,-2.533713581335,1.09972268227)
);
#201 = CARTESIAN_POINT('',(5.02099394699,-2.530817433347,1.071109879472)
);
#202 = ORIENTED_EDGE('',*,*,#203,.T.);
#203 = EDGE_CURVE('',#187,#185,#204,.T.);
#204 = B_SPLINE_CURVE_WITH_KNOTS('',7,(#205,#206,#207,#208,#209,#210,
#211,#212,#213,#214,#215,#216,#217,#218,#219,#220,#221,#222,#223,
#224,#225,#226,#227,#228,#229,#230,#231,#232,#233,#234,#235,#236,
#237,#238,#239,#240,#241,#242,#243,#244,#245,#246,#247,#248),
.UNSPECIFIED.,.F.,.F.,(8,6,6,6,6,6,6,8),(0.E+000,0.198282270678,
0.365591480796,0.526093624774,0.675491911762,0.817369431437,
0.926722219251,1.),.UNSPECIFIED.);
#205 = CARTESIAN_POINT('',(5.02099394699,-2.530817433347,1.071109879472)
);
#206 = CARTESIAN_POINT('',(4.98455061562,-2.527975163967,1.043029376124)
);
#207 = CARTESIAN_POINT('',(4.946929566941,-2.530832226617,1.017855337148
));
#208 = CARTESIAN_POINT('',(4.909240475214,-2.539892160564,0.996582053675
));
#209 = CARTESIAN_POINT('',(4.872869022982,-2.555384581595,0.980242992489
));
#210 = CARTESIAN_POINT('',(4.839432152104,-2.577053922021,0.969802267687
));
#211 = CARTESIAN_POINT('',(4.810411806396,-2.603910755308,0.965819795429
));
#212 = CARTESIAN_POINT('',(4.766705319808,-2.660222387119,0.97009879567)
);
#213 = CARTESIAN_POINT('',(4.750470207915,-2.688639252061,0.976546752336
));
#214 = CARTESIAN_POINT('',(4.738516262417,-2.718859899942,0.987411377212
));
#215 = CARTESIAN_POINT('',(4.731002945235,-2.749945673529,1.002324476657
));
#216 = CARTESIAN_POINT('',(4.72778797556,-2.781083598456,1.020756491198)
);
#217 = CARTESIAN_POINT('',(4.728604409765,-2.811644625752,1.042159605532
));
#218 = CARTESIAN_POINT('',(4.737518371921,-2.869451557393,1.088918601195
));
#219 = CARTESIAN_POINT('',(4.745317792674,-2.896777715726,1.114074947169
));
#220 = CARTESIAN_POINT('',(4.756288883061,-2.922713147239,1.141051148509
));
#221 = CARTESIAN_POINT('',(4.77014669989,-2.946932467166,1.169413262072)
);
#222 = CARTESIAN_POINT('',(4.786616987667,-2.969172808798,1.198744542419
));
#223 = CARTESIAN_POINT('',(4.805448243611,-2.989204087606,1.228637096192
));
#224 = CARTESIAN_POINT('',(4.84590910142,-3.02316938622,1.286618453676)
);
#225 = CARTESIAN_POINT('',(4.867243569367,-3.037419841022,1.314672699883
));
#226 = CARTESIAN_POINT('',(4.890217215313,-3.049368668244,1.34249333932)
);
#227 = CARTESIAN_POINT('',(4.91463410813,-3.058818518868,1.369705688822)
);
#228 = CARTESIAN_POINT('',(4.940267288567,-3.065548666679,1.39587053622)
);
#229 = CARTESIAN_POINT('',(4.96683354459,-3.069326235073,1.420481199407)
);
#230 = CARTESIAN_POINT('',(5.019736076345,-3.070508454127,1.464352854918
));
#231 = CARTESIAN_POINT('',(5.046017430295,-3.06822451015,1.483821663192)
);
#232 = CARTESIAN_POINT('',(5.072457895456,-3.062892431119,1.500881010002
));
#233 = CARTESIAN_POINT('',(5.098593026963,-3.054365196259,1.514973292302
));
#234 = CARTESIAN_POINT('',(5.123837326675,-3.042607878751,1.525558057183
));
#235 = CARTESIAN_POINT('',(5.147545526224,-3.027815362866,1.532304482152
));
#236 = CARTESIAN_POINT('',(5.185830033502,-2.997038938179,1.537433334396
));
#237 = CARTESIAN_POINT('',(5.201265242206,-2.982096462272,1.537380296068
));
#238 = CARTESIAN_POINT('',(5.215221333941,-2.965803234422,1.53503033619)
);
#239 = CARTESIAN_POINT('',(5.22752409845,-2.948405338371,1.530488800903)
);
#240 = CARTESIAN_POINT('',(5.238075332576,-2.930159530664,1.523932815583
));
#241 = CARTESIAN_POINT('',(5.246840076027,-2.911306752305,1.515571252462
));
#242 = CARTESIAN_POINT('',(5.258499162309,-2.879160772418,1.498934395388
));
#243 = CARTESIAN_POINT('',(5.262376789741,-2.866083798994,1.491539892333
));
#244 = CARTESIAN_POINT('',(5.265455622602,-2.852889450742,1.483487036069
));
#245 = CARTESIAN_POINT('',(5.26774362087,-2.839634492497,1.474835942557)
);
#246 = CARTESIAN_POINT('',(5.269253310301,-2.82637082955,1.465644493332)
);
#247 = CARTESIAN_POINT('',(5.27,-2.813145388815,1.455966845202));
#248 = CARTESIAN_POINT('',(5.27,-2.8,1.445851939936));
#249 = SURFACE_OF_REVOLUTION('',#250,#263);
#250 = B_SPLINE_CURVE_WITH_KNOTS('',6,(#251,#252,#253,#254,#255,#256,
#257,#258,#259,#260,#261,#262),.UNSPECIFIED.,.F.,.F.,(7,5,7),(
0.E+000,0.785398163397,1.570796326795),.UNSPECIFIED.);
#251 = CARTESIAN_POINT('',(7.,-1.467073170732,4.53));
#252 = CARTESIAN_POINT('',(7.,-1.818267471438,4.53));
#253 = CARTESIAN_POINT('',(6.944834744635,-2.169461185553,4.53));
#254 = CARTESIAN_POINT('',(6.834502796754,-2.50982666415,4.53));
#255 = CARTESIAN_POINT('',(6.671844527285,-2.828517870676,4.53));
#256 = CARTESIAN_POINT('',(6.462520796678,-3.115857053591,4.53));
#257 = CARTESIAN_POINT('',(5.965857053591,-3.612520796678,4.53));
#258 = CARTESIAN_POINT('',(5.678517870676,-3.821844527285,4.53));
#259 = CARTESIAN_POINT('',(5.35982666415,-3.984502796754,4.53));
#260 = CARTESIAN_POINT('',(5.019461185553,-4.094834744635,4.53));
#261 = CARTESIAN_POINT('',(4.668267471438,-4.15,4.53));
#262 = CARTESIAN_POINT('',(4.317073170732,-4.15,4.53));
#263 = AXIS1_PLACEMENT('',#264,#265);
#264 = CARTESIAN_POINT('',(2.5,-1.467073170732,4.53));
#265 = DIRECTION('',(0.E+000,-1.,0.E+000));
#266 = ADVANCED_FACE('',(#267),#270,.F.);
#267 = FACE_BOUND('',#268,.F.);
#268 = EDGE_LOOP('',(#269));
#269 = ORIENTED_EDGE('',*,*,#64,.T.);
#270 = PLANE('',#271);
#271 = AXIS2_PLACEMENT_3D('',#272,#273,#274);
#272 = CARTESIAN_POINT('',(2.5,1.35,4.53));
#273 = DIRECTION('',(-0.E+000,-1.,-0.E+000));
#274 = DIRECTION('',(0.E+000,0.E+000,-1.));
#275 = ADVANCED_FACE('',(#276),#296,.T.);
#276 = FACE_BOUND('',#277,.T.);
#277 = EDGE_LOOP('',(#278,#279,#287,#294,#295));
#278 = ORIENTED_EDGE('',*,*,#97,.T.);
#279 = ORIENTED_EDGE('',*,*,#280,.T.);
#280 = EDGE_CURVE('',#75,#281,#283,.T.);
#281 = VERTEX_POINT('',#282);
#282 = CARTESIAN_POINT('',(0.27,0.E+000,-2.892));
#283 = LINE('',#284,#285);
#284 = CARTESIAN_POINT('',(0.27,0.E+000,4.53));
#285 = VECTOR('',#286,1.);
#286 = DIRECTION('',(-0.E+000,-0.E+000,-1.));
#287 = ORIENTED_EDGE('',*,*,#288,.T.);
#288 = EDGE_CURVE('',#281,#281,#289,.T.);
#289 = CIRCLE('',#290,0.27);
#290 = AXIS2_PLACEMENT_3D('',#291,#292,#293);
#291 = CARTESIAN_POINT('',(0.E+000,0.E+000,-2.892));
#292 = DIRECTION('',(0.E+000,0.E+000,1.));
#293 = DIRECTION('',(1.,0.E+000,0.E+000));
#294 = ORIENTED_EDGE('',*,*,#280,.F.);
#295 = ORIENTED_EDGE('',*,*,#74,.T.);
#296 = CYLINDRICAL_SURFACE('',#297,0.27);
#297 = AXIS2_PLACEMENT_3D('',#298,#299,#300);
#298 = CARTESIAN_POINT('',(0.E+000,0.E+000,4.53));
#299 = DIRECTION('',(0.E+000,0.E+000,1.));
#300 = DIRECTION('',(1.,0.E+000,0.E+000));
#301 = ADVANCED_FACE('',(#302),#305,.T.);
#302 = FACE_BOUND('',#303,.T.);
#303 = EDGE_LOOP('',(#304));
#304 = ORIENTED_EDGE('',*,*,#174,.T.);
#305 = PLANE('',#306);
#306 = AXIS2_PLACEMENT_3D('',#307,#308,#309);
#307 = CARTESIAN_POINT('',(2.5,-4.15,4.53));
#308 = DIRECTION('',(-0.E+000,-1.,-0.E+000));
#309 = DIRECTION('',(0.E+000,0.E+000,-1.));
#310 = ADVANCED_FACE('',(#311),#331,.T.);
#311 = FACE_BOUND('',#312,.T.);
#312 = EDGE_LOOP('',(#313,#314,#322,#329,#330));
#313 = ORIENTED_EDGE('',*,*,#184,.F.);
#314 = ORIENTED_EDGE('',*,*,#315,.T.);
#315 = EDGE_CURVE('',#185,#316,#318,.T.);
#316 = VERTEX_POINT('',#317);
#317 = CARTESIAN_POINT('',(5.27,-2.8,-2.892));
#318 = LINE('',#319,#320);
#319 = CARTESIAN_POINT('',(5.27,-2.8,4.53));
#320 = VECTOR('',#321,1.);
#321 = DIRECTION('',(-0.E+000,-0.E+000,-1.));
#322 = ORIENTED_EDGE('',*,*,#323,.T.);
#323 = EDGE_CURVE('',#316,#316,#324,.T.);
#324 = CIRCLE('',#325,0.27);
#325 = AXIS2_PLACEMENT_3D('',#326,#327,#328);
#326 = CARTESIAN_POINT('',(5.,-2.8,-2.892));
#327 = DIRECTION('',(-2.028963233593E-029,6.763210778644E-030,1.));
#328 = DIRECTION('',(1.,2.705284311457E-030,2.028963233593E-029));
#329 = ORIENTED_EDGE('',*,*,#315,.F.);
#330 = ORIENTED_EDGE('',*,*,#203,.F.);
#331 = CYLINDRICAL_SURFACE('',#332,0.27);
#332 = AXIS2_PLACEMENT_3D('',#333,#334,#335);
#333 = CARTESIAN_POINT('',(5.,-2.8,4.53));
#334 = DIRECTION('',(0.E+000,0.E+000,1.));
#335 = DIRECTION('',(1.,0.E+000,0.E+000));
#336 = ADVANCED_FACE('',(#337),#357,.T.);
#337 = FACE_BOUND('',#338,.F.);
#338 = EDGE_LOOP('',(#339,#348,#349,#350));
#339 = ORIENTED_EDGE('',*,*,#340,.F.);
#340 = EDGE_CURVE('',#281,#341,#343,.T.);
#341 = VERTEX_POINT('',#342);
#342 = CARTESIAN_POINT('',(0.162,0.E+000,-3.));
#343 = CIRCLE('',#344,0.108);
#344 = AXIS2_PLACEMENT_3D('',#345,#346,#347);
#345 = CARTESIAN_POINT('',(0.162,0.E+000,-2.892));
#346 = DIRECTION('',(-0.E+000,1.,0.E+000));
#347 = DIRECTION('',(1.,0.E+000,0.E+000));
#348 = ORIENTED_EDGE('',*,*,#288,.T.);
#349 = ORIENTED_EDGE('',*,*,#340,.T.);
#350 = ORIENTED_EDGE('',*,*,#351,.F.);
#351 = EDGE_CURVE('',#341,#341,#352,.T.);
#352 = CIRCLE('',#353,0.162);
#353 = AXIS2_PLACEMENT_3D('',#354,#355,#356);
#354 = CARTESIAN_POINT('',(0.E+000,0.E+000,-3.));
#355 = DIRECTION('',(0.E+000,0.E+000,1.));
#356 = DIRECTION('',(1.,0.E+000,0.E+000));
#357 = TOROIDAL_SURFACE('',#358,0.162,0.108);
#358 = AXIS2_PLACEMENT_3D('',#359,#360,#361);
#359 = CARTESIAN_POINT('',(0.E+000,0.E+000,-2.892));
#360 = DIRECTION('',(-0.E+000,-0.E+000,-1.));
#361 = DIRECTION('',(1.,0.E+000,0.E+000));
#362 = ADVANCED_FACE('',(#363),#383,.T.);
#363 = FACE_BOUND('',#364,.F.);
#364 = EDGE_LOOP('',(#365,#374,#375,#376));
#365 = ORIENTED_EDGE('',*,*,#366,.F.);
#366 = EDGE_CURVE('',#316,#367,#369,.T.);
#367 = VERTEX_POINT('',#368);
#368 = CARTESIAN_POINT('',(5.162,-2.8,-3.));
#369 = CIRCLE('',#370,0.108);
#370 = AXIS2_PLACEMENT_3D('',#371,#372,#373);
#371 = CARTESIAN_POINT('',(5.162,-2.8,-2.892));
#372 = DIRECTION('',(-2.705284311457E-030,1.,-6.763210778644E-030));
#373 = DIRECTION('',(1.,2.705284311457E-030,2.028963233593E-029));
#374 = ORIENTED_EDGE('',*,*,#323,.T.);
#375 = ORIENTED_EDGE('',*,*,#366,.T.);
#376 = ORIENTED_EDGE('',*,*,#377,.F.);
#377 = EDGE_CURVE('',#367,#367,#378,.T.);
#378 = CIRCLE('',#379,0.162);
#379 = AXIS2_PLACEMENT_3D('',#380,#381,#382);
#380 = CARTESIAN_POINT('',(5.,-2.8,-3.));
#381 = DIRECTION('',(-2.028963233593E-029,6.763210778644E-030,1.));
#382 = DIRECTION('',(1.,2.705284311457E-030,2.028963233593E-029));
#383 = TOROIDAL_SURFACE('',#384,0.162,0.108);
#384 = AXIS2_PLACEMENT_3D('',#385,#386,#387);
#385 = CARTESIAN_POINT('',(5.,-2.8,-2.892));
#386 = DIRECTION('',(2.028963233593E-029,-6.763210778644E-030,-1.));
#387 = DIRECTION('',(1.,2.705284311457E-030,2.028963233593E-029));
#388 = ADVANCED_FACE('',(#389),#392,.F.);
#389 = FACE_BOUND('',#390,.F.);
#390 = EDGE_LOOP('',(#391));
#391 = ORIENTED_EDGE('',*,*,#351,.T.);
#392 = PLANE('',#393);
#393 = AXIS2_PLACEMENT_3D('',#394,#395,#396);
#394 = CARTESIAN_POINT('',(-1.978356673234E-017,2.854531227236E-017,-3.)
);
#395 = DIRECTION('',(0.E+000,0.E+000,1.));
#396 = DIRECTION('',(1.,0.E+000,0.E+000));
#397 = ADVANCED_FACE('',(#398),#401,.F.);
#398 = FACE_BOUND('',#399,.F.);
#399 = EDGE_LOOP('',(#400));
#400 = ORIENTED_EDGE('',*,*,#377,.T.);
#401 = PLANE('',#402);
#402 = AXIS2_PLACEMENT_3D('',#403,#404,#405);
#403 = CARTESIAN_POINT('',(5.,-2.8,-3.));
#404 = DIRECTION('',(-2.028963233593E-029,6.763210778644E-030,1.));
#405 = DIRECTION('',(1.,0.E+000,2.028963233593E-029));
#406 = ( GEOMETRIC_REPRESENTATION_CONTEXT(3)
GLOBAL_UNCERTAINTY_ASSIGNED_CONTEXT((#410)) GLOBAL_UNIT_ASSIGNED_CONTEXT
((#407,#408,#409)) REPRESENTATION_CONTEXT('Context #1',
'3D Context with UNIT and UNCERTAINTY') );
#407 = ( LENGTH_UNIT() NAMED_UNIT(*) SI_UNIT(.MILLI.,.METRE.) );
#408 = ( NAMED_UNIT(*) PLANE_ANGLE_UNIT() SI_UNIT($,.RADIAN.) );
#409 = ( NAMED_UNIT(*) SI_UNIT($,.STERADIAN.) SOLID_ANGLE_UNIT() );
#410 = UNCERTAINTY_MEASURE_WITH_UNIT(LENGTH_MEASURE(1.E-007),#407,
'distance_accuracy_value','confusion accuracy');
#411 = PRODUCT_RELATED_PRODUCT_CATEGORY('part',$,(#7));
#412 = MECHANICAL_DESIGN_GEOMETRIC_PRESENTATION_REPRESENTATION('',(#413,
#421,#428,#435,#442,#450,#457,#464,#471,#478,#485),#406);
#413 = STYLED_ITEM('color',(#414),#17);
#414 = PRESENTATION_STYLE_ASSIGNMENT((#415));
#415 = SURFACE_STYLE_USAGE(.BOTH.,#416);
#416 = SURFACE_SIDE_STYLE('',(#417));
#417 = SURFACE_STYLE_FILL_AREA(#418);
#418 = FILL_AREA_STYLE('',(#419));
#419 = FILL_AREA_STYLE_COLOUR('',#420);
#420 = COLOUR_RGB('',0.136999994516,0.402000010014,0.726999998093);
#421 = STYLED_ITEM('color',(#422),#50);
#422 = PRESENTATION_STYLE_ASSIGNMENT((#423));
#423 = SURFACE_STYLE_USAGE(.BOTH.,#424);
#424 = SURFACE_SIDE_STYLE('',(#425));
#425 = SURFACE_STYLE_FILL_AREA(#426);
#426 = FILL_AREA_STYLE('',(#427));
#427 = FILL_AREA_STYLE_COLOUR('',#420);
#428 = STYLED_ITEM('color',(#429),#160);
#429 = PRESENTATION_STYLE_ASSIGNMENT((#430));
#430 = SURFACE_STYLE_USAGE(.BOTH.,#431);
#431 = SURFACE_SIDE_STYLE('',(#432));
#432 = SURFACE_STYLE_FILL_AREA(#433);
#433 = FILL_AREA_STYLE('',(#434));
#434 = FILL_AREA_STYLE_COLOUR('',#420);
#435 = STYLED_ITEM('color',(#436),#266);
#436 = PRESENTATION_STYLE_ASSIGNMENT((#437));
#437 = SURFACE_STYLE_USAGE(.BOTH.,#438);
#438 = SURFACE_SIDE_STYLE('',(#439));
#439 = SURFACE_STYLE_FILL_AREA(#440);
#440 = FILL_AREA_STYLE('',(#441));
#441 = FILL_AREA_STYLE_COLOUR('',#420);
#442 = STYLED_ITEM('color',(#443),#275);
#443 = PRESENTATION_STYLE_ASSIGNMENT((#444));
#444 = SURFACE_STYLE_USAGE(.BOTH.,#445);
#445 = SURFACE_SIDE_STYLE('',(#446));
#446 = SURFACE_STYLE_FILL_AREA(#447);
#447 = FILL_AREA_STYLE('',(#448));
#448 = FILL_AREA_STYLE_COLOUR('',#449);
#449 = COLOUR_RGB('',0.824000000954,0.819999992847,0.78100001812);
#450 = STYLED_ITEM('color',(#451),#301);
#451 = PRESENTATION_STYLE_ASSIGNMENT((#452));
#452 = SURFACE_STYLE_USAGE(.BOTH.,#453);
#453 = SURFACE_SIDE_STYLE('',(#454));
#454 = SURFACE_STYLE_FILL_AREA(#455);
#455 = FILL_AREA_STYLE('',(#456));
#456 = FILL_AREA_STYLE_COLOUR('',#420);
#457 = STYLED_ITEM('color',(#458),#310);
#458 = PRESENTATION_STYLE_ASSIGNMENT((#459));
#459 = SURFACE_STYLE_USAGE(.BOTH.,#460);
#460 = SURFACE_SIDE_STYLE('',(#461));
#461 = SURFACE_STYLE_FILL_AREA(#462);
#462 = FILL_AREA_STYLE('',(#463));
#463 = FILL_AREA_STYLE_COLOUR('',#449);
#464 = STYLED_ITEM('color',(#465),#336);
#465 = PRESENTATION_STYLE_ASSIGNMENT((#466));
#466 = SURFACE_STYLE_USAGE(.BOTH.,#467);
#467 = SURFACE_SIDE_STYLE('',(#468));
#468 = SURFACE_STYLE_FILL_AREA(#469);
#469 = FILL_AREA_STYLE('',(#470));
#470 = FILL_AREA_STYLE_COLOUR('',#449);
#471 = STYLED_ITEM('color',(#472),#362);
#472 = PRESENTATION_STYLE_ASSIGNMENT((#473));
#473 = SURFACE_STYLE_USAGE(.BOTH.,#474);
#474 = SURFACE_SIDE_STYLE('',(#475));
#475 = SURFACE_STYLE_FILL_AREA(#476);
#476 = FILL_AREA_STYLE('',(#477));
#477 = FILL_AREA_STYLE_COLOUR('',#449);
#478 = STYLED_ITEM('color',(#479),#388);
#479 = PRESENTATION_STYLE_ASSIGNMENT((#480));
#480 = SURFACE_STYLE_USAGE(.BOTH.,#481);
#481 = SURFACE_SIDE_STYLE('',(#482));
#482 = SURFACE_STYLE_FILL_AREA(#483);
#483 = FILL_AREA_STYLE('',(#484));
#484 = FILL_AREA_STYLE_COLOUR('',#449);
#485 = STYLED_ITEM('color',(#486),#397);
#486 = PRESENTATION_STYLE_ASSIGNMENT((#487));
#487 = SURFACE_STYLE_USAGE(.BOTH.,#488);
#488 = SURFACE_SIDE_STYLE('',(#489));
#489 = SURFACE_STYLE_FILL_AREA(#490);
#490 = FILL_AREA_STYLE('',(#491));
#491 = FILL_AREA_STYLE_COLOUR('',#449);
ENDSEC;
END-ISO-10303-21;
