ISO-10303-21;
HEADER;
/* RV_Disc_D21.5mm_W6.7mm_P10mm.step 3D STEP model for use in ECAD systems
 * Copyright (C) 2018, kicad StepUp
 * 
 * This work is licensed under the [Creative Commons CC-BY-SA 4.0 License](https://creativecommons.org/licenses/by-sa/4.0/legalcode), 
 * with the following exception:
 * To the extent that the creation of electronic designs that use 'Licensed Material' can be considered to be 'Adapted Material', 
 * then the copyright holder waives article 3 of the license with respect to these designs and any generated files which use data provided 
 * as part of the 'Licensed Material'.
 * You are free to use the library data in your own projects without the obligation to share your project files under this or any other license agreement.
 * However, if you wish to redistribute these libraries, or parts thereof (including in modified form) as a collection then the exception above does not apply. 
 * Please refer to https://github.com/KiCad/kicad-packages3D/blob/master/LICENSE.md for further clarification of the exception.
 * Disclaimer of Warranties and Limitation of Liability.
 * These libraries are provided in the hope that they will be useful, but are provided without warranty of any kind, express or implied.
 * *USE 3D CAD DATA AT YOUR OWN RISK*
 * *DO NOT RELY UPON ANY INFORMATION FOUND HERE WITHOUT INDEPENDENT VERIFICATION.*
 * 
 */

FILE_DESCRIPTION(
/* description */ ('model of RV_Disc_D21.5mm_W6.7mm_P10mm'),
/* implementation_level */ '2;1');

FILE_NAME(
/* name */ 'RV_Disc_D21.5mm_W6.7mm_P10mm.step',
/* time_stamp */ '2018-11-11T21:05:11',
/* author */ ('kicad StepUp','ksu'),
/* organization */ ('FreeCAD'),
/* preprocessor_version */ 'OCC',
/* originating_system */ 'kicad StepUp',
/* authorisation */ '');

FILE_SCHEMA(('AUTOMOTIVE_DESIGN { 1 0 10303 214 1 1 1 1 }'));
ENDSEC;

DATA;
#1 = APPLICATION_PROTOCOL_DEFINITION('international standard',
'automotive_design',2000,#2);
#2 = APPLICATION_CONTEXT(
'core data for automotive mechanical design processes');
#3 = SHAPE_DEFINITION_REPRESENTATION(#4,#10);
#4 = PRODUCT_DEFINITION_SHAPE('','',#5);
#5 = PRODUCT_DEFINITION('design','',#6,#9);
#6 = PRODUCT_DEFINITION_FORMATION('','',#7);
#7 = PRODUCT('RV_Disc_D215mm_W67mm_P10mm','RV_Disc_D215mm_W67mm_P10mm',
'',(#8));
#8 = PRODUCT_CONTEXT('',#2,'mechanical');
#9 = PRODUCT_DEFINITION_CONTEXT('part definition',#2,'design');
#10 = ADVANCED_BREP_SHAPE_REPRESENTATION('',(#11,#15),#395);
#11 = AXIS2_PLACEMENT_3D('',#12,#13,#14);
#12 = CARTESIAN_POINT('',(0.E+000,0.E+000,0.E+000));
#13 = DIRECTION('',(0.E+000,0.E+000,1.));
#14 = DIRECTION('',(1.,0.E+000,-0.E+000));
#15 = MANIFOLD_SOLID_BREP('',#16);
#16 = CLOSED_SHELL('',(#17,#50,#162,#255,#264,#290,#299,#325,#351,#377,
#386));
#17 = ADVANCED_FACE('',(#18),#45,.T.);
#18 = FACE_BOUND('',#19,.F.);
#19 = EDGE_LOOP('',(#20,#30,#37,#38));
#20 = ORIENTED_EDGE('',*,*,#21,.T.);
#21 = EDGE_CURVE('',#22,#24,#26,.T.);
#22 = VERTEX_POINT('',#23);
#23 = CARTESIAN_POINT('',(15.75,-1.468292682927,10.78));
#24 = VERTEX_POINT('',#25);
#25 = CARTESIAN_POINT('',(15.75,-1.631707317073,10.78));
#26 = LINE('',#27,#28);
#27 = CARTESIAN_POINT('',(15.75,1.8,10.78));
#28 = VECTOR('',#29,1.);
#29 = DIRECTION('',(0.E+000,-1.,0.E+000));
#30 = ORIENTED_EDGE('',*,*,#31,.T.);
#31 = EDGE_CURVE('',#24,#24,#32,.T.);
#32 = CIRCLE('',#33,10.75);
#33 = AXIS2_PLACEMENT_3D('',#34,#35,#36);
#34 = CARTESIAN_POINT('',(5.,-1.631707317073,10.78));
#35 = DIRECTION('',(1.137711779659E-033,-1.,-3.413135338977E-033));
#36 = DIRECTION('',(1.,1.137711779659E-033,1.03768607016E-033));
#37 = ORIENTED_EDGE('',*,*,#21,.F.);
#38 = ORIENTED_EDGE('',*,*,#39,.F.);
#39 = EDGE_CURVE('',#22,#22,#40,.T.);
#40 = CIRCLE('',#41,10.75);
#41 = AXIS2_PLACEMENT_3D('',#42,#43,#44);
#42 = CARTESIAN_POINT('',(5.,-1.468292682927,10.78));
#43 = DIRECTION('',(1.137711779659E-033,-1.,-3.413135338977E-033));
#44 = DIRECTION('',(1.,1.137711779659E-033,-1.03768607016E-033));
#45 = CYLINDRICAL_SURFACE('',#46,10.75);
#46 = AXIS2_PLACEMENT_3D('',#47,#48,#49);
#47 = CARTESIAN_POINT('',(5.,1.8,10.78));
#48 = DIRECTION('',(0.E+000,1.,0.E+000));
#49 = DIRECTION('',(1.,0.E+000,0.E+000));
#50 = ADVANCED_FACE('',(#51,#71),#157,.T.);
#51 = FACE_BOUND('',#52,.F.);
#52 = EDGE_LOOP('',(#53,#54,#63,#70));
#53 = ORIENTED_EDGE('',*,*,#39,.T.);
#54 = ORIENTED_EDGE('',*,*,#55,.T.);
#55 = EDGE_CURVE('',#22,#56,#58,.T.);
#56 = VERTEX_POINT('',#57);
#57 = CARTESIAN_POINT('',(12.481707317073,1.8,10.78));
#58 = CIRCLE('',#59,3.268292682927);
#59 = AXIS2_PLACEMENT_3D('',#60,#61,#62);
#60 = CARTESIAN_POINT('',(12.481707317073,-1.468292682927,10.78));
#61 = DIRECTION('',(1.03768607016E-033,-3.413135338977E-033,1.));
#62 = DIRECTION('',(1.,1.137711779659E-033,-1.03768607016E-033));
#63 = ORIENTED_EDGE('',*,*,#64,.F.);
#64 = EDGE_CURVE('',#56,#56,#65,.T.);
#65 = CIRCLE('',#66,7.481707317073);
#66 = AXIS2_PLACEMENT_3D('',#67,#68,#69);
#67 = CARTESIAN_POINT('',(5.,1.8,10.78));
#68 = DIRECTION('',(1.137711779659E-033,-1.,-3.413135338977E-033));
#69 = DIRECTION('',(1.,1.137711779659E-033,-1.03768607016E-033));
#70 = ORIENTED_EDGE('',*,*,#55,.F.);
#71 = FACE_BOUND('',#72,.F.);
#72 = EDGE_LOOP('',(#73,#110));
#73 = ORIENTED_EDGE('',*,*,#74,.T.);
#74 = EDGE_CURVE('',#75,#77,#79,.T.);
#75 = VERTEX_POINT('',#76);
#76 = CARTESIAN_POINT('',(0.45,0.E+000,1.426333932918));
#77 = VERTEX_POINT('',#78);
#78 = CARTESIAN_POINT('',(-0.268797140846,-0.360899012292,1.632151638321
));
#79 = B_SPLINE_CURVE_WITH_KNOTS('',8,(#80,#81,#82,#83,#84,#85,#86,#87,
#88,#89,#90,#91,#92,#93,#94,#95,#96,#97,#98,#99,#100,#101,#102,#103,
#104,#105,#106,#107,#108,#109),.UNSPECIFIED.,.F.,.F.,(9,7,7,7,9),(
0.E+000,9.480225289289E-002,0.280513691868,0.48708907387,1.),
.UNSPECIFIED.);
#80 = CARTESIAN_POINT('',(0.45,-5.551115123126E-017,1.426333932918));
#81 = CARTESIAN_POINT('',(0.45,-1.111235651681E-002,1.420119969015));
#82 = CARTESIAN_POINT('',(0.449686478923,-2.227034988349E-002,
1.414101219262));
#83 = CARTESIAN_POINT('',(0.449054750352,-3.346457097401E-002,
1.408285280424));
#84 = CARTESIAN_POINT('',(0.448100539956,-4.468502602257E-002,
1.402679593397));
#85 = CARTESIAN_POINT('',(0.446819985491,-5.592113662362E-002,
1.397291443205));
#86 = CARTESIAN_POINT('',(0.445209636801,-6.716173973184E-002,
1.392127958999));
#87 = CARTESIAN_POINT('',(0.443266455814,-7.839508766218E-002,
1.387196114061));
#88 = CARTESIAN_POINT('',(0.436524110633,-0.111575874419,1.373308683877)
);
#89 = CARTESIAN_POINT('',(0.430773141988,-0.133469380912,1.365028694337)
);
#90 = CARTESIAN_POINT('',(0.423716573437,-0.155195010487,1.35771430324)
);
#91 = CARTESIAN_POINT('',(0.415345593102,-0.176650639514,1.351411638806)
);
#92 = CARTESIAN_POINT('',(0.405662957427,-0.197728526655,1.346159689628)
);
#93 = CARTESIAN_POINT('',(0.394685034218,-0.2183174617,1.34198858288));
#94 = CARTESIAN_POINT('',(0.382443845668,-0.2383049144,1.338917862533));
#95 = CARTESIAN_POINT('',(0.354022791125,-0.279018839826,1.334771126669)
);
#96 = CARTESIAN_POINT('',(0.337552118799,-0.299580377215,1.33395757098)
);
#97 = CARTESIAN_POINT('',(0.319645024568,-0.319108731945,1.334525244801)
);
#98 = CARTESIAN_POINT('',(0.300390992177,-0.337460668548,1.336465230248)
);
#99 = CARTESIAN_POINT('',(0.279898274653,-0.354506972152,1.339750864939)
);
#100 = CARTESIAN_POINT('',(0.258291109989,-0.370134641018,1.344340059679
));
#101 = CARTESIAN_POINT('',(0.235706936833,-0.384249079074,1.350177616149
));
#102 = CARTESIAN_POINT('',(0.154160104895,-0.427880394387,1.374627491784
));
#103 = CARTESIAN_POINT('',(9.060230644156E-002,-0.449366075527,
1.399440160409));
#104 = CARTESIAN_POINT('',(2.420796942939E-002,-0.459684551035,
1.430636348755));
#105 = CARTESIAN_POINT('',(-4.219311879725E-002,-0.458646872127,
1.466592199732));
#106 = CARTESIAN_POINT('',(-0.106224181582,-0.446995516879,
1.505820017002));
#107 = CARTESIAN_POINT('',(-0.166084260927,-0.425940307037,
1.547085765742));
#108 = CARTESIAN_POINT('',(-0.220553122063,-0.396831098194,
1.589431821762));
#109 = CARTESIAN_POINT('',(-0.268797140846,-0.360899012292,
1.632151638321));
#110 = ORIENTED_EDGE('',*,*,#111,.T.);
#111 = EDGE_CURVE('',#77,#75,#112,.T.);
#112 = B_SPLINE_CURVE_WITH_KNOTS('',7,(#113,#114,#115,#116,#117,#118,
#119,#120,#121,#122,#123,#124,#125,#126,#127,#128,#129,#130,#131,
#132,#133,#134,#135,#136,#137,#138,#139,#140,#141,#142,#143,#144,
#145,#146,#147,#148,#149,#150,#151,#152,#153,#154,#155,#156),
.UNSPECIFIED.,.F.,.F.,(8,6,6,6,6,6,6,8),(0.E+000,7.54960399454E-002,
0.333185602514,0.391956999932,0.489794631289,0.625355771446,
0.796644653882,1.),.UNSPECIFIED.);
#113 = CARTESIAN_POINT('',(-0.268797140846,-0.360899012292,
1.632151638321));
#114 = CARTESIAN_POINT('',(-0.284519717723,-0.349188856355,
1.646073894737));
#115 = CARTESIAN_POINT('',(-0.29957989398,-0.336729651301,1.660047737857
));
#116 = CARTESIAN_POINT('',(-0.313945868676,-0.323564213655,
1.674047988778));
#117 = CARTESIAN_POINT('',(-0.327588562254,-0.309735280574,
1.688050878405));
#118 = CARTESIAN_POINT('',(-0.340481303517,-0.295285436738,
1.702033668287));
#119 = CARTESIAN_POINT('',(-0.352599516602,-0.280257041253,
1.715974271471));
#120 = CARTESIAN_POINT('',(-0.402561845875,-0.211564747433,
1.777215681707));
#121 = CARTESIAN_POINT('',(-0.431867330929,-0.152250902184,
1.823777541499));
#122 = CARTESIAN_POINT('',(-0.451039777884,-8.835769066172E-002,
1.868757401601));
#123 = CARTESIAN_POINT('',(-0.459331232635,-2.15038715468E-002,
1.9112871504));
#124 = CARTESIAN_POINT('',(-0.456105243015,4.647313585E-002,
1.950255846809));
#125 = CARTESIAN_POINT('',(-0.440916411652,0.113492320582,1.984128518046
));
#126 = CARTESIAN_POINT('',(-0.407473651541,0.191609670279,2.016973980965
));
#127 = CARTESIAN_POINT('',(-0.400638779151,0.205934335006,2.022700820487
));
#128 = CARTESIAN_POINT('',(-0.393180732288,0.220045091671,2.028030182484
));
#129 = CARTESIAN_POINT('',(-0.385102476589,0.233908952513,2.032936143237
));
#130 = CARTESIAN_POINT('',(-0.376409639197,0.247491362602,2.03739190014)
);
#131 = CARTESIAN_POINT('',(-0.367111096183,0.260756574254,2.041370379079
));
#132 = CARTESIAN_POINT('',(-0.34075297051,0.295161902302,2.050628832331)
);
#133 = CARTESIAN_POINT('',(-0.322640968762,0.31567810704,2.055016796239)
);
#134 = CARTESIAN_POINT('',(-0.302945093671,0.335043144942,2.05788401138)
);
#135 = CARTESIAN_POINT('',(-0.281757968077,0.353079413363,2.059110849673
));
#136 = CARTESIAN_POINT('',(-0.259210071025,0.369614534725,2.058595963734
));
#137 = CARTESIAN_POINT('',(-0.235472128112,0.384493937777,2.056272299212
));
#138 = CARTESIAN_POINT('',(-0.176503139639,0.41575148801,2.046380841246)
);
#139 = CARTESIAN_POINT('',(-0.140342598772,0.43050991918,2.03713202524)
);
#140 = CARTESIAN_POINT('',(-0.102854413744,0.44152225458,2.024336582129)
);
#141 = CARTESIAN_POINT('',(-6.46932024428E-002,0.448626391574,
2.008152631389));
#142 = CARTESIAN_POINT('',(-2.651620780214E-002,0.451842206956,
1.988937995532));
#143 = CARTESIAN_POINT('',(1.106497527451E-002,0.451354536369,
1.967211159509));
#144 = CARTESIAN_POINT('',(9.356450544882E-002,0.442595116694,
1.913708313121));
#145 = CARTESIAN_POINT('',(0.137838134521,0.432302060733,1.880772126796)
);
#146 = CARTESIAN_POINT('',(0.179738578237,0.417192663741,1.845657401696)
);
#147 = CARTESIAN_POINT('',(0.218891710162,0.397837993009,1.809182206184)
);
#148 = CARTESIAN_POINT('',(0.255062989047,0.374727179913,1.772020031877)
);
#149 = CARTESIAN_POINT('',(0.288082685793,0.348234394823,1.734692727991)
);
#150 = CARTESIAN_POINT('',(0.35302986749,0.283458833453,1.653623542916)
);
#151 = CARTESIAN_POINT('',(0.38353397009,0.24395878114,1.610065835684));
#152 = CARTESIAN_POINT('',(0.408973708232,0.200624958141,1.567725915292)
);
#153 = CARTESIAN_POINT('',(0.428911355435,0.15391471297,1.527359721887)
);
#154 = CARTESIAN_POINT('',(0.442790416952,0.104371772439,1.489773541326)
);
#155 = CARTESIAN_POINT('',(0.45,5.273207010689E-002,1.455821393988));
#156 = CARTESIAN_POINT('',(0.45,-5.551115123126E-017,1.426333932918));
#157 = TOROIDAL_SURFACE('',#158,7.481707317073,3.268292682927);
#158 = AXIS2_PLACEMENT_3D('',#159,#160,#161);
#159 = CARTESIAN_POINT('',(5.,-1.468292682927,10.78));
#160 = DIRECTION('',(-1.137711779659E-033,1.,3.413135338977E-033));
#161 = DIRECTION('',(1.,1.137711779659E-033,-1.03768607016E-033));
#162 = ADVANCED_FACE('',(#163,#183),#250,.T.);
#163 = FACE_BOUND('',#164,.T.);
#164 = EDGE_LOOP('',(#165,#166,#175,#182));
#165 = ORIENTED_EDGE('',*,*,#31,.T.);
#166 = ORIENTED_EDGE('',*,*,#167,.T.);
#167 = EDGE_CURVE('',#24,#168,#170,.T.);
#168 = VERTEX_POINT('',#169);
#169 = CARTESIAN_POINT('',(12.481707317073,-4.9,10.78));
#170 = CIRCLE('',#171,3.268292682927);
#171 = AXIS2_PLACEMENT_3D('',#172,#173,#174);
#172 = CARTESIAN_POINT('',(12.481707317073,-1.631707317073,10.78));
#173 = DIRECTION('',(1.03768607016E-033,3.413135338977E-033,-1.));
#174 = DIRECTION('',(1.,1.137711779659E-033,1.03768607016E-033));
#175 = ORIENTED_EDGE('',*,*,#176,.F.);
#176 = EDGE_CURVE('',#168,#168,#177,.T.);
#177 = CIRCLE('',#178,7.481707317073);
#178 = AXIS2_PLACEMENT_3D('',#179,#180,#181);
#179 = CARTESIAN_POINT('',(5.,-4.9,10.78));
#180 = DIRECTION('',(1.137711779659E-033,-1.,-3.413135338977E-033));
#181 = DIRECTION('',(1.,1.137711779659E-033,1.03768607016E-033));
#182 = ORIENTED_EDGE('',*,*,#167,.F.);
#183 = FACE_BOUND('',#184,.T.);
#184 = EDGE_LOOP('',(#185,#215));
#185 = ORIENTED_EDGE('',*,*,#186,.T.);
#186 = EDGE_CURVE('',#187,#189,#191,.T.);
#187 = VERTEX_POINT('',#188);
#188 = CARTESIAN_POINT('',(10.45,-3.1,1.920481452445));
#189 = VERTEX_POINT('',#190);
#190 = CARTESIAN_POINT('',(9.604461370828,-2.885409243366,1.343448169466
));
#191 = B_SPLINE_CURVE_WITH_KNOTS('',8,(#192,#193,#194,#195,#196,#197,
#198,#199,#200,#201,#202,#203,#204,#205,#206,#207,#208,#209,#210,
#211,#212,#213,#214),.UNSPECIFIED.,.F.,.F.,(9,7,7,9),(0.E+000,
0.248742252443,0.55312964827,1.),.UNSPECIFIED.);
#192 = CARTESIAN_POINT('',(10.45,-3.1,1.920481452445));
#193 = CARTESIAN_POINT('',(10.45,-3.064570402006,1.899564398143));
#194 = CARTESIAN_POINT('',(10.446812019491,-3.029375621551,
1.877563112899));
#195 = CARTESIAN_POINT('',(10.440510068503,-2.994686341121,
1.854664466593));
#196 = CARTESIAN_POINT('',(10.431177403981,-2.960760635242,
1.831031034451));
#197 = CARTESIAN_POINT('',(10.418906928719,-2.92784665289,1.80680657557)
);
#198 = CARTESIAN_POINT('',(10.403801590299,-2.896185299902,
1.782121511447));
#199 = CARTESIAN_POINT('',(10.385974780024,-2.86601292138,1.757098404506
));
#200 = CARTESIAN_POINT('',(10.340557700833,-2.802750847839,1.70096991187
));
#201 = CARTESIAN_POINT('',(10.311690124223,-2.770538827165,
1.669774129245));
#202 = CARTESIAN_POINT('',(10.279171908158,-2.741335748414,
1.638476059047));
#203 = CARTESIAN_POINT('',(10.243260870424,-2.715578133386,
1.607298910281));
#204 = CARTESIAN_POINT('',(10.204277488094,-2.693722974239,
1.576499700334));
#205 = CARTESIAN_POINT('',(10.162627072741,-2.676230921884,
1.546383177743));
#206 = CARTESIAN_POINT('',(10.118815373271,-2.663540887898,1.51731309804
));
#207 = CARTESIAN_POINT('',(10.006867985575,-2.645018241359,
1.449212748359));
#208 = CARTESIAN_POINT('',(9.936765183547,-2.645146052985,1.411779545567
));
#209 = CARTESIAN_POINT('',(9.865959834328,-2.657886667542,1.379360955533
));
#210 = CARTESIAN_POINT('',(9.797709095613,-2.683568016716,1.35377568032)
);
#211 = CARTESIAN_POINT('',(9.73515913216,-2.721331831788,1.336595736714)
);
#212 = CARTESIAN_POINT('',(9.681007116982,-2.769386854805,1.329041953799
));
#213 = CARTESIAN_POINT('',(9.637178446854,-2.825104374672,1.331540411956
));
#214 = CARTESIAN_POINT('',(9.604461370828,-2.885409243366,1.343448169466
));
#215 = ORIENTED_EDGE('',*,*,#216,.T.);
#216 = EDGE_CURVE('',#189,#187,#217,.T.);
#217 = B_SPLINE_CURVE_WITH_KNOTS('',6,(#218,#219,#220,#221,#222,#223,
#224,#225,#226,#227,#228,#229,#230,#231,#232,#233,#234,#235,#236,
#237,#238,#239,#240,#241,#242,#243,#244,#245,#246,#247,#248,#249),
.UNSPECIFIED.,.F.,.F.,(7,5,5,5,5,5,7),(0.E+000,0.16636861034,
0.366018936203,0.548893913455,0.714818172326,0.864136640413,1.),
.UNSPECIFIED.);
#218 = CARTESIAN_POINT('',(9.604461370828,-2.885409243366,1.343448169466
));
#219 = CARTESIAN_POINT('',(9.581765081203,-2.927243567576,1.351708746084
));
#220 = CARTESIAN_POINT('',(9.564672683687,-2.971415921552,1.364727707662
));
#221 = CARTESIAN_POINT('',(9.553469789571,-3.016783693956,1.382274340757
));
#222 = CARTESIAN_POINT('',(9.548004573445,-3.062277853087,1.403840415016
));
#223 = CARTESIAN_POINT('',(9.547927549272,-3.107097537853,1.42883102421)
);
#224 = CARTESIAN_POINT('',(9.558774622994,-3.202883473679,1.49007785136)
);
#225 = CARTESIAN_POINT('',(9.571901314095,-3.253274871287,1.527580398195
));
#226 = CARTESIAN_POINT('',(9.591580006054,-3.300839540801,1.568224656602
));
#227 = CARTESIAN_POINT('',(9.617145296218,-3.344905356918,1.611066467949
));
#228 = CARTESIAN_POINT('',(9.648077688518,-3.384951361006,1.655240502228
));
#229 = CARTESIAN_POINT('',(9.716916396869,-3.452845994958,1.740706513336
));
#230 = CARTESIAN_POINT('',(9.753975451903,-3.481394654332,1.781875796622
));
#231 = CARTESIAN_POINT('',(9.794920764958,-3.505635325505,1.822710274371
));
#232 = CARTESIAN_POINT('',(9.839494654534,-3.524968364019,1.862393277594
));
#233 = CARTESIAN_POINT('',(9.887275767112,-3.538591296545,1.89979982979)
);
#234 = CARTESIAN_POINT('',(9.983011944238,-3.552024666898,1.96434765165)
);
#235 = CARTESIAN_POINT('',(10.03065399357,-3.553014226078,1.99219531193)
);
#236 = CARTESIAN_POINT('',(10.079249634775,-3.547827632396,
2.015817494257));
#237 = CARTESIAN_POINT('',(10.12739945015,-3.536103800606,2.034066200466
));
#238 = CARTESIAN_POINT('',(10.173580706582,-3.518052534603,
2.046432352609));
#239 = CARTESIAN_POINT('',(10.255145106982,-3.473286960978,
2.059011010889));
#240 = CARTESIAN_POINT('',(10.291182253264,-3.447600645549,2.06032149574
));
#241 = CARTESIAN_POINT('',(10.323740926658,-3.417975059117,
2.057074486085));
#242 = CARTESIAN_POINT('',(10.352255158377,-3.385197569957,
2.049766154409));
#243 = CARTESIAN_POINT('',(10.376467438971,-3.350045482011,
2.038973416171));
#244 = CARTESIAN_POINT('',(10.414325822769,-3.27967562611,2.01271163011)
);
#245 = CARTESIAN_POINT('',(10.428730024645,-3.244744621662,
1.997749938847));
#246 = CARTESIAN_POINT('',(10.43944803387,-3.208896340889,1.980725542844
));
#247 = CARTESIAN_POINT('',(10.446512588215,-3.172574504467,
1.961990512162));
#248 = CARTESIAN_POINT('',(10.45,-3.136163296972,1.941831670604));
#249 = CARTESIAN_POINT('',(10.45,-3.1,1.920481452445));
#250 = TOROIDAL_SURFACE('',#251,7.481707317073,3.268292682927);
#251 = AXIS2_PLACEMENT_3D('',#252,#253,#254);
#252 = CARTESIAN_POINT('',(5.,-1.631707317073,10.78));
#253 = DIRECTION('',(1.137711779659E-033,-1.,-3.413135338977E-033));
#254 = DIRECTION('',(1.,1.137711779659E-033,1.03768607016E-033));
#255 = ADVANCED_FACE('',(#256),#259,.F.);
#256 = FACE_BOUND('',#257,.F.);
#257 = EDGE_LOOP('',(#258));
#258 = ORIENTED_EDGE('',*,*,#64,.T.);
#259 = PLANE('',#260);
#260 = AXIS2_PLACEMENT_3D('',#261,#262,#263);
#261 = CARTESIAN_POINT('',(5.,1.8,10.78));
#262 = DIRECTION('',(1.137711779659E-033,-1.,-3.413135338977E-033));
#263 = DIRECTION('',(0.E+000,3.413135338977E-033,-1.));
#264 = ADVANCED_FACE('',(#265),#285,.T.);
#265 = FACE_BOUND('',#266,.T.);
#266 = EDGE_LOOP('',(#267,#268,#276,#283,#284));
#267 = ORIENTED_EDGE('',*,*,#111,.T.);
#268 = ORIENTED_EDGE('',*,*,#269,.T.);
#269 = EDGE_CURVE('',#75,#270,#272,.T.);
#270 = VERTEX_POINT('',#271);
#271 = CARTESIAN_POINT('',(0.45,0.E+000,-2.82));
#272 = LINE('',#273,#274);
#273 = CARTESIAN_POINT('',(0.45,0.E+000,10.78));
#274 = VECTOR('',#275,1.);
#275 = DIRECTION('',(-0.E+000,-0.E+000,-1.));
#276 = ORIENTED_EDGE('',*,*,#277,.T.);
#277 = EDGE_CURVE('',#270,#270,#278,.T.);
#278 = CIRCLE('',#279,0.45);
#279 = AXIS2_PLACEMENT_3D('',#280,#281,#282);
#280 = CARTESIAN_POINT('',(0.E+000,0.E+000,-2.82));
#281 = DIRECTION('',(0.E+000,0.E+000,1.));
#282 = DIRECTION('',(1.,0.E+000,0.E+000));
#283 = ORIENTED_EDGE('',*,*,#269,.F.);
#284 = ORIENTED_EDGE('',*,*,#74,.T.);
#285 = CYLINDRICAL_SURFACE('',#286,0.45);
#286 = AXIS2_PLACEMENT_3D('',#287,#288,#289);
#287 = CARTESIAN_POINT('',(0.E+000,0.E+000,10.78));
#288 = DIRECTION('',(0.E+000,0.E+000,1.));
#289 = DIRECTION('',(1.,0.E+000,0.E+000));
#290 = ADVANCED_FACE('',(#291),#294,.T.);
#291 = FACE_BOUND('',#292,.T.);
#292 = EDGE_LOOP('',(#293));
#293 = ORIENTED_EDGE('',*,*,#176,.T.);
#294 = PLANE('',#295);
#295 = AXIS2_PLACEMENT_3D('',#296,#297,#298);
#296 = CARTESIAN_POINT('',(5.,-4.9,10.78));
#297 = DIRECTION('',(1.137711779659E-033,-1.,-3.413135338977E-033));
#298 = DIRECTION('',(0.E+000,3.413135338977E-033,-1.));
#299 = ADVANCED_FACE('',(#300),#320,.T.);
#300 = FACE_BOUND('',#301,.T.);
#301 = EDGE_LOOP('',(#302,#303,#311,#318,#319));
#302 = ORIENTED_EDGE('',*,*,#186,.F.);
#303 = ORIENTED_EDGE('',*,*,#304,.T.);
#304 = EDGE_CURVE('',#187,#305,#307,.T.);
#305 = VERTEX_POINT('',#306);
#306 = CARTESIAN_POINT('',(10.45,-3.1,-2.82));
#307 = LINE('',#308,#309);
#308 = CARTESIAN_POINT('',(10.45,-3.1,10.78));
#309 = VECTOR('',#310,1.);
#310 = DIRECTION('',(-0.E+000,-0.E+000,-1.));
#311 = ORIENTED_EDGE('',*,*,#312,.T.);
#312 = EDGE_CURVE('',#305,#305,#313,.T.);
#313 = CIRCLE('',#314,0.45);
#314 = AXIS2_PLACEMENT_3D('',#315,#316,#317);
#315 = CARTESIAN_POINT('',(10.,-3.1,-2.82));
#316 = DIRECTION('',(0.E+000,0.E+000,1.));
#317 = DIRECTION('',(1.,0.E+000,0.E+000));
#318 = ORIENTED_EDGE('',*,*,#304,.F.);
#319 = ORIENTED_EDGE('',*,*,#216,.F.);
#320 = CYLINDRICAL_SURFACE('',#321,0.45);
#321 = AXIS2_PLACEMENT_3D('',#322,#323,#324);
#322 = CARTESIAN_POINT('',(10.,-3.1,10.78));
#323 = DIRECTION('',(0.E+000,0.E+000,1.));
#324 = DIRECTION('',(1.,0.E+000,0.E+000));
#325 = ADVANCED_FACE('',(#326),#346,.T.);
#326 = FACE_BOUND('',#327,.F.);
#327 = EDGE_LOOP('',(#328,#337,#338,#339));
#328 = ORIENTED_EDGE('',*,*,#329,.F.);
#329 = EDGE_CURVE('',#270,#330,#332,.T.);
#330 = VERTEX_POINT('',#331);
#331 = CARTESIAN_POINT('',(0.27,0.E+000,-3.));
#332 = CIRCLE('',#333,0.18);
#333 = AXIS2_PLACEMENT_3D('',#334,#335,#336);
#334 = CARTESIAN_POINT('',(0.27,0.E+000,-2.82));
#335 = DIRECTION('',(-0.E+000,1.,0.E+000));
#336 = DIRECTION('',(1.,0.E+000,0.E+000));
#337 = ORIENTED_EDGE('',*,*,#277,.T.);
#338 = ORIENTED_EDGE('',*,*,#329,.T.);
#339 = ORIENTED_EDGE('',*,*,#340,.F.);
#340 = EDGE_CURVE('',#330,#330,#341,.T.);
#341 = CIRCLE('',#342,0.27);
#342 = AXIS2_PLACEMENT_3D('',#343,#344,#345);
#343 = CARTESIAN_POINT('',(0.E+000,0.E+000,-3.));
#344 = DIRECTION('',(0.E+000,0.E+000,1.));
#345 = DIRECTION('',(1.,0.E+000,0.E+000));
#346 = TOROIDAL_SURFACE('',#347,0.27,0.18);
#347 = AXIS2_PLACEMENT_3D('',#348,#349,#350);
#348 = CARTESIAN_POINT('',(0.E+000,0.E+000,-2.82));
#349 = DIRECTION('',(-0.E+000,-0.E+000,-1.));
#350 = DIRECTION('',(1.,0.E+000,0.E+000));
#351 = ADVANCED_FACE('',(#352),#372,.T.);
#352 = FACE_BOUND('',#353,.F.);
#353 = EDGE_LOOP('',(#354,#363,#364,#365));
#354 = ORIENTED_EDGE('',*,*,#355,.F.);
#355 = EDGE_CURVE('',#305,#356,#358,.T.);
#356 = VERTEX_POINT('',#357);
#357 = CARTESIAN_POINT('',(10.27,-3.1,-3.));
#358 = CIRCLE('',#359,0.18);
#359 = AXIS2_PLACEMENT_3D('',#360,#361,#362);
#360 = CARTESIAN_POINT('',(10.27,-3.1,-2.82));
#361 = DIRECTION('',(-0.E+000,1.,0.E+000));
#362 = DIRECTION('',(1.,0.E+000,0.E+000));
#363 = ORIENTED_EDGE('',*,*,#312,.T.);
#364 = ORIENTED_EDGE('',*,*,#355,.T.);
#365 = ORIENTED_EDGE('',*,*,#366,.F.);
#366 = EDGE_CURVE('',#356,#356,#367,.T.);
#367 = CIRCLE('',#368,0.27);
#368 = AXIS2_PLACEMENT_3D('',#369,#370,#371);
#369 = CARTESIAN_POINT('',(10.,-3.1,-3.));
#370 = DIRECTION('',(0.E+000,0.E+000,1.));
#371 = DIRECTION('',(1.,0.E+000,0.E+000));
#372 = TOROIDAL_SURFACE('',#373,0.27,0.18);
#373 = AXIS2_PLACEMENT_3D('',#374,#375,#376);
#374 = CARTESIAN_POINT('',(10.,-3.1,-2.82));
#375 = DIRECTION('',(-0.E+000,-0.E+000,-1.));
#376 = DIRECTION('',(1.,0.E+000,0.E+000));
#377 = ADVANCED_FACE('',(#378),#381,.F.);
#378 = FACE_BOUND('',#379,.F.);
#379 = EDGE_LOOP('',(#380));
#380 = ORIENTED_EDGE('',*,*,#340,.T.);
#381 = PLANE('',#382);
#382 = AXIS2_PLACEMENT_3D('',#383,#384,#385);
#383 = CARTESIAN_POINT('',(-1.18701400394E-017,2.911085817041E-017,-3.)
);
#384 = DIRECTION('',(0.E+000,0.E+000,1.));
#385 = DIRECTION('',(1.,0.E+000,0.E+000));
#386 = ADVANCED_FACE('',(#387),#390,.F.);
#387 = FACE_BOUND('',#388,.F.);
#388 = EDGE_LOOP('',(#389));
#389 = ORIENTED_EDGE('',*,*,#366,.T.);
#390 = PLANE('',#391);
#391 = AXIS2_PLACEMENT_3D('',#392,#393,#394);
#392 = CARTESIAN_POINT('',(10.,-3.1,-3.));
#393 = DIRECTION('',(0.E+000,0.E+000,1.));
#394 = DIRECTION('',(1.,0.E+000,0.E+000));
#395 = ( GEOMETRIC_REPRESENTATION_CONTEXT(3)
GLOBAL_UNCERTAINTY_ASSIGNED_CONTEXT((#399)) GLOBAL_UNIT_ASSIGNED_CONTEXT
((#396,#397,#398)) REPRESENTATION_CONTEXT('Context #1',
'3D Context with UNIT and UNCERTAINTY') );
#396 = ( LENGTH_UNIT() NAMED_UNIT(*) SI_UNIT(.MILLI.,.METRE.) );
#397 = ( NAMED_UNIT(*) PLANE_ANGLE_UNIT() SI_UNIT($,.RADIAN.) );
#398 = ( NAMED_UNIT(*) SI_UNIT($,.STERADIAN.) SOLID_ANGLE_UNIT() );
#399 = UNCERTAINTY_MEASURE_WITH_UNIT(LENGTH_MEASURE(1.E-007),#396,
'distance_accuracy_value','confusion accuracy');
#400 = PRODUCT_RELATED_PRODUCT_CATEGORY('part',$,(#7));
#401 = MECHANICAL_DESIGN_GEOMETRIC_PRESENTATION_REPRESENTATION('',(#402,
#410,#417,#424,#431,#439,#446,#453,#460,#467,#474),#395);
#402 = STYLED_ITEM('color',(#403),#17);
#403 = PRESENTATION_STYLE_ASSIGNMENT((#404));
#404 = SURFACE_STYLE_USAGE(.BOTH.,#405);
#405 = SURFACE_SIDE_STYLE('',(#406));
#406 = SURFACE_STYLE_FILL_AREA(#407);
#407 = FILL_AREA_STYLE('',(#408));
#408 = FILL_AREA_STYLE_COLOUR('',#409);
#409 = COLOUR_RGB('',0.136999994516,0.402000010014,0.726999998093);
#410 = STYLED_ITEM('color',(#411),#50);
#411 = PRESENTATION_STYLE_ASSIGNMENT((#412));
#412 = SURFACE_STYLE_USAGE(.BOTH.,#413);
#413 = SURFACE_SIDE_STYLE('',(#414));
#414 = SURFACE_STYLE_FILL_AREA(#415);
#415 = FILL_AREA_STYLE('',(#416));
#416 = FILL_AREA_STYLE_COLOUR('',#409);
#417 = STYLED_ITEM('color',(#418),#162);
#418 = PRESENTATION_STYLE_ASSIGNMENT((#419));
#419 = SURFACE_STYLE_USAGE(.BOTH.,#420);
#420 = SURFACE_SIDE_STYLE('',(#421));
#421 = SURFACE_STYLE_FILL_AREA(#422);
#422 = FILL_AREA_STYLE('',(#423));
#423 = FILL_AREA_STYLE_COLOUR('',#409);
#424 = STYLED_ITEM('color',(#425),#255);
#425 = PRESENTATION_STYLE_ASSIGNMENT((#426));
#426 = SURFACE_STYLE_USAGE(.BOTH.,#427);
#427 = SURFACE_SIDE_STYLE('',(#428));
#428 = SURFACE_STYLE_FILL_AREA(#429);
#429 = FILL_AREA_STYLE('',(#430));
#430 = FILL_AREA_STYLE_COLOUR('',#409);
#431 = STYLED_ITEM('color',(#432),#264);
#432 = PRESENTATION_STYLE_ASSIGNMENT((#433));
#433 = SURFACE_STYLE_USAGE(.BOTH.,#434);
#434 = SURFACE_SIDE_STYLE('',(#435));
#435 = SURFACE_STYLE_FILL_AREA(#436);
#436 = FILL_AREA_STYLE('',(#437));
#437 = FILL_AREA_STYLE_COLOUR('',#438);
#438 = COLOUR_RGB('',0.824000000954,0.819999992847,0.78100001812);
#439 = STYLED_ITEM('color',(#440),#290);
#440 = PRESENTATION_STYLE_ASSIGNMENT((#441));
#441 = SURFACE_STYLE_USAGE(.BOTH.,#442);
#442 = SURFACE_SIDE_STYLE('',(#443));
#443 = SURFACE_STYLE_FILL_AREA(#444);
#444 = FILL_AREA_STYLE('',(#445));
#445 = FILL_AREA_STYLE_COLOUR('',#409);
#446 = STYLED_ITEM('color',(#447),#299);
#447 = PRESENTATION_STYLE_ASSIGNMENT((#448));
#448 = SURFACE_STYLE_USAGE(.BOTH.,#449);
#449 = SURFACE_SIDE_STYLE('',(#450));
#450 = SURFACE_STYLE_FILL_AREA(#451);
#451 = FILL_AREA_STYLE('',(#452));
#452 = FILL_AREA_STYLE_COLOUR('',#438);
#453 = STYLED_ITEM('color',(#454),#325);
#454 = PRESENTATION_STYLE_ASSIGNMENT((#455));
#455 = SURFACE_STYLE_USAGE(.BOTH.,#456);
#456 = SURFACE_SIDE_STYLE('',(#457));
#457 = SURFACE_STYLE_FILL_AREA(#458);
#458 = FILL_AREA_STYLE('',(#459));
#459 = FILL_AREA_STYLE_COLOUR('',#438);
#460 = STYLED_ITEM('color',(#461),#351);
#461 = PRESENTATION_STYLE_ASSIGNMENT((#462));
#462 = SURFACE_STYLE_USAGE(.BOTH.,#463);
#463 = SURFACE_SIDE_STYLE('',(#464));
#464 = SURFACE_STYLE_FILL_AREA(#465);
#465 = FILL_AREA_STYLE('',(#466));
#466 = FILL_AREA_STYLE_COLOUR('',#438);
#467 = STYLED_ITEM('color',(#468),#377);
#468 = PRESENTATION_STYLE_ASSIGNMENT((#469));
#469 = SURFACE_STYLE_USAGE(.BOTH.,#470);
#470 = SURFACE_SIDE_STYLE('',(#471));
#471 = SURFACE_STYLE_FILL_AREA(#472);
#472 = FILL_AREA_STYLE('',(#473));
#473 = FILL_AREA_STYLE_COLOUR('',#438);
#474 = STYLED_ITEM('color',(#475),#386);
#475 = PRESENTATION_STYLE_ASSIGNMENT((#476));
#476 = SURFACE_STYLE_USAGE(.BOTH.,#477);
#477 = SURFACE_SIDE_STYLE('',(#478));
#478 = SURFACE_STYLE_FILL_AREA(#479);
#479 = FILL_AREA_STYLE('',(#480));
#480 = FILL_AREA_STYLE_COLOUR('',#438);
ENDSEC;
END-ISO-10303-21;
