ISO-10303-21;
HEADER;
/* RV_Disc_D21.5mm_W4.6mm_P10mm.step 3D STEP model for use in ECAD systems
 * Copyright (C) 2018, kicad StepUp
 * 
 * This work is licensed under the [Creative Commons CC-BY-SA 4.0 License](https://creativecommons.org/licenses/by-sa/4.0/legalcode), 
 * with the following exception:
 * To the extent that the creation of electronic designs that use 'Licensed Material' can be considered to be 'Adapted Material', 
 * then the copyright holder waives article 3 of the license with respect to these designs and any generated files which use data provided 
 * as part of the 'Licensed Material'.
 * You are free to use the library data in your own projects without the obligation to share your project files under this or any other license agreement.
 * However, if you wish to redistribute these libraries, or parts thereof (including in modified form) as a collection then the exception above does not apply. 
 * Please refer to https://github.com/KiCad/kicad-packages3D/blob/master/LICENSE.md for further clarification of the exception.
 * Disclaimer of Warranties and Limitation of Liability.
 * These libraries are provided in the hope that they will be useful, but are provided without warranty of any kind, express or implied.
 * *USE 3D CAD DATA AT YOUR OWN RISK*
 * *DO NOT RELY UPON ANY INFORMATION FOUND HERE WITHOUT INDEPENDENT VERIFICATION.*
 * 
 */

FILE_DESCRIPTION(
/* description */ ('model of RV_Disc_D21.5mm_W4.6mm_P10mm'),
/* implementation_level */ '2;1');

FILE_NAME(
/* name */ 'RV_Disc_D21.5mm_W4.6mm_P10mm.step',
/* time_stamp */ '2018-11-11T21:02:53',
/* author */ ('kicad StepUp','ksu'),
/* organization */ ('FreeCAD'),
/* preprocessor_version */ 'OCC',
/* originating_system */ 'kicad StepUp',
/* authorisation */ '');

FILE_SCHEMA(('AUTOMOTIVE_DESIGN { 1 0 10303 214 1 1 1 1 }'));
ENDSEC;

DATA;
#1 = APPLICATION_PROTOCOL_DEFINITION('international standard',
'automotive_design',2000,#2);
#2 = APPLICATION_CONTEXT(
'core data for automotive mechanical design processes');
#3 = SHAPE_DEFINITION_REPRESENTATION(#4,#10);
#4 = PRODUCT_DEFINITION_SHAPE('','',#5);
#5 = PRODUCT_DEFINITION('design','',#6,#9);
#6 = PRODUCT_DEFINITION_FORMATION('','',#7);
#7 = PRODUCT('RV_Disc_D215mm_W46mm_P10mm','RV_Disc_D215mm_W46mm_P10mm',
'',(#8));
#8 = PRODUCT_CONTEXT('',#2,'mechanical');
#9 = PRODUCT_DEFINITION_CONTEXT('part definition',#2,'design');
#10 = ADVANCED_BREP_SHAPE_REPRESENTATION('',(#11,#15),#397);
#11 = AXIS2_PLACEMENT_3D('',#12,#13,#14);
#12 = CARTESIAN_POINT('',(0.E+000,0.E+000,0.E+000));
#13 = DIRECTION('',(0.E+000,0.E+000,1.));
#14 = DIRECTION('',(1.,0.E+000,-0.E+000));
#15 = MANIFOLD_SOLID_BREP('',#16);
#16 = CLOSED_SHELL('',(#17,#50,#156,#257,#266,#292,#301,#327,#353,#379,
#388));
#17 = ADVANCED_FACE('',(#18),#45,.T.);
#18 = FACE_BOUND('',#19,.F.);
#19 = EDGE_LOOP('',(#20,#30,#37,#38));
#20 = ORIENTED_EDGE('',*,*,#21,.T.);
#21 = EDGE_CURVE('',#22,#24,#26,.T.);
#22 = VERTEX_POINT('',#23);
#23 = CARTESIAN_POINT('',(15.75,-0.793902439024,10.78));
#24 = VERTEX_POINT('',#25);
#25 = CARTESIAN_POINT('',(15.75,-0.906097560976,10.78));
#26 = LINE('',#27,#28);
#27 = CARTESIAN_POINT('',(15.75,1.45,10.78));
#28 = VECTOR('',#29,1.);
#29 = DIRECTION('',(0.E+000,-1.,0.E+000));
#30 = ORIENTED_EDGE('',*,*,#31,.T.);
#31 = EDGE_CURVE('',#24,#24,#32,.T.);
#32 = CIRCLE('',#33,10.75);
#33 = AXIS2_PLACEMENT_3D('',#34,#35,#36);
#34 = CARTESIAN_POINT('',(5.,-0.906097560976,10.78));
#35 = DIRECTION('',(1.137711779659E-033,-1.,-3.413135338977E-033));
#36 = DIRECTION('',(1.,1.137711779659E-033,7.124411824977E-034));
#37 = ORIENTED_EDGE('',*,*,#21,.F.);
#38 = ORIENTED_EDGE('',*,*,#39,.F.);
#39 = EDGE_CURVE('',#22,#22,#40,.T.);
#40 = CIRCLE('',#41,10.75);
#41 = AXIS2_PLACEMENT_3D('',#42,#43,#44);
#42 = CARTESIAN_POINT('',(5.,-0.793902439024,10.78));
#43 = DIRECTION('',(1.137711779659E-033,-1.,-3.413135338977E-033));
#44 = DIRECTION('',(1.,1.137711779659E-033,-7.124411824977E-034));
#45 = CYLINDRICAL_SURFACE('',#46,10.75);
#46 = AXIS2_PLACEMENT_3D('',#47,#48,#49);
#47 = CARTESIAN_POINT('',(5.,1.45,10.78));
#48 = DIRECTION('',(0.E+000,1.,0.E+000));
#49 = DIRECTION('',(1.,0.E+000,0.E+000));
#50 = ADVANCED_FACE('',(#51,#71),#151,.T.);
#51 = FACE_BOUND('',#52,.F.);
#52 = EDGE_LOOP('',(#53,#54,#63,#70));
#53 = ORIENTED_EDGE('',*,*,#39,.T.);
#54 = ORIENTED_EDGE('',*,*,#55,.T.);
#55 = EDGE_CURVE('',#22,#56,#58,.T.);
#56 = VERTEX_POINT('',#57);
#57 = CARTESIAN_POINT('',(13.506097560976,1.45,10.78));
#58 = CIRCLE('',#59,2.243902439024);
#59 = AXIS2_PLACEMENT_3D('',#60,#61,#62);
#60 = CARTESIAN_POINT('',(13.506097560976,-0.793902439024,10.78));
#61 = DIRECTION('',(7.124411824977E-034,-3.413135338977E-033,1.));
#62 = DIRECTION('',(1.,1.137711779659E-033,-7.124411824977E-034));
#63 = ORIENTED_EDGE('',*,*,#64,.F.);
#64 = EDGE_CURVE('',#56,#56,#65,.T.);
#65 = CIRCLE('',#66,8.506097560976);
#66 = AXIS2_PLACEMENT_3D('',#67,#68,#69);
#67 = CARTESIAN_POINT('',(5.,1.45,10.78));
#68 = DIRECTION('',(1.137711779659E-033,-1.,-3.413135338977E-033));
#69 = DIRECTION('',(1.,1.137711779659E-033,-7.124411824977E-034));
#70 = ORIENTED_EDGE('',*,*,#55,.F.);
#71 = FACE_BOUND('',#72,.F.);
#72 = EDGE_LOOP('',(#73,#110));
#73 = ORIENTED_EDGE('',*,*,#74,.T.);
#74 = EDGE_CURVE('',#75,#77,#79,.T.);
#75 = VERTEX_POINT('',#76);
#76 = CARTESIAN_POINT('',(0.45,0.E+000,1.200823479458));
#77 = VERTEX_POINT('',#78);
#78 = CARTESIAN_POINT('',(-0.305105960592,-0.330772357991,1.48581179286)
);
#79 = B_SPLINE_CURVE_WITH_KNOTS('',8,(#80,#81,#82,#83,#84,#85,#86,#87,
#88,#89,#90,#91,#92,#93,#94,#95,#96,#97,#98,#99,#100,#101,#102,#103,
#104,#105,#106,#107,#108,#109),.UNSPECIFIED.,.F.,.F.,(9,7,7,7,9),(
0.E+000,0.190081898765,0.390746135733,0.504208417193,1.),
.UNSPECIFIED.);
#80 = CARTESIAN_POINT('',(0.45,-1.110223024625E-016,1.200823479458));
#81 = CARTESIAN_POINT('',(0.45,-2.338434586134E-002,1.19103071483));
#82 = CARTESIAN_POINT('',(0.448611220711,-4.694164354639E-002,
1.182203985961));
#83 = CARTESIAN_POINT('',(0.445797714836,-7.057601069262E-002,
1.174401366961));
#84 = CARTESIAN_POINT('',(0.441531151257,-9.41818221852E-002,
1.167673763842));
#85 = CARTESIAN_POINT('',(0.43579342874,-0.117645326687,1.162063012282)
);
#86 = CARTESIAN_POINT('',(0.428579289636,-0.14084626317,1.15759997538));
#87 = CARTESIAN_POINT('',(0.419898933585,-0.163659477445,1.154302641426)
);
#88 = CARTESIAN_POINT('',(0.399099017459,-0.209494933509,1.149927307388)
);
#89 = CARTESIAN_POINT('',(0.386812922583,-0.232462724101,1.14898268724)
);
#90 = CARTESIAN_POINT('',(0.372954879633,-0.25470832039,1.149345360509)
);
#91 = CARTESIAN_POINT('',(0.357576092881,-0.276086588795,1.151001061963)
);
#92 = CARTESIAN_POINT('',(0.340744606271,-0.296460363389,1.153918956157)
);
#93 = CARTESIAN_POINT('',(0.322543471854,-0.315701957052,1.158054331755)
);
#94 = CARTESIAN_POINT('',(0.303068918244,-0.333694672629,1.163351295856)
);
#95 = CARTESIAN_POINT('',(0.270757745934,-0.359742924763,1.173360947607)
);
#96 = CARTESIAN_POINT('',(0.258713619817,-0.368719410444,1.1773274217));
#97 = CARTESIAN_POINT('',(0.246314929439,-0.377245301495,1.181633502912)
);
#98 = CARTESIAN_POINT('',(0.233581441055,-0.385303294408,1.186267081096)
);
#99 = CARTESIAN_POINT('',(0.220533822557,-0.392877265785,1.191215461139)
);
#100 = CARTESIAN_POINT('',(0.207193567606,-0.399952286314,1.196465500468
));
#101 = CARTESIAN_POINT('',(0.193582919748,-0.406514634753,1.202003746555
));
#102 = CARTESIAN_POINT('',(0.119169511142,-0.438932222887,1.233216655305
));
#103 = CARTESIAN_POINT('',(5.30372002441E-002,-0.455656456,
1.264216386485));
#104 = CARTESIAN_POINT('',(-1.565897209033E-002,-0.460604439767,
1.299380520601));
#105 = CARTESIAN_POINT('',(-8.355843060939E-002,-0.45353047519,
1.336705338155));
#106 = CARTESIAN_POINT('',(-0.147934165887,-0.435484347826,
1.374722580112));
#107 = CARTESIAN_POINT('',(-0.206949899266,-0.408052176613,
1.412525726547));
#108 = CARTESIAN_POINT('',(-0.259570308281,-0.372774655353,
1.449618581802));
#109 = CARTESIAN_POINT('',(-0.305105960592,-0.330772357991,1.48581179286
));
#110 = ORIENTED_EDGE('',*,*,#111,.T.);
#111 = EDGE_CURVE('',#77,#75,#112,.T.);
#112 = B_SPLINE_CURVE_WITH_KNOTS('',7,(#113,#114,#115,#116,#117,#118,
#119,#120,#121,#122,#123,#124,#125,#126,#127,#128,#129,#130,#131,
#132,#133,#134,#135,#136,#137,#138,#139,#140,#141,#142,#143,#144,
#145,#146,#147,#148,#149,#150),.UNSPECIFIED.,.F.,.F.,(8,6,6,6,6,6,8)
,(0.E+000,7.05192283696E-002,0.343846464881,0.494752985947,
0.631352703422,0.776817259467,1.),.UNSPECIFIED.);
#113 = CARTESIAN_POINT('',(-0.305105960592,-0.330772357991,1.48581179286
));
#114 = CARTESIAN_POINT('',(-0.318317352459,-0.318586108721,
1.496312634946));
#115 = CARTESIAN_POINT('',(-0.330915922297,-0.305825630272,
1.506732849674));
#116 = CARTESIAN_POINT('',(-0.342878878759,-0.292526093654,
1.517063473116));
#117 = CARTESIAN_POINT('',(-0.354185215214,-0.278722799732,
1.527295783866));
#118 = CARTESIAN_POINT('',(-0.36481570974,-0.264451179231,1.537421303037
));
#119 = CARTESIAN_POINT('',(-0.374752925131,-0.249746792738,
1.547431794264));
#120 = CARTESIAN_POINT('',(-0.419749344146,-0.176113197225,
1.595642353166));
#121 = CARTESIAN_POINT('',(-0.444831127064,-0.111672840555,
1.632077114139));
#122 = CARTESIAN_POINT('',(-0.458397718648,-4.333510096555E-002,
1.666203104338));
#123 = CARTESIAN_POINT('',(-0.459830804888,2.685237894729E-002,
1.697469286392));
#124 = CARTESIAN_POINT('',(-0.448773243703,9.667539491984E-002,
1.725022155104));
#125 = CARTESIAN_POINT('',(-0.425168998366,0.163760681814,1.747438505539
));
#126 = CARTESIAN_POINT('',(-0.36970441113,0.259555503747,1.771199130956)
);
#127 = CARTESIAN_POINT('',(-0.346287805024,0.291976838879,1.777479977079
));
#128 = CARTESIAN_POINT('',(-0.319282105658,0.322271172345,1.781255160959
));
#129 = CARTESIAN_POINT('',(-0.288869291024,0.349919561718,1.782145994046
));
#130 = CARTESIAN_POINT('',(-0.255364851366,0.37438650555,1.779769087409)
);
#131 = CARTESIAN_POINT('',(-0.219241376559,0.395179502906,1.773825334835
));
#132 = CARTESIAN_POINT('',(-0.146624745297,0.42710850192,1.755560316952)
);
#133 = CARTESIAN_POINT('',(-0.110475699377,0.438979989181,1.743892732711
));
#134 = CARTESIAN_POINT('',(-7.316224361787E-002,0.447270859422,
1.729179572999));
#135 = CARTESIAN_POINT('',(-3.528601123997E-002,0.451796270964,
1.71151717757));
#136 = CARTESIAN_POINT('',(2.467957534389E-003,0.452541572687,
1.6912443981));
#137 = CARTESIAN_POINT('',(3.938570059728E-002,0.449709284726,
1.66894579546));
#138 = CARTESIAN_POINT('',(0.112508767904,0.437383439834,1.620259909288)
);
#139 = CARTESIAN_POINT('',(0.148703977826,0.427436942223,1.593573108948)
);
#140 = CARTESIAN_POINT('',(0.183112970827,0.414272063158,1.56580362452)
);
#141 = CARTESIAN_POINT('',(0.215563490704,0.398223361795,1.537403309561)
);
#142 = CARTESIAN_POINT('',(0.245942830178,0.379571950642,1.508754690639)
);
#143 = CARTESIAN_POINT('',(0.274165095157,0.358537774638,1.480170160087)
);
#144 = CARTESIAN_POINT('',(0.34000470324,0.299597864578,1.408564881522)
);
#145 = CARTESIAN_POINT('',(0.37452829305,0.258733966995,1.366053298011)
);
#146 = CARTESIAN_POINT('',(0.403376446736,0.213336418113,1.32539049182)
);
#147 = CARTESIAN_POINT('',(0.426037316444,0.163948369119,1.28754146372)
);
#148 = CARTESIAN_POINT('',(0.441825543843,0.111236664158,1.253519125363)
);
#149 = CARTESIAN_POINT('',(0.45,5.614896211537E-002,1.224337225505));
#150 = CARTESIAN_POINT('',(0.45,-1.110223024625E-016,1.200823479458));
#151 = TOROIDAL_SURFACE('',#152,8.506097560976,2.243902439024);
#152 = AXIS2_PLACEMENT_3D('',#153,#154,#155);
#153 = CARTESIAN_POINT('',(5.,-0.793902439024,10.78));
#154 = DIRECTION('',(-1.137711779659E-033,1.,3.413135338977E-033));
#155 = DIRECTION('',(1.,1.137711779659E-033,-7.124411824977E-034));
#156 = ADVANCED_FACE('',(#157,#177),#252,.T.);
#157 = FACE_BOUND('',#158,.T.);
#158 = EDGE_LOOP('',(#159,#160,#169,#176));
#159 = ORIENTED_EDGE('',*,*,#31,.T.);
#160 = ORIENTED_EDGE('',*,*,#161,.T.);
#161 = EDGE_CURVE('',#24,#162,#164,.T.);
#162 = VERTEX_POINT('',#163);
#163 = CARTESIAN_POINT('',(13.506097560976,-3.15,10.78));
#164 = CIRCLE('',#165,2.243902439024);
#165 = AXIS2_PLACEMENT_3D('',#166,#167,#168);
#166 = CARTESIAN_POINT('',(13.506097560976,-0.906097560976,10.78));
#167 = DIRECTION('',(7.124411824977E-034,3.413135338977E-033,-1.));
#168 = DIRECTION('',(1.,1.137711779659E-033,7.124411824977E-034));
#169 = ORIENTED_EDGE('',*,*,#170,.F.);
#170 = EDGE_CURVE('',#162,#162,#171,.T.);
#171 = CIRCLE('',#172,8.506097560976);
#172 = AXIS2_PLACEMENT_3D('',#173,#174,#175);
#173 = CARTESIAN_POINT('',(5.,-3.15,10.78));
#174 = DIRECTION('',(1.137711779659E-033,-1.,-3.413135338977E-033));
#175 = DIRECTION('',(1.,1.137711779659E-033,7.124411824977E-034));
#176 = ORIENTED_EDGE('',*,*,#161,.F.);
#177 = FACE_BOUND('',#178,.T.);
#178 = EDGE_LOOP('',(#179,#202));
#179 = ORIENTED_EDGE('',*,*,#180,.T.);
#180 = EDGE_CURVE('',#181,#183,#185,.T.);
#181 = VERTEX_POINT('',#182);
#182 = CARTESIAN_POINT('',(10.45,-1.7,1.68271343687));
#183 = VERTEX_POINT('',#184);
#184 = CARTESIAN_POINT('',(9.824497573321,-1.285634342362,1.20959455008)
);
#185 = B_SPLINE_CURVE_WITH_KNOTS('',8,(#186,#187,#188,#189,#190,#191,
#192,#193,#194,#195,#196,#197,#198,#199,#200,#201),.UNSPECIFIED.,.F.
,.F.,(9,7,9),(0.E+000,0.291400991168,1.),.UNSPECIFIED.);
#186 = CARTESIAN_POINT('',(10.45,-1.7,1.68271343687));
#187 = CARTESIAN_POINT('',(10.45,-1.668799252457,1.66895524407));
#188 = CARTESIAN_POINT('',(10.447527644511,-1.637697233311,
1.654472057954));
#189 = CARTESIAN_POINT('',(10.442610324826,-1.60688653105,1.639349351832
));
#190 = CARTESIAN_POINT('',(10.435284748807,-1.576556608089,
1.623657754559));
#191 = CARTESIAN_POINT('',(10.425597576193,-1.546894246462,
1.607456103521));
#192 = CARTESIAN_POINT('',(10.413606053912,-1.51808399352,1.590794497639
));
#193 = CARTESIAN_POINT('',(10.399378651392,-1.490308607621,
1.573717350356));
#194 = CARTESIAN_POINT('',(10.343157306876,-1.399165802357,
1.513831117135));
#195 = CARTESIAN_POINT('',(10.290831067781,-1.342193027875,
1.469461454009));
#196 = CARTESIAN_POINT('',(10.227016544379,-1.294548269535,
1.423331149362));
#197 = CARTESIAN_POINT('',(10.152707233003,-1.258942388186,
1.375848814712));
#198 = CARTESIAN_POINT('',(10.070333718515,-1.23874237952,1.328116629954
));
#199 = CARTESIAN_POINT('',(9.984193490224,-1.236732540722,1.282121629317
));
#200 = CARTESIAN_POINT('',(9.900393783546,-1.253488895883,1.241676354927
));
#201 = CARTESIAN_POINT('',(9.824497573321,-1.285634342362,1.20959455008)
);
#202 = ORIENTED_EDGE('',*,*,#203,.T.);
#203 = EDGE_CURVE('',#183,#181,#204,.T.);
#204 = B_SPLINE_CURVE_WITH_KNOTS('',6,(#205,#206,#207,#208,#209,#210,
#211,#212,#213,#214,#215,#216,#217,#218,#219,#220,#221,#222,#223,
#224,#225,#226,#227,#228,#229,#230,#231,#232,#233,#234,#235,#236,
#237,#238,#239,#240,#241,#242,#243,#244,#245,#246,#247,#248,#249,
#250,#251),.UNSPECIFIED.,.F.,.F.,(7,5,5,5,5,5,5,5,5,7),(0.E+000,
6.291206510062E-002,0.165213330743,0.268631272111,0.319953818751,
0.471998150262,0.609654133832,0.73839826455,0.86502146114,1.),
.UNSPECIFIED.);
#205 = CARTESIAN_POINT('',(9.824497573321,-1.285634342362,1.20959455008)
);
#206 = CARTESIAN_POINT('',(9.804748971124,-1.293998760467,1.201246691869
));
#207 = CARTESIAN_POINT('',(9.785512013287,-1.303478550121,1.193472268458
));
#208 = CARTESIAN_POINT('',(9.766864436304,-1.314032354913,1.186317343787
));
#209 = CARTESIAN_POINT('',(9.748879982649,-1.325611492495,1.179827050785
));
#210 = CARTESIAN_POINT('',(9.731627444806,-1.338160149754,1.174043854709
));
#211 = CARTESIAN_POINT('',(9.688407796938,-1.373495440568,1.160813465998
));
#212 = CARTESIAN_POINT('',(9.663744427351,-1.397775378815,1.154590460782
));
#213 = CARTESIAN_POINT('',(9.641459425508,-1.424180019487,1.15050393422)
);
#214 = CARTESIAN_POINT('',(9.621783627254,-1.452380879856,1.148684028308
));
#215 = CARTESIAN_POINT('',(9.604883591199,-1.482009079605,1.149201411214
));
#216 = CARTESIAN_POINT('',(9.576655805258,-1.543661685733,1.154919215601
));
#217 = CARTESIAN_POINT('',(9.565387251305,-1.575717270202,1.16017138379)
);
#218 = CARTESIAN_POINT('',(9.557132984246,-1.608425033984,1.167792879378
));
#219 = CARTESIAN_POINT('',(9.551884574712,-1.64139372788,1.177693004441)
);
#220 = CARTESIAN_POINT('',(9.549563303826,-1.674268823995,1.189721022706
));
#221 = CARTESIAN_POINT('',(9.550292484989,-1.72287028964,1.210619897785)
);
#222 = CARTESIAN_POINT('',(9.551226238049,-1.73889413369,1.218029721945)
);
#223 = CARTESIAN_POINT('',(9.552837001514,-1.754786669382,1.225895087323
));
#224 = CARTESIAN_POINT('',(9.555108806481,-1.770515614443,1.234192195616
));
#225 = CARTESIAN_POINT('',(9.558024611374,-1.786051981182,1.242896234468
));
#226 = CARTESIAN_POINT('',(9.572058649071,-1.846750317997,1.278896341422
));
#227 = CARTESIAN_POINT('',(9.58804248942,-1.89019967672,1.309148590718)
);
#228 = CARTESIAN_POINT('',(9.609060979808,-1.931077168145,1.342090119868
));
#229 = CARTESIAN_POINT('',(9.634662604281,-1.968918695628,1.377034429036
));
#230 = CARTESIAN_POINT('',(9.664499625085,-2.003344454021,1.41332139389)
);
#231 = CARTESIAN_POINT('',(9.728953871411,-2.061576557432,1.48368508557)
);
#232 = CARTESIAN_POINT('',(9.762819891504,-2.086051115674,1.517611707355
));
#233 = CARTESIAN_POINT('',(9.79976902787,-2.107041417205,1.551547290769)
);
#234 = CARTESIAN_POINT('',(9.839645469879,-2.124109553069,1.58489413568)
);
#235 = CARTESIAN_POINT('',(9.882194103135,-2.136664363057,1.616850084232
));
#236 = CARTESIAN_POINT('',(9.968737533453,-2.150909426485,1.674240420123
));
#237 = CARTESIAN_POINT('',(10.012715699492,-2.153292890749,
1.700133183978));
#238 = CARTESIAN_POINT('',(10.057606039018,-2.150370657609,
1.722811240831));
#239 = CARTESIAN_POINT('',(10.10207025663,-2.141944910755,1.741326486337
));
#240 = CARTESIAN_POINT('',(10.144966560548,-2.128321782374,1.75545239426
));
#241 = CARTESIAN_POINT('',(10.225279265405,-2.091994354446,
1.775005377694));
#242 = CARTESIAN_POINT('',(10.262789499042,-2.069436533564,
1.780576268168));
#243 = CARTESIAN_POINT('',(10.297194433115,-2.042804076165,
1.782135821866));
#244 = CARTESIAN_POINT('',(10.32793988675,-2.012766788409,1.780131113395
));
#245 = CARTESIAN_POINT('',(10.354717859549,-1.98000660317,1.775058975856
));
#246 = CARTESIAN_POINT('',(10.401508893065,-1.907977643062,
1.759157005426));
#247 = CARTESIAN_POINT('',(10.420957915946,-1.868423781848,
1.747969688013));
#248 = CARTESIAN_POINT('',(10.435536601145,-1.827203426978,
1.734332535632));
#249 = CARTESIAN_POINT('',(10.445204677559,-1.784993902321,
1.718701697302));
#250 = CARTESIAN_POINT('',(10.45,-1.742405837195,1.701412594098));
#251 = CARTESIAN_POINT('',(10.45,-1.7,1.68271343687));
#252 = TOROIDAL_SURFACE('',#253,8.506097560976,2.243902439024);
#253 = AXIS2_PLACEMENT_3D('',#254,#255,#256);
#254 = CARTESIAN_POINT('',(5.,-0.906097560976,10.78));
#255 = DIRECTION('',(1.137711779659E-033,-1.,-3.413135338977E-033));
#256 = DIRECTION('',(1.,1.137711779659E-033,7.124411824977E-034));
#257 = ADVANCED_FACE('',(#258),#261,.F.);
#258 = FACE_BOUND('',#259,.F.);
#259 = EDGE_LOOP('',(#260));
#260 = ORIENTED_EDGE('',*,*,#64,.T.);
#261 = PLANE('',#262);
#262 = AXIS2_PLACEMENT_3D('',#263,#264,#265);
#263 = CARTESIAN_POINT('',(5.,1.45,10.78));
#264 = DIRECTION('',(1.137711779659E-033,-1.,-3.413135338977E-033));
#265 = DIRECTION('',(0.E+000,3.413135338977E-033,-1.));
#266 = ADVANCED_FACE('',(#267),#287,.T.);
#267 = FACE_BOUND('',#268,.T.);
#268 = EDGE_LOOP('',(#269,#270,#278,#285,#286));
#269 = ORIENTED_EDGE('',*,*,#111,.T.);
#270 = ORIENTED_EDGE('',*,*,#271,.T.);
#271 = EDGE_CURVE('',#75,#272,#274,.T.);
#272 = VERTEX_POINT('',#273);
#273 = CARTESIAN_POINT('',(0.45,0.E+000,-2.82));
#274 = LINE('',#275,#276);
#275 = CARTESIAN_POINT('',(0.45,0.E+000,10.78));
#276 = VECTOR('',#277,1.);
#277 = DIRECTION('',(-0.E+000,-0.E+000,-1.));
#278 = ORIENTED_EDGE('',*,*,#279,.T.);
#279 = EDGE_CURVE('',#272,#272,#280,.T.);
#280 = CIRCLE('',#281,0.45);
#281 = AXIS2_PLACEMENT_3D('',#282,#283,#284);
#282 = CARTESIAN_POINT('',(0.E+000,0.E+000,-2.82));
#283 = DIRECTION('',(0.E+000,0.E+000,1.));
#284 = DIRECTION('',(1.,0.E+000,0.E+000));
#285 = ORIENTED_EDGE('',*,*,#271,.F.);
#286 = ORIENTED_EDGE('',*,*,#74,.T.);
#287 = CYLINDRICAL_SURFACE('',#288,0.45);
#288 = AXIS2_PLACEMENT_3D('',#289,#290,#291);
#289 = CARTESIAN_POINT('',(0.E+000,0.E+000,10.78));
#290 = DIRECTION('',(0.E+000,0.E+000,1.));
#291 = DIRECTION('',(1.,0.E+000,0.E+000));
#292 = ADVANCED_FACE('',(#293),#296,.T.);
#293 = FACE_BOUND('',#294,.T.);
#294 = EDGE_LOOP('',(#295));
#295 = ORIENTED_EDGE('',*,*,#170,.T.);
#296 = PLANE('',#297);
#297 = AXIS2_PLACEMENT_3D('',#298,#299,#300);
#298 = CARTESIAN_POINT('',(5.,-3.15,10.78));
#299 = DIRECTION('',(1.137711779659E-033,-1.,-3.413135338977E-033));
#300 = DIRECTION('',(0.E+000,3.413135338977E-033,-1.));
#301 = ADVANCED_FACE('',(#302),#322,.T.);
#302 = FACE_BOUND('',#303,.T.);
#303 = EDGE_LOOP('',(#304,#305,#313,#320,#321));
#304 = ORIENTED_EDGE('',*,*,#180,.F.);
#305 = ORIENTED_EDGE('',*,*,#306,.T.);
#306 = EDGE_CURVE('',#181,#307,#309,.T.);
#307 = VERTEX_POINT('',#308);
#308 = CARTESIAN_POINT('',(10.45,-1.7,-2.82));
#309 = LINE('',#310,#311);
#310 = CARTESIAN_POINT('',(10.45,-1.7,10.78));
#311 = VECTOR('',#312,1.);
#312 = DIRECTION('',(-0.E+000,-0.E+000,-1.));
#313 = ORIENTED_EDGE('',*,*,#314,.T.);
#314 = EDGE_CURVE('',#307,#307,#315,.T.);
#315 = CIRCLE('',#316,0.45);
#316 = AXIS2_PLACEMENT_3D('',#317,#318,#319);
#317 = CARTESIAN_POINT('',(10.,-1.7,-2.82));
#318 = DIRECTION('',(-1.460853528187E-030,-2.597072938999E-030,1.));
#319 = DIRECTION('',(1.,-1.0388291756E-030,1.460853528187E-030));
#320 = ORIENTED_EDGE('',*,*,#306,.F.);
#321 = ORIENTED_EDGE('',*,*,#203,.F.);
#322 = CYLINDRICAL_SURFACE('',#323,0.45);
#323 = AXIS2_PLACEMENT_3D('',#324,#325,#326);
#324 = CARTESIAN_POINT('',(10.,-1.7,10.78));
#325 = DIRECTION('',(0.E+000,0.E+000,1.));
#326 = DIRECTION('',(1.,0.E+000,0.E+000));
#327 = ADVANCED_FACE('',(#328),#348,.T.);
#328 = FACE_BOUND('',#329,.F.);
#329 = EDGE_LOOP('',(#330,#339,#340,#341));
#330 = ORIENTED_EDGE('',*,*,#331,.F.);
#331 = EDGE_CURVE('',#272,#332,#334,.T.);
#332 = VERTEX_POINT('',#333);
#333 = CARTESIAN_POINT('',(0.27,0.E+000,-3.));
#334 = CIRCLE('',#335,0.18);
#335 = AXIS2_PLACEMENT_3D('',#336,#337,#338);
#336 = CARTESIAN_POINT('',(0.27,0.E+000,-2.82));
#337 = DIRECTION('',(-0.E+000,1.,0.E+000));
#338 = DIRECTION('',(1.,0.E+000,0.E+000));
#339 = ORIENTED_EDGE('',*,*,#279,.T.);
#340 = ORIENTED_EDGE('',*,*,#331,.T.);
#341 = ORIENTED_EDGE('',*,*,#342,.F.);
#342 = EDGE_CURVE('',#332,#332,#343,.T.);
#343 = CIRCLE('',#344,0.27);
#344 = AXIS2_PLACEMENT_3D('',#345,#346,#347);
#345 = CARTESIAN_POINT('',(0.E+000,0.E+000,-3.));
#346 = DIRECTION('',(0.E+000,0.E+000,1.));
#347 = DIRECTION('',(1.,0.E+000,0.E+000));
#348 = TOROIDAL_SURFACE('',#349,0.27,0.18);
#349 = AXIS2_PLACEMENT_3D('',#350,#351,#352);
#350 = CARTESIAN_POINT('',(0.E+000,0.E+000,-2.82));
#351 = DIRECTION('',(-0.E+000,-0.E+000,-1.));
#352 = DIRECTION('',(1.,0.E+000,0.E+000));
#353 = ADVANCED_FACE('',(#354),#374,.T.);
#354 = FACE_BOUND('',#355,.F.);
#355 = EDGE_LOOP('',(#356,#365,#366,#367));
#356 = ORIENTED_EDGE('',*,*,#357,.F.);
#357 = EDGE_CURVE('',#307,#358,#360,.T.);
#358 = VERTEX_POINT('',#359);
#359 = CARTESIAN_POINT('',(10.27,-1.7,-3.));
#360 = CIRCLE('',#361,0.18);
#361 = AXIS2_PLACEMENT_3D('',#362,#363,#364);
#362 = CARTESIAN_POINT('',(10.27,-1.7,-2.82));
#363 = DIRECTION('',(1.0388291756E-030,1.,2.597072938999E-030));
#364 = DIRECTION('',(1.,-1.0388291756E-030,1.460853528187E-030));
#365 = ORIENTED_EDGE('',*,*,#314,.T.);
#366 = ORIENTED_EDGE('',*,*,#357,.T.);
#367 = ORIENTED_EDGE('',*,*,#368,.F.);
#368 = EDGE_CURVE('',#358,#358,#369,.T.);
#369 = CIRCLE('',#370,0.27);
#370 = AXIS2_PLACEMENT_3D('',#371,#372,#373);
#371 = CARTESIAN_POINT('',(10.,-1.7,-3.));
#372 = DIRECTION('',(-1.460853528187E-030,-2.597072938999E-030,1.));
#373 = DIRECTION('',(1.,-1.0388291756E-030,1.460853528187E-030));
#374 = TOROIDAL_SURFACE('',#375,0.27,0.18);
#375 = AXIS2_PLACEMENT_3D('',#376,#377,#378);
#376 = CARTESIAN_POINT('',(10.,-1.7,-2.82));
#377 = DIRECTION('',(1.460853528187E-030,2.597072938999E-030,-1.));
#378 = DIRECTION('',(1.,-1.0388291756E-030,1.460853528187E-030));
#379 = ADVANCED_FACE('',(#380),#383,.F.);
#380 = FACE_BOUND('',#381,.F.);
#381 = EDGE_LOOP('',(#382));
#382 = ORIENTED_EDGE('',*,*,#342,.T.);
#383 = PLANE('',#384);
#384 = AXIS2_PLACEMENT_3D('',#385,#386,#387);
#385 = CARTESIAN_POINT('',(-1.18701400394E-017,2.911085817041E-017,-3.)
);
#386 = DIRECTION('',(0.E+000,0.E+000,1.));
#387 = DIRECTION('',(1.,0.E+000,0.E+000));
#388 = ADVANCED_FACE('',(#389),#392,.F.);
#389 = FACE_BOUND('',#390,.F.);
#390 = EDGE_LOOP('',(#391));
#391 = ORIENTED_EDGE('',*,*,#368,.T.);
#392 = PLANE('',#393);
#393 = AXIS2_PLACEMENT_3D('',#394,#395,#396);
#394 = CARTESIAN_POINT('',(10.,-1.7,-3.));
#395 = DIRECTION('',(-1.460853528187E-030,-2.597072938999E-030,1.));
#396 = DIRECTION('',(0.E+000,1.,2.597072938999E-030));
#397 = ( GEOMETRIC_REPRESENTATION_CONTEXT(3)
GLOBAL_UNCERTAINTY_ASSIGNED_CONTEXT((#401)) GLOBAL_UNIT_ASSIGNED_CONTEXT
((#398,#399,#400)) REPRESENTATION_CONTEXT('Context #1',
'3D Context with UNIT and UNCERTAINTY') );
#398 = ( LENGTH_UNIT() NAMED_UNIT(*) SI_UNIT(.MILLI.,.METRE.) );
#399 = ( NAMED_UNIT(*) PLANE_ANGLE_UNIT() SI_UNIT($,.RADIAN.) );
#400 = ( NAMED_UNIT(*) SI_UNIT($,.STERADIAN.) SOLID_ANGLE_UNIT() );
#401 = UNCERTAINTY_MEASURE_WITH_UNIT(LENGTH_MEASURE(1.E-007),#398,
'distance_accuracy_value','confusion accuracy');
#402 = PRODUCT_RELATED_PRODUCT_CATEGORY('part',$,(#7));
#403 = MECHANICAL_DESIGN_GEOMETRIC_PRESENTATION_REPRESENTATION('',(#404,
#412,#419,#426,#433,#441,#448,#455,#462,#469,#476),#397);
#404 = STYLED_ITEM('color',(#405),#17);
#405 = PRESENTATION_STYLE_ASSIGNMENT((#406));
#406 = SURFACE_STYLE_USAGE(.BOTH.,#407);
#407 = SURFACE_SIDE_STYLE('',(#408));
#408 = SURFACE_STYLE_FILL_AREA(#409);
#409 = FILL_AREA_STYLE('',(#410));
#410 = FILL_AREA_STYLE_COLOUR('',#411);
#411 = COLOUR_RGB('',0.136999994516,0.402000010014,0.726999998093);
#412 = STYLED_ITEM('color',(#413),#50);
#413 = PRESENTATION_STYLE_ASSIGNMENT((#414));
#414 = SURFACE_STYLE_USAGE(.BOTH.,#415);
#415 = SURFACE_SIDE_STYLE('',(#416));
#416 = SURFACE_STYLE_FILL_AREA(#417);
#417 = FILL_AREA_STYLE('',(#418));
#418 = FILL_AREA_STYLE_COLOUR('',#411);
#419 = STYLED_ITEM('color',(#420),#156);
#420 = PRESENTATION_STYLE_ASSIGNMENT((#421));
#421 = SURFACE_STYLE_USAGE(.BOTH.,#422);
#422 = SURFACE_SIDE_STYLE('',(#423));
#423 = SURFACE_STYLE_FILL_AREA(#424);
#424 = FILL_AREA_STYLE('',(#425));
#425 = FILL_AREA_STYLE_COLOUR('',#411);
#426 = STYLED_ITEM('color',(#427),#257);
#427 = PRESENTATION_STYLE_ASSIGNMENT((#428));
#428 = SURFACE_STYLE_USAGE(.BOTH.,#429);
#429 = SURFACE_SIDE_STYLE('',(#430));
#430 = SURFACE_STYLE_FILL_AREA(#431);
#431 = FILL_AREA_STYLE('',(#432));
#432 = FILL_AREA_STYLE_COLOUR('',#411);
#433 = STYLED_ITEM('color',(#434),#266);
#434 = PRESENTATION_STYLE_ASSIGNMENT((#435));
#435 = SURFACE_STYLE_USAGE(.BOTH.,#436);
#436 = SURFACE_SIDE_STYLE('',(#437));
#437 = SURFACE_STYLE_FILL_AREA(#438);
#438 = FILL_AREA_STYLE('',(#439));
#439 = FILL_AREA_STYLE_COLOUR('',#440);
#440 = COLOUR_RGB('',0.824000000954,0.819999992847,0.78100001812);
#441 = STYLED_ITEM('color',(#442),#292);
#442 = PRESENTATION_STYLE_ASSIGNMENT((#443));
#443 = SURFACE_STYLE_USAGE(.BOTH.,#444);
#444 = SURFACE_SIDE_STYLE('',(#445));
#445 = SURFACE_STYLE_FILL_AREA(#446);
#446 = FILL_AREA_STYLE('',(#447));
#447 = FILL_AREA_STYLE_COLOUR('',#411);
#448 = STYLED_ITEM('color',(#449),#301);
#449 = PRESENTATION_STYLE_ASSIGNMENT((#450));
#450 = SURFACE_STYLE_USAGE(.BOTH.,#451);
#451 = SURFACE_SIDE_STYLE('',(#452));
#452 = SURFACE_STYLE_FILL_AREA(#453);
#453 = FILL_AREA_STYLE('',(#454));
#454 = FILL_AREA_STYLE_COLOUR('',#440);
#455 = STYLED_ITEM('color',(#456),#327);
#456 = PRESENTATION_STYLE_ASSIGNMENT((#457));
#457 = SURFACE_STYLE_USAGE(.BOTH.,#458);
#458 = SURFACE_SIDE_STYLE('',(#459));
#459 = SURFACE_STYLE_FILL_AREA(#460);
#460 = FILL_AREA_STYLE('',(#461));
#461 = FILL_AREA_STYLE_COLOUR('',#440);
#462 = STYLED_ITEM('color',(#463),#353);
#463 = PRESENTATION_STYLE_ASSIGNMENT((#464));
#464 = SURFACE_STYLE_USAGE(.BOTH.,#465);
#465 = SURFACE_SIDE_STYLE('',(#466));
#466 = SURFACE_STYLE_FILL_AREA(#467);
#467 = FILL_AREA_STYLE('',(#468));
#468 = FILL_AREA_STYLE_COLOUR('',#440);
#469 = STYLED_ITEM('color',(#470),#379);
#470 = PRESENTATION_STYLE_ASSIGNMENT((#471));
#471 = SURFACE_STYLE_USAGE(.BOTH.,#472);
#472 = SURFACE_SIDE_STYLE('',(#473));
#473 = SURFACE_STYLE_FILL_AREA(#474);
#474 = FILL_AREA_STYLE('',(#475));
#475 = FILL_AREA_STYLE_COLOUR('',#440);
#476 = STYLED_ITEM('color',(#477),#388);
#477 = PRESENTATION_STYLE_ASSIGNMENT((#478));
#478 = SURFACE_STYLE_USAGE(.BOTH.,#479);
#479 = SURFACE_SIDE_STYLE('',(#480));
#480 = SURFACE_STYLE_FILL_AREA(#481);
#481 = FILL_AREA_STYLE('',(#482));
#482 = FILL_AREA_STYLE_COLOUR('',#440);
ENDSEC;
END-ISO-10303-21;
