ISO-10303-21;
HEADER;
/* RV_Disc_D15.5mm_W5.2mm_P7.5mm.step 3D STEP model for use in ECAD systems
 * Copyright (C) 2018, kicad StepUp
 * 
 * This work is licensed under the [Creative Commons CC-BY-SA 4.0 License](https://creativecommons.org/licenses/by-sa/4.0/legalcode), 
 * with the following exception:
 * To the extent that the creation of electronic designs that use 'Licensed Material' can be considered to be 'Adapted Material', 
 * then the copyright holder waives article 3 of the license with respect to these designs and any generated files which use data provided 
 * as part of the 'Licensed Material'.
 * You are free to use the library data in your own projects without the obligation to share your project files under this or any other license agreement.
 * However, if you wish to redistribute these libraries, or parts thereof (including in modified form) as a collection then the exception above does not apply. 
 * Please refer to https://github.com/KiCad/kicad-packages3D/blob/master/LICENSE.md for further clarification of the exception.
 * Disclaimer of Warranties and Limitation of Liability.
 * These libraries are provided in the hope that they will be useful, but are provided without warranty of any kind, express or implied.
 * *USE 3D CAD DATA AT YOUR OWN RISK*
 * *DO NOT RELY UPON ANY INFORMATION FOUND HERE WITHOUT INDEPENDENT VERIFICATION.*
 * 
 */

FILE_DESCRIPTION(
/* description */ ('model of RV_Disc_D15.5mm_W5.2mm_P7.5mm'),
/* implementation_level */ '2;1');

FILE_NAME(
/* name */ 'RV_Disc_D15.5mm_W5.2mm_P7.5mm.step',
/* time_stamp */ '2018-11-11T20:59:24',
/* author */ ('kicad StepUp','ksu'),
/* organization */ ('FreeCAD'),
/* preprocessor_version */ 'OCC',
/* originating_system */ 'kicad StepUp',
/* authorisation */ '');

FILE_SCHEMA(('AUTOMOTIVE_DESIGN { 1 0 10303 214 1 1 1 1 }'));
ENDSEC;

DATA;
#1 = APPLICATION_PROTOCOL_DEFINITION('international standard',
'automotive_design',2000,#2);
#2 = APPLICATION_CONTEXT(
'core data for automotive mechanical design processes');
#3 = SHAPE_DEFINITION_REPRESENTATION(#4,#10);
#4 = PRODUCT_DEFINITION_SHAPE('','',#5);
#5 = PRODUCT_DEFINITION('design','',#6,#9);
#6 = PRODUCT_DEFINITION_FORMATION('','',#7);
#7 = PRODUCT('RV_Disc_D155mm_W52mm_P75mm','RV_Disc_D155mm_W52mm_P75mm',
'',(#8));
#8 = PRODUCT_CONTEXT('',#2,'mechanical');
#9 = PRODUCT_DEFINITION_CONTEXT('part definition',#2,'design');
#10 = ADVANCED_BREP_SHAPE_REPRESENTATION('',(#11,#15),#382);
#11 = AXIS2_PLACEMENT_3D('',#12,#13,#14);
#12 = CARTESIAN_POINT('',(0.E+000,0.E+000,0.E+000));
#13 = DIRECTION('',(0.E+000,0.E+000,1.));
#14 = DIRECTION('',(1.,0.E+000,-0.E+000));
#15 = MANIFOLD_SOLID_BREP('',#16);
#16 = CLOSED_SHELL('',(#17,#50,#140,#242,#251,#277,#286,#312,#338,#364,
#373));
#17 = ADVANCED_FACE('',(#18),#45,.T.);
#18 = FACE_BOUND('',#19,.F.);
#19 = EDGE_LOOP('',(#20,#30,#37,#38));
#20 = ORIENTED_EDGE('',*,*,#21,.T.);
#21 = EDGE_CURVE('',#22,#24,#26,.T.);
#22 = VERTEX_POINT('',#23);
#23 = CARTESIAN_POINT('',(11.5,-1.086585365854,7.78));
#24 = VERTEX_POINT('',#25);
#25 = CARTESIAN_POINT('',(11.5,-1.213414634146,7.78));
#26 = LINE('',#27,#28);
#27 = CARTESIAN_POINT('',(11.5,1.45,7.78));
#28 = VECTOR('',#29,1.);
#29 = DIRECTION('',(0.E+000,-1.,0.E+000));
#30 = ORIENTED_EDGE('',*,*,#31,.T.);
#31 = EDGE_CURVE('',#24,#24,#32,.T.);
#32 = CIRCLE('',#33,7.75);
#33 = AXIS2_PLACEMENT_3D('',#34,#35,#36);
#34 = CARTESIAN_POINT('',(3.75,-1.213414634146,7.78));
#35 = DIRECTION('',(0.E+000,-1.,0.E+000));
#36 = DIRECTION('',(1.,0.E+000,0.E+000));
#37 = ORIENTED_EDGE('',*,*,#21,.F.);
#38 = ORIENTED_EDGE('',*,*,#39,.F.);
#39 = EDGE_CURVE('',#22,#22,#40,.T.);
#40 = CIRCLE('',#41,7.75);
#41 = AXIS2_PLACEMENT_3D('',#42,#43,#44);
#42 = CARTESIAN_POINT('',(3.75,-1.086585365854,7.78));
#43 = DIRECTION('',(0.E+000,-1.,0.E+000));
#44 = DIRECTION('',(1.,0.E+000,0.E+000));
#45 = CYLINDRICAL_SURFACE('',#46,7.75);
#46 = AXIS2_PLACEMENT_3D('',#47,#48,#49);
#47 = CARTESIAN_POINT('',(3.75,1.45,7.78));
#48 = DIRECTION('',(0.E+000,1.,0.E+000));
#49 = DIRECTION('',(1.,0.E+000,0.E+000));
#50 = ADVANCED_FACE('',(#51,#71),#135,.T.);
#51 = FACE_BOUND('',#52,.F.);
#52 = EDGE_LOOP('',(#53,#54,#63,#70));
#53 = ORIENTED_EDGE('',*,*,#39,.T.);
#54 = ORIENTED_EDGE('',*,*,#55,.T.);
#55 = EDGE_CURVE('',#22,#56,#58,.T.);
#56 = VERTEX_POINT('',#57);
#57 = CARTESIAN_POINT('',(8.963414634146,1.45,7.78));
#58 = CIRCLE('',#59,2.536585365854);
#59 = AXIS2_PLACEMENT_3D('',#60,#61,#62);
#60 = CARTESIAN_POINT('',(8.963414634146,-1.086585365854,7.78));
#61 = DIRECTION('',(0.E+000,0.E+000,1.));
#62 = DIRECTION('',(1.,0.E+000,0.E+000));
#63 = ORIENTED_EDGE('',*,*,#64,.F.);
#64 = EDGE_CURVE('',#56,#56,#65,.T.);
#65 = CIRCLE('',#66,5.213414634146);
#66 = AXIS2_PLACEMENT_3D('',#67,#68,#69);
#67 = CARTESIAN_POINT('',(3.75,1.45,7.78));
#68 = DIRECTION('',(0.E+000,-1.,0.E+000));
#69 = DIRECTION('',(1.,0.E+000,0.E+000));
#70 = ORIENTED_EDGE('',*,*,#55,.F.);
#71 = FACE_BOUND('',#72,.F.);
#72 = EDGE_LOOP('',(#73,#94));
#73 = ORIENTED_EDGE('',*,*,#74,.T.);
#74 = EDGE_CURVE('',#75,#77,#79,.T.);
#75 = VERTEX_POINT('',#76);
#76 = CARTESIAN_POINT('',(0.36,0.E+000,1.083714380213));
#77 = VERTEX_POINT('',#78);
#78 = CARTESIAN_POINT('',(-3.887504419278E-002,-0.357894860174,
1.142146201104));
#79 = B_SPLINE_CURVE_WITH_KNOTS('',7,(#80,#81,#82,#83,#84,#85,#86,#87,
#88,#89,#90,#91,#92,#93),.UNSPECIFIED.,.F.,.F.,(8,6,8),(0.E+000,
0.345822213903,1.),.UNSPECIFIED.);
#80 = CARTESIAN_POINT('',(0.36,-5.551115123126E-017,1.083714380213));
#81 = CARTESIAN_POINT('',(0.36,-2.818314664759E-002,1.068739275706));
#82 = CARTESIAN_POINT('',(0.357425847046,-5.667658236299E-002,
1.055465454421));
#83 = CARTESIAN_POINT('',(0.35217587946,-8.521034776839E-002,
1.044083011387));
#84 = CARTESIAN_POINT('',(0.344177492123,-0.113472878892,1.034766198585)
);
#85 = CARTESIAN_POINT('',(0.333411157913,-0.14111104321,1.027655983943)
);
#86 = CARTESIAN_POINT('',(0.319932229106,-0.167745876757,1.022842789636)
);
#87 = CARTESIAN_POINT('',(0.273545069052,-0.240783826748,1.015632784372)
);
#88 = CARTESIAN_POINT('',(0.234033668268,-0.283630036032,1.019217991724)
);
#89 = CARTESIAN_POINT('',(0.186356140387,-0.319042743303,1.031255817053)
);
#90 = CARTESIAN_POINT('',(0.132468506999,-0.344923567803,1.051026016001)
);
#91 = CARTESIAN_POINT('',(7.50251400362E-002,-0.35996369243,
1.077191295971));
#92 = CARTESIAN_POINT('',(1.70175712385E-002,-0.363965994847,
1.108146236937));
#93 = CARTESIAN_POINT('',(-3.887504419278E-002,-0.357894860174,
1.142146201104));
#94 = ORIENTED_EDGE('',*,*,#95,.T.);
#95 = EDGE_CURVE('',#77,#75,#96,.T.);
#96 = B_SPLINE_CURVE_WITH_KNOTS('',7,(#97,#98,#99,#100,#101,#102,#103,
#104,#105,#106,#107,#108,#109,#110,#111,#112,#113,#114,#115,#116,
#117,#118,#119,#120,#121,#122,#123,#124,#125,#126,#127,#128,#129,
#130,#131,#132,#133,#134),.UNSPECIFIED.,.F.,.F.,(8,6,6,6,6,6,8),(
0.E+000,0.174770151197,0.400300687763,0.546648900686,0.676450448786,
0.816880645448,1.),.UNSPECIFIED.);
#97 = CARTESIAN_POINT('',(-3.887504419278E-002,-0.357894860174,
1.142146201104));
#98 = CARTESIAN_POINT('',(-8.182216398328E-002,-0.353229883485,
1.168271307662));
#99 = CARTESIAN_POINT('',(-0.123477118011,-0.342621789953,1.19616825663)
);
#100 = CARTESIAN_POINT('',(-0.162888692288,-0.326499788094,
1.225197796829));
#101 = CARTESIAN_POINT('',(-0.199302563276,-0.305458007579,
1.254828248882));
#102 = CARTESIAN_POINT('',(-0.232158177309,-0.280140100523,
1.284636188307));
#103 = CARTESIAN_POINT('',(-0.261046919743,-0.25116907338,1.314282214235
));
#104 = CARTESIAN_POINT('',(-0.317356614902,-0.177767948899,
1.381116337064));
#105 = CARTESIAN_POINT('',(-0.341866548784,-0.131354205307,
1.417937314356));
#106 = CARTESIAN_POINT('',(-0.358462347704,-8.117049227659E-002,
1.453258824729));
#107 = CARTESIAN_POINT('',(-0.366559165056,-2.853229139096E-002,
1.486381662641));
#108 = CARTESIAN_POINT('',(-0.365690981279,2.511300543743E-002,
1.516458137733));
#109 = CARTESIAN_POINT('',(-0.355564170294,7.814243940022E-002,
1.542353657461));
#110 = CARTESIAN_POINT('',(-0.323641129516,0.161527319804,1.575837047463
));
#111 = CARTESIAN_POINT('',(-0.307195273649,0.193292906767,1.586654928884
));
#112 = CARTESIAN_POINT('',(-0.286894007264,0.223473917873,1.59472084755)
);
#113 = CARTESIAN_POINT('',(-0.262856124862,0.25146239167,1.599591439598)
);
#114 = CARTESIAN_POINT('',(-0.235371553651,0.276608334226,1.600826846809
));
#115 = CARTESIAN_POINT('',(-0.204940041176,0.29830188366,1.598103764091)
);
#116 = CARTESIAN_POINT('',(-0.14329122278,0.33189862774,1.585430679377)
);
#117 = CARTESIAN_POINT('',(-0.112532681876,0.344641776592,1.576328479167
));
#118 = CARTESIAN_POINT('',(-8.05157018304E-002,0.354004406864,
1.564053975129));
#119 = CARTESIAN_POINT('',(-4.784246640776E-002,0.359817658615,
1.548764568379));
#120 = CARTESIAN_POINT('',(-1.512781575752E-002,0.362083946988,
1.530810214155));
#121 = CARTESIAN_POINT('',(1.70518261495E-002,0.360966413329,
1.510695098669));
#122 = CARTESIAN_POINT('',(8.188566252506E-002,0.35220817581,
1.465513445129));
#123 = CARTESIAN_POINT('',(0.114412468635,0.344034157733,1.440141972388)
);
#124 = CARTESIAN_POINT('',(0.145386878404,0.332558842978,1.413419381225)
);
#125 = CARTESIAN_POINT('',(0.174537266787,0.318113438049,1.385856369391)
);
#126 = CARTESIAN_POINT('',(0.201672550217,0.300997667737,1.357891362548)
);
#127 = CARTESIAN_POINT('',(0.226645778037,0.281459321358,1.329883349178)
);
#128 = CARTESIAN_POINT('',(0.27887868368,0.231313812784,1.265961901442)
);
#129 = CARTESIAN_POINT('',(0.304488947335,0.199182491489,1.230278391439)
);
#130 = CARTESIAN_POINT('',(0.32582218725,0.163780233746,1.195802921467)
);
#131 = CARTESIAN_POINT('',(0.342491825191,0.125552960544,1.163215077736)
);
#132 = CARTESIAN_POINT('',(0.354041469517,8.502504782081E-002,
1.133211853303));
#133 = CARTESIAN_POINT('',(0.36,4.28786094146E-002,1.106497913406));
#134 = CARTESIAN_POINT('',(0.36,-5.551115123126E-017,1.083714380213));
#135 = TOROIDAL_SURFACE('',#136,5.213414634146,2.536585365854);
#136 = AXIS2_PLACEMENT_3D('',#137,#138,#139);
#137 = CARTESIAN_POINT('',(3.75,-1.086585365854,7.78));
#138 = DIRECTION('',(0.E+000,1.,0.E+000));
#139 = DIRECTION('',(1.,0.E+000,0.E+000));
#140 = ADVANCED_FACE('',(#141,#161),#237,.T.);
#141 = FACE_BOUND('',#142,.T.);
#142 = EDGE_LOOP('',(#143,#144,#153,#160));
#143 = ORIENTED_EDGE('',*,*,#31,.T.);
#144 = ORIENTED_EDGE('',*,*,#145,.T.);
#145 = EDGE_CURVE('',#24,#146,#148,.T.);
#146 = VERTEX_POINT('',#147);
#147 = CARTESIAN_POINT('',(8.963414634146,-3.75,7.78));
#148 = CIRCLE('',#149,2.536585365854);
#149 = AXIS2_PLACEMENT_3D('',#150,#151,#152);
#150 = CARTESIAN_POINT('',(8.963414634146,-1.213414634146,7.78));
#151 = DIRECTION('',(0.E+000,0.E+000,-1.));
#152 = DIRECTION('',(1.,0.E+000,0.E+000));
#153 = ORIENTED_EDGE('',*,*,#154,.F.);
#154 = EDGE_CURVE('',#146,#146,#155,.T.);
#155 = CIRCLE('',#156,5.213414634146);
#156 = AXIS2_PLACEMENT_3D('',#157,#158,#159);
#157 = CARTESIAN_POINT('',(3.75,-3.75,7.78));
#158 = DIRECTION('',(0.E+000,-1.,0.E+000));
#159 = DIRECTION('',(1.,0.E+000,0.E+000));
#160 = ORIENTED_EDGE('',*,*,#145,.F.);
#161 = FACE_BOUND('',#162,.T.);
#162 = EDGE_LOOP('',(#163,#184));
#163 = ORIENTED_EDGE('',*,*,#164,.T.);
#164 = EDGE_CURVE('',#165,#167,#169,.T.);
#165 = VERTEX_POINT('',#166);
#166 = CARTESIAN_POINT('',(7.86,-2.3,1.499853417176));
#167 = VERTEX_POINT('',#168);
#168 = CARTESIAN_POINT('',(7.493749703259,-1.940054262714,1.115886886725
));
#169 = B_SPLINE_CURVE_WITH_KNOTS('',7,(#170,#171,#172,#173,#174,#175,
#176,#177,#178,#179,#180,#181,#182,#183),.UNSPECIFIED.,.F.,.F.,(8,6,
8),(0.E+000,0.420566652093,1.),.UNSPECIFIED.);
#170 = CARTESIAN_POINT('',(7.86,-2.3,1.499853417176));
#171 = CARTESIAN_POINT('',(7.86,-2.266041807408,1.480614122898));
#172 = CARTESIAN_POINT('',(7.856262658895,-2.232316572718,1.459940731488
));
#173 = CARTESIAN_POINT('',(7.848881215122,-2.199238092599,1.438109362235
));
#174 = CARTESIAN_POINT('',(7.837974815332,-2.167196275019,1.415354004036
));
#175 = CARTESIAN_POINT('',(7.823688916192,-2.136563236074,1.39188006136)
);
#176 = CARTESIAN_POINT('',(7.806195686196,-2.107699396824,1.367877900226
));
#177 = CARTESIAN_POINT('',(7.757448885603,-2.044118947521,1.310000020619
));
#178 = CARTESIAN_POINT('',(7.723532352769,-2.01135986126,1.275865198307)
);
#179 = CARTESIAN_POINT('',(7.684442958241,-1.983520822329,1.241565841247
));
#180 = CARTESIAN_POINT('',(7.640797069059,-1.961558651781,1.207620940743
));
#181 = CARTESIAN_POINT('',(7.593513806446,-1.946489035652,1.174716740531
));
#182 = CARTESIAN_POINT('',(7.543939329265,-1.939182742305,1.143783413048
));
#183 = CARTESIAN_POINT('',(7.493749703259,-1.940054262714,1.115886886725
));
#184 = ORIENTED_EDGE('',*,*,#185,.T.);
#185 = EDGE_CURVE('',#167,#165,#186,.T.);
#186 = B_SPLINE_CURVE_WITH_KNOTS('',7,(#187,#188,#189,#190,#191,#192,
#193,#194,#195,#196,#197,#198,#199,#200,#201,#202,#203,#204,#205,
#206,#207,#208,#209,#210,#211,#212,#213,#214,#215,#216,#217,#218,
#219,#220,#221,#222,#223,#224,#225,#226,#227,#228,#229,#230,#231,
#232,#233,#234,#235,#236),.UNSPECIFIED.,.F.,.F.,(8,6,6,6,6,6,6,6,8),
(0.E+000,0.199176202727,0.30413333515,0.354793196843,0.506429214263,
0.644930467249,0.773204195328,0.897555717422,1.),.UNSPECIFIED.);
#187 = CARTESIAN_POINT('',(7.493749703259,-1.940054262714,1.115886886725
));
#188 = CARTESIAN_POINT('',(7.44396983741,-1.94091866782,1.08821811434));
#189 = CARTESIAN_POINT('',(7.39378656949,-1.949824219027,1.063648568029)
);
#190 = CARTESIAN_POINT('',(7.345045031424,-1.967055391861,1.043286297043
));
#191 = CARTESIAN_POINT('',(7.299656042686,-1.992243828871,1.028134563453
));
#192 = CARTESIAN_POINT('',(7.259304408881,-2.024416649084,1.019007749781
));
#193 = CARTESIAN_POINT('',(7.225255231614,-2.062141147959,1.016338994966
));
#194 = CARTESIAN_POINT('',(7.183953052118,-2.125650211055,1.021994882409
));
#195 = CARTESIAN_POINT('',(7.171642791787,-2.148642322817,1.025716456324
));
#196 = CARTESIAN_POINT('',(7.161379042486,-2.172462270372,1.031195697904
));
#197 = CARTESIAN_POINT('',(7.153211006121,-2.196858017624,1.038381400224
));
#198 = CARTESIAN_POINT('',(7.147142367629,-2.221588810783,1.04719087716)
);
#199 = CARTESIAN_POINT('',(7.143141601559,-2.246434493238,1.057518324909
));
#200 = CARTESIAN_POINT('',(7.140194658961,-2.283150597956,1.074903451753
));
#201 = CARTESIAN_POINT('',(7.139704404436,-2.295084775369,1.080889184148
));
#202 = CARTESIAN_POINT('',(7.139676780363,-2.306978893585,1.087187656567
));
#203 = CARTESIAN_POINT('',(7.140104605646,-2.318812710737,1.093785130174
));
#204 = CARTESIAN_POINT('',(7.140979986594,-2.330567346909,1.100667531358
));
#205 = CARTESIAN_POINT('',(7.142294316926,-2.342225284136,1.107820451731
));
#206 = CARTESIAN_POINT('',(7.149258332995,-2.388327316158,1.13740499263)
);
#207 = CARTESIAN_POINT('',(7.158327464184,-2.421863388958,1.161867092577
));
#208 = CARTESIAN_POINT('',(7.171002986347,-2.453959612279,1.188233055479
));
#209 = CARTESIAN_POINT('',(7.187026144373,-2.484277045058,1.216107681632
));
#210 = CARTESIAN_POINT('',(7.206153931288,-2.512532128946,1.245098005881
));
#211 = CARTESIAN_POINT('',(7.228172535377,-2.538464509892,1.274810771893
));
#212 = CARTESIAN_POINT('',(7.275471052298,-2.583109053189,1.332253427405
));
#213 = CARTESIAN_POINT('',(7.300284564992,-2.602234508509,1.359909539817
));
#214 = CARTESIAN_POINT('',(7.327198089401,-2.618983638044,1.387503511103
));
#215 = CARTESIAN_POINT('',(7.356069321103,-2.633116169601,1.414687417393
));
#216 = CARTESIAN_POINT('',(7.386712238874,-2.644341927906,1.441036702927
));
#217 = CARTESIAN_POINT('',(7.4188624736,-2.652341183115,1.466057662018)
);
#218 = CARTESIAN_POINT('',(7.482968498906,-2.66093926023,1.51068787282)
);
#219 = CARTESIAN_POINT('',(7.514804315531,-2.662046419428,1.530588709539
));
#220 = CARTESIAN_POINT('',(7.547165511436,-2.659842351778,1.54837652901)
);
#221 = CARTESIAN_POINT('',(7.579494243164,-2.654168185007,1.563562712648
));
#222 = CARTESIAN_POINT('',(7.61119506729,-2.64501896539,1.57580558435));
#223 = CARTESIAN_POINT('',(7.641683639475,-2.632554309558,1.584947686672
));
#224 = CARTESIAN_POINT('',(7.698337033662,-2.602100666843,1.596885035163
));
#225 = CARTESIAN_POINT('',(7.724626787561,-2.584280837991,1.599870374505
));
#226 = CARTESIAN_POINT('',(7.748878240292,-2.56389620851,1.599979491967)
);
#227 = CARTESIAN_POINT('',(7.770756570793,-2.541305783914,1.597379910315
));
#228 = CARTESIAN_POINT('',(7.790039405379,-2.516902578151,1.592317773818
));
#229 = CARTESIAN_POINT('',(7.806603024176,-2.491071845488,1.585062336874
));
#230 = CARTESIAN_POINT('',(7.831745650615,-2.442003720375,1.568295996066
));
#231 = CARTESIAN_POINT('',(7.841218251804,-2.419109034358,1.5594067573)
);
#232 = CARTESIAN_POINT('',(7.848776951312,-2.395676114386,1.549343666382
));
#233 = CARTESIAN_POINT('',(7.854416333043,-2.371886004546,1.538240475064
));
#234 = CARTESIAN_POINT('',(7.858149083426,-2.347907835114,1.526220278079
));
#235 = CARTESIAN_POINT('',(7.86,-2.323898110966,1.51339308918));
#236 = CARTESIAN_POINT('',(7.86,-2.3,1.499853417176));
#237 = TOROIDAL_SURFACE('',#238,5.213414634146,2.536585365854);
#238 = AXIS2_PLACEMENT_3D('',#239,#240,#241);
#239 = CARTESIAN_POINT('',(3.75,-1.213414634146,7.78));
#240 = DIRECTION('',(0.E+000,-1.,0.E+000));
#241 = DIRECTION('',(1.,0.E+000,0.E+000));
#242 = ADVANCED_FACE('',(#243),#246,.F.);
#243 = FACE_BOUND('',#244,.F.);
#244 = EDGE_LOOP('',(#245));
#245 = ORIENTED_EDGE('',*,*,#64,.T.);
#246 = PLANE('',#247);
#247 = AXIS2_PLACEMENT_3D('',#248,#249,#250);
#248 = CARTESIAN_POINT('',(3.75,1.45,7.78));
#249 = DIRECTION('',(-0.E+000,-1.,-0.E+000));
#250 = DIRECTION('',(0.E+000,0.E+000,-1.));
#251 = ADVANCED_FACE('',(#252),#272,.T.);
#252 = FACE_BOUND('',#253,.T.);
#253 = EDGE_LOOP('',(#254,#255,#263,#270,#271));
#254 = ORIENTED_EDGE('',*,*,#95,.T.);
#255 = ORIENTED_EDGE('',*,*,#256,.T.);
#256 = EDGE_CURVE('',#75,#257,#259,.T.);
#257 = VERTEX_POINT('',#258);
#258 = CARTESIAN_POINT('',(0.36,0.E+000,-2.856));
#259 = LINE('',#260,#261);
#260 = CARTESIAN_POINT('',(0.36,0.E+000,7.78));
#261 = VECTOR('',#262,1.);
#262 = DIRECTION('',(-0.E+000,-0.E+000,-1.));
#263 = ORIENTED_EDGE('',*,*,#264,.T.);
#264 = EDGE_CURVE('',#257,#257,#265,.T.);
#265 = CIRCLE('',#266,0.36);
#266 = AXIS2_PLACEMENT_3D('',#267,#268,#269);
#267 = CARTESIAN_POINT('',(0.E+000,0.E+000,-2.856));
#268 = DIRECTION('',(0.E+000,0.E+000,1.));
#269 = DIRECTION('',(1.,0.E+000,0.E+000));
#270 = ORIENTED_EDGE('',*,*,#256,.F.);
#271 = ORIENTED_EDGE('',*,*,#74,.T.);
#272 = CYLINDRICAL_SURFACE('',#273,0.36);
#273 = AXIS2_PLACEMENT_3D('',#274,#275,#276);
#274 = CARTESIAN_POINT('',(0.E+000,0.E+000,7.78));
#275 = DIRECTION('',(0.E+000,0.E+000,1.));
#276 = DIRECTION('',(1.,0.E+000,0.E+000));
#277 = ADVANCED_FACE('',(#278),#281,.T.);
#278 = FACE_BOUND('',#279,.T.);
#279 = EDGE_LOOP('',(#280));
#280 = ORIENTED_EDGE('',*,*,#154,.T.);
#281 = PLANE('',#282);
#282 = AXIS2_PLACEMENT_3D('',#283,#284,#285);
#283 = CARTESIAN_POINT('',(3.75,-3.75,7.78));
#284 = DIRECTION('',(-0.E+000,-1.,-0.E+000));
#285 = DIRECTION('',(0.E+000,0.E+000,-1.));
#286 = ADVANCED_FACE('',(#287),#307,.T.);
#287 = FACE_BOUND('',#288,.T.);
#288 = EDGE_LOOP('',(#289,#290,#298,#305,#306));
#289 = ORIENTED_EDGE('',*,*,#164,.F.);
#290 = ORIENTED_EDGE('',*,*,#291,.T.);
#291 = EDGE_CURVE('',#165,#292,#294,.T.);
#292 = VERTEX_POINT('',#293);
#293 = CARTESIAN_POINT('',(7.86,-2.3,-2.856));
#294 = LINE('',#295,#296);
#295 = CARTESIAN_POINT('',(7.86,-2.3,7.78));
#296 = VECTOR('',#297,1.);
#297 = DIRECTION('',(-0.E+000,-0.E+000,-1.));
#298 = ORIENTED_EDGE('',*,*,#299,.T.);
#299 = EDGE_CURVE('',#292,#292,#300,.T.);
#300 = CIRCLE('',#301,0.36);
#301 = AXIS2_PLACEMENT_3D('',#302,#303,#304);
#302 = CARTESIAN_POINT('',(7.5,-2.3,-2.856));
#303 = DIRECTION('',(0.E+000,0.E+000,1.));
#304 = DIRECTION('',(1.,0.E+000,0.E+000));
#305 = ORIENTED_EDGE('',*,*,#291,.F.);
#306 = ORIENTED_EDGE('',*,*,#185,.F.);
#307 = CYLINDRICAL_SURFACE('',#308,0.36);
#308 = AXIS2_PLACEMENT_3D('',#309,#310,#311);
#309 = CARTESIAN_POINT('',(7.5,-2.3,7.78));
#310 = DIRECTION('',(0.E+000,0.E+000,1.));
#311 = DIRECTION('',(1.,0.E+000,0.E+000));
#312 = ADVANCED_FACE('',(#313),#333,.T.);
#313 = FACE_BOUND('',#314,.F.);
#314 = EDGE_LOOP('',(#315,#324,#325,#326));
#315 = ORIENTED_EDGE('',*,*,#316,.F.);
#316 = EDGE_CURVE('',#257,#317,#319,.T.);
#317 = VERTEX_POINT('',#318);
#318 = CARTESIAN_POINT('',(0.216,0.E+000,-3.));
#319 = CIRCLE('',#320,0.144);
#320 = AXIS2_PLACEMENT_3D('',#321,#322,#323);
#321 = CARTESIAN_POINT('',(0.216,0.E+000,-2.856));
#322 = DIRECTION('',(-0.E+000,1.,0.E+000));
#323 = DIRECTION('',(1.,0.E+000,0.E+000));
#324 = ORIENTED_EDGE('',*,*,#264,.T.);
#325 = ORIENTED_EDGE('',*,*,#316,.T.);
#326 = ORIENTED_EDGE('',*,*,#327,.F.);
#327 = EDGE_CURVE('',#317,#317,#328,.T.);
#328 = CIRCLE('',#329,0.216);
#329 = AXIS2_PLACEMENT_3D('',#330,#331,#332);
#330 = CARTESIAN_POINT('',(0.E+000,0.E+000,-3.));
#331 = DIRECTION('',(0.E+000,0.E+000,1.));
#332 = DIRECTION('',(1.,0.E+000,0.E+000));
#333 = TOROIDAL_SURFACE('',#334,0.216,0.144);
#334 = AXIS2_PLACEMENT_3D('',#335,#336,#337);
#335 = CARTESIAN_POINT('',(0.E+000,0.E+000,-2.856));
#336 = DIRECTION('',(-0.E+000,-0.E+000,-1.));
#337 = DIRECTION('',(1.,0.E+000,0.E+000));
#338 = ADVANCED_FACE('',(#339),#359,.T.);
#339 = FACE_BOUND('',#340,.F.);
#340 = EDGE_LOOP('',(#341,#350,#351,#352));
#341 = ORIENTED_EDGE('',*,*,#342,.F.);
#342 = EDGE_CURVE('',#292,#343,#345,.T.);
#343 = VERTEX_POINT('',#344);
#344 = CARTESIAN_POINT('',(7.716,-2.3,-3.));
#345 = CIRCLE('',#346,0.144);
#346 = AXIS2_PLACEMENT_3D('',#347,#348,#349);
#347 = CARTESIAN_POINT('',(7.716,-2.3,-2.856));
#348 = DIRECTION('',(-0.E+000,1.,0.E+000));
#349 = DIRECTION('',(1.,0.E+000,0.E+000));
#350 = ORIENTED_EDGE('',*,*,#299,.T.);
#351 = ORIENTED_EDGE('',*,*,#342,.T.);
#352 = ORIENTED_EDGE('',*,*,#353,.F.);
#353 = EDGE_CURVE('',#343,#343,#354,.T.);
#354 = CIRCLE('',#355,0.216);
#355 = AXIS2_PLACEMENT_3D('',#356,#357,#358);
#356 = CARTESIAN_POINT('',(7.5,-2.3,-3.));
#357 = DIRECTION('',(0.E+000,0.E+000,1.));
#358 = DIRECTION('',(1.,0.E+000,0.E+000));
#359 = TOROIDAL_SURFACE('',#360,0.216,0.144);
#360 = AXIS2_PLACEMENT_3D('',#361,#362,#363);
#361 = CARTESIAN_POINT('',(7.5,-2.3,-2.856));
#362 = DIRECTION('',(-0.E+000,-0.E+000,-1.));
#363 = DIRECTION('',(1.,0.E+000,0.E+000));
#364 = ADVANCED_FACE('',(#365),#368,.F.);
#365 = FACE_BOUND('',#366,.F.);
#366 = EDGE_LOOP('',(#367));
#367 = ORIENTED_EDGE('',*,*,#327,.T.);
#368 = PLANE('',#369);
#369 = AXIS2_PLACEMENT_3D('',#370,#371,#372);
#370 = CARTESIAN_POINT('',(-1.483767504926E-017,1.497958850874E-017,-3.)
);
#371 = DIRECTION('',(0.E+000,0.E+000,1.));
#372 = DIRECTION('',(1.,0.E+000,0.E+000));
#373 = ADVANCED_FACE('',(#374),#377,.F.);
#374 = FACE_BOUND('',#375,.F.);
#375 = EDGE_LOOP('',(#376));
#376 = ORIENTED_EDGE('',*,*,#353,.T.);
#377 = PLANE('',#378);
#378 = AXIS2_PLACEMENT_3D('',#379,#380,#381);
#379 = CARTESIAN_POINT('',(7.5,-2.3,-3.));
#380 = DIRECTION('',(0.E+000,0.E+000,1.));
#381 = DIRECTION('',(1.,0.E+000,0.E+000));
#382 = ( GEOMETRIC_REPRESENTATION_CONTEXT(3)
GLOBAL_UNCERTAINTY_ASSIGNED_CONTEXT((#386)) GLOBAL_UNIT_ASSIGNED_CONTEXT
((#383,#384,#385)) REPRESENTATION_CONTEXT('Context #1',
'3D Context with UNIT and UNCERTAINTY') );
#383 = ( LENGTH_UNIT() NAMED_UNIT(*) SI_UNIT(.MILLI.,.METRE.) );
#384 = ( NAMED_UNIT(*) PLANE_ANGLE_UNIT() SI_UNIT($,.RADIAN.) );
#385 = ( NAMED_UNIT(*) SI_UNIT($,.STERADIAN.) SOLID_ANGLE_UNIT() );
#386 = UNCERTAINTY_MEASURE_WITH_UNIT(LENGTH_MEASURE(1.E-007),#383,
'distance_accuracy_value','confusion accuracy');
#387 = PRODUCT_RELATED_PRODUCT_CATEGORY('part',$,(#7));
#388 = MECHANICAL_DESIGN_GEOMETRIC_PRESENTATION_REPRESENTATION('',(#389,
#397,#404,#411,#418,#426,#433,#440,#447,#454,#461),#382);
#389 = STYLED_ITEM('color',(#390),#17);
#390 = PRESENTATION_STYLE_ASSIGNMENT((#391));
#391 = SURFACE_STYLE_USAGE(.BOTH.,#392);
#392 = SURFACE_SIDE_STYLE('',(#393));
#393 = SURFACE_STYLE_FILL_AREA(#394);
#394 = FILL_AREA_STYLE('',(#395));
#395 = FILL_AREA_STYLE_COLOUR('',#396);
#396 = COLOUR_RGB('',0.136999994516,0.402000010014,0.726999998093);
#397 = STYLED_ITEM('color',(#398),#50);
#398 = PRESENTATION_STYLE_ASSIGNMENT((#399));
#399 = SURFACE_STYLE_USAGE(.BOTH.,#400);
#400 = SURFACE_SIDE_STYLE('',(#401));
#401 = SURFACE_STYLE_FILL_AREA(#402);
#402 = FILL_AREA_STYLE('',(#403));
#403 = FILL_AREA_STYLE_COLOUR('',#396);
#404 = STYLED_ITEM('color',(#405),#140);
#405 = PRESENTATION_STYLE_ASSIGNMENT((#406));
#406 = SURFACE_STYLE_USAGE(.BOTH.,#407);
#407 = SURFACE_SIDE_STYLE('',(#408));
#408 = SURFACE_STYLE_FILL_AREA(#409);
#409 = FILL_AREA_STYLE('',(#410));
#410 = FILL_AREA_STYLE_COLOUR('',#396);
#411 = STYLED_ITEM('color',(#412),#242);
#412 = PRESENTATION_STYLE_ASSIGNMENT((#413));
#413 = SURFACE_STYLE_USAGE(.BOTH.,#414);
#414 = SURFACE_SIDE_STYLE('',(#415));
#415 = SURFACE_STYLE_FILL_AREA(#416);
#416 = FILL_AREA_STYLE('',(#417));
#417 = FILL_AREA_STYLE_COLOUR('',#396);
#418 = STYLED_ITEM('color',(#419),#251);
#419 = PRESENTATION_STYLE_ASSIGNMENT((#420));
#420 = SURFACE_STYLE_USAGE(.BOTH.,#421);
#421 = SURFACE_SIDE_STYLE('',(#422));
#422 = SURFACE_STYLE_FILL_AREA(#423);
#423 = FILL_AREA_STYLE('',(#424));
#424 = FILL_AREA_STYLE_COLOUR('',#425);
#425 = COLOUR_RGB('',0.824000000954,0.819999992847,0.78100001812);
#426 = STYLED_ITEM('color',(#427),#277);
#427 = PRESENTATION_STYLE_ASSIGNMENT((#428));
#428 = SURFACE_STYLE_USAGE(.BOTH.,#429);
#429 = SURFACE_SIDE_STYLE('',(#430));
#430 = SURFACE_STYLE_FILL_AREA(#431);
#431 = FILL_AREA_STYLE('',(#432));
#432 = FILL_AREA_STYLE_COLOUR('',#396);
#433 = STYLED_ITEM('color',(#434),#286);
#434 = PRESENTATION_STYLE_ASSIGNMENT((#435));
#435 = SURFACE_STYLE_USAGE(.BOTH.,#436);
#436 = SURFACE_SIDE_STYLE('',(#437));
#437 = SURFACE_STYLE_FILL_AREA(#438);
#438 = FILL_AREA_STYLE('',(#439));
#439 = FILL_AREA_STYLE_COLOUR('',#425);
#440 = STYLED_ITEM('color',(#441),#312);
#441 = PRESENTATION_STYLE_ASSIGNMENT((#442));
#442 = SURFACE_STYLE_USAGE(.BOTH.,#443);
#443 = SURFACE_SIDE_STYLE('',(#444));
#444 = SURFACE_STYLE_FILL_AREA(#445);
#445 = FILL_AREA_STYLE('',(#446));
#446 = FILL_AREA_STYLE_COLOUR('',#425);
#447 = STYLED_ITEM('color',(#448),#338);
#448 = PRESENTATION_STYLE_ASSIGNMENT((#449));
#449 = SURFACE_STYLE_USAGE(.BOTH.,#450);
#450 = SURFACE_SIDE_STYLE('',(#451));
#451 = SURFACE_STYLE_FILL_AREA(#452);
#452 = FILL_AREA_STYLE('',(#453));
#453 = FILL_AREA_STYLE_COLOUR('',#425);
#454 = STYLED_ITEM('color',(#455),#364);
#455 = PRESENTATION_STYLE_ASSIGNMENT((#456));
#456 = SURFACE_STYLE_USAGE(.BOTH.,#457);
#457 = SURFACE_SIDE_STYLE('',(#458));
#458 = SURFACE_STYLE_FILL_AREA(#459);
#459 = FILL_AREA_STYLE('',(#460));
#460 = FILL_AREA_STYLE_COLOUR('',#425);
#461 = STYLED_ITEM('color',(#462),#373);
#462 = PRESENTATION_STYLE_ASSIGNMENT((#463));
#463 = SURFACE_STYLE_USAGE(.BOTH.,#464);
#464 = SURFACE_SIDE_STYLE('',(#465));
#465 = SURFACE_STYLE_FILL_AREA(#466);
#466 = FILL_AREA_STYLE('',(#467));
#467 = FILL_AREA_STYLE_COLOUR('',#425);
ENDSEC;
END-ISO-10303-21;
