ISO-10303-21;
HEADER;
/* RV_Disc_D15.5mm_W4.6mm_P7.5mm.step 3D STEP model for use in ECAD systems
 * Copyright (C) 2018, kicad StepUp
 * 
 * This work is licensed under the [Creative Commons CC-BY-SA 4.0 License](https://creativecommons.org/licenses/by-sa/4.0/legalcode), 
 * with the following exception:
 * To the extent that the creation of electronic designs that use 'Licensed Material' can be considered to be 'Adapted Material', 
 * then the copyright holder waives article 3 of the license with respect to these designs and any generated files which use data provided 
 * as part of the 'Licensed Material'.
 * You are free to use the library data in your own projects without the obligation to share your project files under this or any other license agreement.
 * However, if you wish to redistribute these libraries, or parts thereof (including in modified form) as a collection then the exception above does not apply. 
 * Please refer to https://github.com/KiCad/kicad-packages3D/blob/master/LICENSE.md for further clarification of the exception.
 * Disclaimer of Warranties and Limitation of Liability.
 * These libraries are provided in the hope that they will be useful, but are provided without warranty of any kind, express or implied.
 * *USE 3D CAD DATA AT YOUR OWN RISK*
 * *DO NOT RELY UPON ANY INFORMATION FOUND HERE WITHOUT INDEPENDENT VERIFICATION.*
 * 
 */

FILE_DESCRIPTION(
/* description */ ('model of RV_Disc_D15.5mm_W4.6mm_P7.5mm'),
/* implementation_level */ '2;1');

FILE_NAME(
/* name */ 'RV_Disc_D15.5mm_W4.6mm_P7.5mm.step',
/* time_stamp */ '2018-11-11T20:58:29',
/* author */ ('kicad StepUp','ksu'),
/* organization */ ('FreeCAD'),
/* preprocessor_version */ 'OCC',
/* originating_system */ 'kicad StepUp',
/* authorisation */ '');

FILE_SCHEMA(('AUTOMOTIVE_DESIGN { 1 0 10303 214 1 1 1 1 }'));
ENDSEC;

DATA;
#1 = APPLICATION_PROTOCOL_DEFINITION('international standard',
'automotive_design',2000,#2);
#2 = APPLICATION_CONTEXT(
'core data for automotive mechanical design processes');
#3 = SHAPE_DEFINITION_REPRESENTATION(#4,#10);
#4 = PRODUCT_DEFINITION_SHAPE('','',#5);
#5 = PRODUCT_DEFINITION('design','',#6,#9);
#6 = PRODUCT_DEFINITION_FORMATION('','',#7);
#7 = PRODUCT('RV_Disc_D155mm_W46mm_P75mm','RV_Disc_D155mm_W46mm_P75mm',
'',(#8));
#8 = PRODUCT_CONTEXT('',#2,'mechanical');
#9 = PRODUCT_DEFINITION_CONTEXT('part definition',#2,'design');
#10 = ADVANCED_BREP_SHAPE_REPRESENTATION('',(#11,#15),#380);
#11 = AXIS2_PLACEMENT_3D('',#12,#13,#14);
#12 = CARTESIAN_POINT('',(0.E+000,0.E+000,0.E+000));
#13 = DIRECTION('',(0.E+000,0.E+000,1.));
#14 = DIRECTION('',(1.,0.E+000,-0.E+000));
#15 = MANIFOLD_SOLID_BREP('',#16);
#16 = CLOSED_SHELL('',(#17,#50,#140,#240,#249,#275,#284,#310,#336,#362,
#371));
#17 = ADVANCED_FACE('',(#18),#45,.T.);
#18 = FACE_BOUND('',#19,.F.);
#19 = EDGE_LOOP('',(#20,#30,#37,#38));
#20 = ORIENTED_EDGE('',*,*,#21,.T.);
#21 = EDGE_CURVE('',#22,#24,#26,.T.);
#22 = VERTEX_POINT('',#23);
#23 = CARTESIAN_POINT('',(11.5,-0.968902439024,7.78));
#24 = VERTEX_POINT('',#25);
#25 = CARTESIAN_POINT('',(11.5,-1.081097560976,7.78));
#26 = LINE('',#27,#28);
#27 = CARTESIAN_POINT('',(11.5,1.275,7.78));
#28 = VECTOR('',#29,1.);
#29 = DIRECTION('',(0.E+000,-1.,0.E+000));
#30 = ORIENTED_EDGE('',*,*,#31,.T.);
#31 = EDGE_CURVE('',#24,#24,#32,.T.);
#32 = CIRCLE('',#33,7.75);
#33 = AXIS2_PLACEMENT_3D('',#34,#35,#36);
#34 = CARTESIAN_POINT('',(3.75,-1.081097560976,7.78));
#35 = DIRECTION('',(0.E+000,-1.,0.E+000));
#36 = DIRECTION('',(1.,0.E+000,0.E+000));
#37 = ORIENTED_EDGE('',*,*,#21,.F.);
#38 = ORIENTED_EDGE('',*,*,#39,.F.);
#39 = EDGE_CURVE('',#22,#22,#40,.T.);
#40 = CIRCLE('',#41,7.75);
#41 = AXIS2_PLACEMENT_3D('',#42,#43,#44);
#42 = CARTESIAN_POINT('',(3.75,-0.968902439024,7.78));
#43 = DIRECTION('',(0.E+000,-1.,0.E+000));
#44 = DIRECTION('',(1.,0.E+000,0.E+000));
#45 = CYLINDRICAL_SURFACE('',#46,7.75);
#46 = AXIS2_PLACEMENT_3D('',#47,#48,#49);
#47 = CARTESIAN_POINT('',(3.75,1.275,7.78));
#48 = DIRECTION('',(0.E+000,1.,0.E+000));
#49 = DIRECTION('',(1.,0.E+000,0.E+000));
#50 = ADVANCED_FACE('',(#51,#71),#135,.T.);
#51 = FACE_BOUND('',#52,.F.);
#52 = EDGE_LOOP('',(#53,#54,#63,#70));
#53 = ORIENTED_EDGE('',*,*,#39,.T.);
#54 = ORIENTED_EDGE('',*,*,#55,.T.);
#55 = EDGE_CURVE('',#22,#56,#58,.T.);
#56 = VERTEX_POINT('',#57);
#57 = CARTESIAN_POINT('',(9.256097560976,1.275,7.78));
#58 = CIRCLE('',#59,2.243902439024);
#59 = AXIS2_PLACEMENT_3D('',#60,#61,#62);
#60 = CARTESIAN_POINT('',(9.256097560976,-0.968902439024,7.78));
#61 = DIRECTION('',(0.E+000,0.E+000,1.));
#62 = DIRECTION('',(1.,0.E+000,0.E+000));
#63 = ORIENTED_EDGE('',*,*,#64,.F.);
#64 = EDGE_CURVE('',#56,#56,#65,.T.);
#65 = CIRCLE('',#66,5.506097560976);
#66 = AXIS2_PLACEMENT_3D('',#67,#68,#69);
#67 = CARTESIAN_POINT('',(3.75,1.275,7.78));
#68 = DIRECTION('',(0.E+000,-1.,0.E+000));
#69 = DIRECTION('',(1.,0.E+000,0.E+000));
#70 = ORIENTED_EDGE('',*,*,#55,.F.);
#71 = FACE_BOUND('',#72,.F.);
#72 = EDGE_LOOP('',(#73,#94));
#73 = ORIENTED_EDGE('',*,*,#74,.T.);
#74 = EDGE_CURVE('',#75,#77,#79,.T.);
#75 = VERTEX_POINT('',#76);
#76 = CARTESIAN_POINT('',(0.36,0.E+000,1.056210890938));
#77 = VERTEX_POINT('',#78);
#78 = CARTESIAN_POINT('',(-4.965778513035E-002,-0.356558696957,
1.123255565477));
#79 = B_SPLINE_CURVE_WITH_KNOTS('',7,(#80,#81,#82,#83,#84,#85,#86,#87,
#88,#89,#90,#91,#92,#93),.UNSPECIFIED.,.F.,.F.,(8,6,8),(0.E+000,
0.336984134153,1.),.UNSPECIFIED.);
#80 = CARTESIAN_POINT('',(0.36,-1.110223024625E-016,1.056210890938));
#81 = CARTESIAN_POINT('',(0.36,-2.778588782423E-002,1.0413141927));
#82 = CARTESIAN_POINT('',(0.357497909106,-5.588624989448E-002,
1.028130862775));
#83 = CARTESIAN_POINT('',(0.352392113943,-8.404349026617E-002,
1.016845450633));
#84 = CARTESIAN_POINT('',(0.344607752817,-0.11195960661,1.00762519932));
#85 = CARTESIAN_POINT('',(0.33411932278,-0.139295638078,1.000603097127)
);
#86 = CARTESIAN_POINT('',(0.320971733755,-0.165685890951,0.995861626902)
);
#87 = CARTESIAN_POINT('',(0.274465318574,-0.240113879097,0.98860783165)
);
#88 = CARTESIAN_POINT('',(0.233891851001,-0.284340384649,0.992695653288)
);
#89 = CARTESIAN_POINT('',(0.18457008563,-0.320809476504,1.005763607431)
);
#90 = CARTESIAN_POINT('',(0.128491409428,-0.347192743531,1.027004351876)
);
#91 = CARTESIAN_POINT('',(6.852429268887E-002,-0.361886715755,
1.054906698211));
#92 = CARTESIAN_POINT('',(8.113131400642E-003,-0.364604429075,
1.087652168712));
#93 = CARTESIAN_POINT('',(-4.965778513035E-002,-0.356558696957,
1.123255565477));
#94 = ORIENTED_EDGE('',*,*,#95,.T.);
#95 = EDGE_CURVE('',#77,#75,#96,.T.);
#96 = B_SPLINE_CURVE_WITH_KNOTS('',7,(#97,#98,#99,#100,#101,#102,#103,
#104,#105,#106,#107,#108,#109,#110,#111,#112,#113,#114,#115,#116,
#117,#118,#119,#120,#121,#122,#123,#124,#125,#126,#127,#128,#129,
#130,#131,#132,#133,#134),.UNSPECIFIED.,.F.,.F.,(8,6,6,6,6,6,8),(
0.E+000,0.185078555917,0.414207400151,0.555274001675,0.675948916054,
0.817696633239,1.),.UNSPECIFIED.);
#97 = CARTESIAN_POINT('',(-4.965778513035E-002,-0.356558696957,
1.123255565477));
#98 = CARTESIAN_POINT('',(-9.499050406773E-002,-0.350245227575,
1.151193477418));
#99 = CARTESIAN_POINT('',(-0.138600715163,-0.337317093155,1.180832020291
));
#100 = CARTESIAN_POINT('',(-0.17940475519,-0.318353014779,1.211442302785
));
#101 = CARTESIAN_POINT('',(-0.216570132771,-0.294106750099,
1.242459889361));
#102 = CARTESIAN_POINT('',(-0.249500632564,-0.265371392258,
1.273459146727));
#103 = CARTESIAN_POINT('',(-0.277778374724,-0.232900469728,
1.304107516026));
#104 = CARTESIAN_POINT('',(-0.329889185087,-0.153418438689,
1.371230305745));
#105 = CARTESIAN_POINT('',(-0.351012541102,-0.104862376418,
1.407290672681));
#106 = CARTESIAN_POINT('',(-0.363820091768,-5.308591183826E-002,
1.441689103353));
#107 = CARTESIAN_POINT('',(-0.36781315977,5.294177695372E-004,
1.473768962618));
#108 = CARTESIAN_POINT('',(-0.362620750938,5.447465182029E-002,
1.502686122004));
#109 = CARTESIAN_POINT('',(-0.348049398279,0.107077227765,1.527235528026
));
#110 = CARTESIAN_POINT('',(-0.309568965092,0.186830592675,1.557316081297
));
#111 = CARTESIAN_POINT('',(-0.291408193187,0.215978127578,1.566524541204
));
#112 = CARTESIAN_POINT('',(-0.269803185829,0.243412971807,1.573108819916
));
#113 = CARTESIAN_POINT('',(-0.244889928251,0.268601416322,1.576645711655
));
#114 = CARTESIAN_POINT('',(-0.216956983375,0.290977088068,1.576710524063
));
#115 = CARTESIAN_POINT('',(-0.186477405624,0.310015217442,1.572986909174
));
#116 = CARTESIAN_POINT('',(-0.12640803408,0.338467254374,1.558974668192)
);
#117 = CARTESIAN_POINT('',(-9.730965297106E-002,0.348882469154,
1.549708662632));
#118 = CARTESIAN_POINT('',(-6.724677361633E-002,0.356342461116,
1.537612114024));
#119 = CARTESIAN_POINT('',(-3.672536546569E-002,0.360718336311,
1.522815309837));
#120 = CARTESIAN_POINT('',(-6.270962884992E-003,0.362022244715,
1.50562666696));
#121 = CARTESIAN_POINT('',(2.361281032564E-002,0.360407877799,
1.486507058324));
#122 = CARTESIAN_POINT('',(8.638793274643E-002,0.351157859843,
1.441902013957));
#123 = CARTESIAN_POINT('',(0.118967812992,0.342508860599,1.415834899021)
);
#124 = CARTESIAN_POINT('',(0.149856596787,0.330577902549,1.388391588577)
);
#125 = CARTESIAN_POINT('',(0.178815962404,0.315723948258,1.360124576907)
);
#126 = CARTESIAN_POINT('',(0.20568711656,0.298258238921,1.331497574854)
);
#127 = CARTESIAN_POINT('',(0.2303493104,0.278428181348,1.302881281348));
#128 = CARTESIAN_POINT('',(0.281404291619,0.228117693818,1.238201336553)
);
#129 = CARTESIAN_POINT('',(0.306234845339,0.196251143831,1.202398093319)
);
#130 = CARTESIAN_POINT('',(0.326896697918,0.161272605177,1.167887208855)
);
#131 = CARTESIAN_POINT('',(0.343037386272,0.123592166937,1.135335583815)
);
#132 = CARTESIAN_POINT('',(0.354224180334,8.36937131855E-002,
1.105425192477));
#133 = CARTESIAN_POINT('',(0.36,4.221599775213E-002,1.078843926215));
#134 = CARTESIAN_POINT('',(0.36,-1.110223024625E-016,1.056210890938));
#135 = TOROIDAL_SURFACE('',#136,5.506097560976,2.243902439024);
#136 = AXIS2_PLACEMENT_3D('',#137,#138,#139);
#137 = CARTESIAN_POINT('',(3.75,-0.968902439024,7.78));
#138 = DIRECTION('',(0.E+000,1.,0.E+000));
#139 = DIRECTION('',(1.,0.E+000,0.E+000));
#140 = ADVANCED_FACE('',(#141,#161),#235,.T.);
#141 = FACE_BOUND('',#142,.T.);
#142 = EDGE_LOOP('',(#143,#144,#153,#160));
#143 = ORIENTED_EDGE('',*,*,#31,.T.);
#144 = ORIENTED_EDGE('',*,*,#145,.T.);
#145 = EDGE_CURVE('',#24,#146,#148,.T.);
#146 = VERTEX_POINT('',#147);
#147 = CARTESIAN_POINT('',(9.256097560976,-3.325,7.78));
#148 = CIRCLE('',#149,2.243902439024);
#149 = AXIS2_PLACEMENT_3D('',#150,#151,#152);
#150 = CARTESIAN_POINT('',(9.256097560976,-1.081097560976,7.78));
#151 = DIRECTION('',(0.E+000,0.E+000,-1.));
#152 = DIRECTION('',(1.,0.E+000,0.E+000));
#153 = ORIENTED_EDGE('',*,*,#154,.F.);
#154 = EDGE_CURVE('',#146,#146,#155,.T.);
#155 = CIRCLE('',#156,5.506097560976);
#156 = AXIS2_PLACEMENT_3D('',#157,#158,#159);
#157 = CARTESIAN_POINT('',(3.75,-3.325,7.78));
#158 = DIRECTION('',(0.E+000,-1.,0.E+000));
#159 = DIRECTION('',(1.,0.E+000,0.E+000));
#160 = ORIENTED_EDGE('',*,*,#145,.F.);
#161 = FACE_BOUND('',#162,.T.);
#162 = EDGE_LOOP('',(#163,#200));
#163 = ORIENTED_EDGE('',*,*,#164,.T.);
#164 = EDGE_CURVE('',#165,#167,#169,.T.);
#165 = VERTEX_POINT('',#166);
#166 = CARTESIAN_POINT('',(7.86,-2.05,1.47053568176));
#167 = VERTEX_POINT('',#168);
#168 = CARTESIAN_POINT('',(7.158909973301,-1.934858375527,1.008409380614
));
#169 = B_SPLINE_CURVE_WITH_KNOTS('',8,(#170,#171,#172,#173,#174,#175,
#176,#177,#178,#179,#180,#181,#182,#183,#184,#185,#186,#187,#188,
#189,#190,#191,#192,#193,#194,#195,#196,#197,#198,#199),
.UNSPECIFIED.,.F.,.F.,(9,7,7,7,9),(0.E+000,0.21680056777,
0.642602437663,0.921968230785,1.),.UNSPECIFIED.);
#170 = CARTESIAN_POINT('',(7.86,-2.05,1.47053568176));
#171 = CARTESIAN_POINT('',(7.86,-2.023778578616,1.455554586457));
#172 = CARTESIAN_POINT('',(7.857817188053,-1.997674368844,1.439800241421
));
#173 = CARTESIAN_POINT('',(7.853485931869,-1.971863387766,1.42338408465)
);
#174 = CARTESIAN_POINT('',(7.847047990103,-1.946516143725,1.406403440861
));
#175 = CARTESIAN_POINT('',(7.838552934084,-1.921798817086,1.38894468904)
);
#176 = CARTESIAN_POINT('',(7.828058569551,-1.897874440994,1.371086429986
));
#177 = CARTESIAN_POINT('',(7.815631358377,-1.874904082136,1.352902653864
));
#178 = CARTESIAN_POINT('',(7.773291680827,-1.810122158409,1.298255665996
));
#179 = CARTESIAN_POINT('',(7.73815526707,-1.771621219318,1.261176559333)
);
#180 = CARTESIAN_POINT('',(7.696464040549,-1.738527236038,1.223631158804
));
#181 = CARTESIAN_POINT('',(7.648819289948,-1.712072165992,1.186122670922
));
#182 = CARTESIAN_POINT('',(7.596231448707,-1.693677508816,1.14941775619)
);
#183 = CARTESIAN_POINT('',(7.540309708989,-1.684691889021,1.114580781656
));
#184 = CARTESIAN_POINT('',(7.483338815703,-1.685956039445,1.083102501974
));
#185 = CARTESIAN_POINT('',(7.391475493252,-1.704743125416,1.038967764198
));
#186 = CARTESIAN_POINT('',(7.355883823879,-1.716493252639,1.023636434821
));
#187 = CARTESIAN_POINT('',(7.32176395826,-1.732446303286,1.010821951915)
);
#188 = CARTESIAN_POINT('',(7.289755985776,-1.752352136291,1.00085800857)
);
#189 = CARTESIAN_POINT('',(7.260434454275,-1.775829477952,0.994024035227
));
#190 = CARTESIAN_POINT('',(7.234278197078,-1.802386410109,0.990519632009
));
#191 = CARTESIAN_POINT('',(7.211645574707,-1.831446674807,0.990438042301
));
#192 = CARTESIAN_POINT('',(7.187478698957,-1.871022517583,0.994660590161
));
#193 = CARTESIAN_POINT('',(7.182494093439,-1.879809876202,0.995846470692
));
#194 = CARTESIAN_POINT('',(7.177805884079,-1.888730267603,0.997295436973
));
#195 = CARTESIAN_POINT('',(7.173417772575,-1.897770185071,0.999005950412
));
#196 = CARTESIAN_POINT('',(7.169332593033,-1.906916218868,1.000975806038
));
#197 = CARTESIAN_POINT('',(7.165552311962,-1.916155056235,1.0032021325)
);
#198 = CARTESIAN_POINT('',(7.162078028277,-1.925473481389,1.005681392063
));
#199 = CARTESIAN_POINT('',(7.158909973301,-1.934858375527,1.008409380614
));
#200 = ORIENTED_EDGE('',*,*,#201,.T.);
#201 = EDGE_CURVE('',#167,#165,#202,.T.);
#202 = B_SPLINE_CURVE_WITH_KNOTS('',7,(#203,#204,#205,#206,#207,#208,
#209,#210,#211,#212,#213,#214,#215,#216,#217,#218,#219,#220,#221,
#222,#223,#224,#225,#226,#227,#228,#229,#230,#231,#232,#233,#234),
.UNSPECIFIED.,.F.,.F.,(8,6,6,6,6,8),(0.E+000,0.335810551396,
0.51539999966,0.684016033827,0.848777369488,1.),.UNSPECIFIED.);
#203 = CARTESIAN_POINT('',(7.158909973301,-1.934858375527,1.008409380614
));
#204 = CARTESIAN_POINT('',(7.139347680134,-1.992808774692,1.025254325603
));
#205 = CARTESIAN_POINT('',(7.131750538764,-2.053219602023,1.051744116411
));
#206 = CARTESIAN_POINT('',(7.136051419326,-2.112946551551,1.086804238731
));
#207 = CARTESIAN_POINT('',(7.151014067203,-2.169517810022,1.128575069191
));
#208 = CARTESIAN_POINT('',(7.175284515476,-2.221434244412,1.175097702558
));
#209 = CARTESIAN_POINT('',(7.207796145386,-2.267634614101,1.224613160034
));
#210 = CARTESIAN_POINT('',(7.269254498462,-2.327951133105,1.302328442369
));
#211 = CARTESIAN_POINT('',(7.292802311491,-2.346973506618,1.32970172699)
);
#212 = CARTESIAN_POINT('',(7.3183757077,-2.363833700434,1.357091142066)
);
#213 = CARTESIAN_POINT('',(7.345867059573,-2.378316103039,1.384171634246
));
#214 = CARTESIAN_POINT('',(7.375139594644,-2.390153626833,1.410543984756
));
#215 = CARTESIAN_POINT('',(7.405995041994,-2.399038185644,1.435736195526
));
#216 = CARTESIAN_POINT('',(7.468316371511,-2.409909170592,1.481293873314
));
#217 = CARTESIAN_POINT('',(7.499713085797,-2.412298424639,1.501920967944
));
#218 = CARTESIAN_POINT('',(7.531836494605,-2.411471791244,1.520487005399
));
#219 = CARTESIAN_POINT('',(7.564113806292,-2.407226506396,1.536435749533
));
#220 = CARTESIAN_POINT('',(7.595928390038,-2.399529031849,1.549385332636
));
#221 = CARTESIAN_POINT('',(7.626673461972,-2.388525239145,1.559171671197
));
#222 = CARTESIAN_POINT('',(7.684303908241,-2.360854173535,1.572339796425
));
#223 = CARTESIAN_POINT('',(7.711295884963,-2.344305542736,1.575870817235
));
#224 = CARTESIAN_POINT('',(7.736351505659,-2.325138234853,1.576456292642
));
#225 = CARTESIAN_POINT('',(7.759132339459,-2.303702747494,1.574293741138
));
#226 = CARTESIAN_POINT('',(7.779413499414,-2.280382338012,1.569658213204
));
#227 = CARTESIAN_POINT('',(7.797068397362,-2.255549601336,1.562839195768
));
#228 = CARTESIAN_POINT('',(7.825767105638,-2.205673342277,1.546084748084
));
#229 = CARTESIAN_POINT('',(7.837235299369,-2.180814397006,1.536451369771
));
#230 = CARTESIAN_POINT('',(7.846392527404,-2.155219513961,1.52540677669)
);
#231 = CARTESIAN_POINT('',(7.853228018912,-2.129127999241,1.51313967011)
);
#232 = CARTESIAN_POINT('',(7.857754586502,-2.102761239909,1.499815506542
));
#233 = CARTESIAN_POINT('',(7.86,-2.076322449116,1.485574497278));
#234 = CARTESIAN_POINT('',(7.86,-2.05,1.47053568176));
#235 = TOROIDAL_SURFACE('',#236,5.506097560976,2.243902439024);
#236 = AXIS2_PLACEMENT_3D('',#237,#238,#239);
#237 = CARTESIAN_POINT('',(3.75,-1.081097560976,7.78));
#238 = DIRECTION('',(0.E+000,-1.,0.E+000));
#239 = DIRECTION('',(1.,0.E+000,0.E+000));
#240 = ADVANCED_FACE('',(#241),#244,.F.);
#241 = FACE_BOUND('',#242,.F.);
#242 = EDGE_LOOP('',(#243));
#243 = ORIENTED_EDGE('',*,*,#64,.T.);
#244 = PLANE('',#245);
#245 = AXIS2_PLACEMENT_3D('',#246,#247,#248);
#246 = CARTESIAN_POINT('',(3.75,1.275,7.78));
#247 = DIRECTION('',(-0.E+000,-1.,-0.E+000));
#248 = DIRECTION('',(0.E+000,0.E+000,-1.));
#249 = ADVANCED_FACE('',(#250),#270,.T.);
#250 = FACE_BOUND('',#251,.T.);
#251 = EDGE_LOOP('',(#252,#253,#261,#268,#269));
#252 = ORIENTED_EDGE('',*,*,#95,.T.);
#253 = ORIENTED_EDGE('',*,*,#254,.T.);
#254 = EDGE_CURVE('',#75,#255,#257,.T.);
#255 = VERTEX_POINT('',#256);
#256 = CARTESIAN_POINT('',(0.36,0.E+000,-2.856));
#257 = LINE('',#258,#259);
#258 = CARTESIAN_POINT('',(0.36,0.E+000,7.78));
#259 = VECTOR('',#260,1.);
#260 = DIRECTION('',(-0.E+000,-0.E+000,-1.));
#261 = ORIENTED_EDGE('',*,*,#262,.T.);
#262 = EDGE_CURVE('',#255,#255,#263,.T.);
#263 = CIRCLE('',#264,0.36);
#264 = AXIS2_PLACEMENT_3D('',#265,#266,#267);
#265 = CARTESIAN_POINT('',(0.E+000,0.E+000,-2.856));
#266 = DIRECTION('',(0.E+000,0.E+000,1.));
#267 = DIRECTION('',(1.,0.E+000,0.E+000));
#268 = ORIENTED_EDGE('',*,*,#254,.F.);
#269 = ORIENTED_EDGE('',*,*,#74,.T.);
#270 = CYLINDRICAL_SURFACE('',#271,0.36);
#271 = AXIS2_PLACEMENT_3D('',#272,#273,#274);
#272 = CARTESIAN_POINT('',(0.E+000,0.E+000,7.78));
#273 = DIRECTION('',(0.E+000,0.E+000,1.));
#274 = DIRECTION('',(1.,0.E+000,0.E+000));
#275 = ADVANCED_FACE('',(#276),#279,.T.);
#276 = FACE_BOUND('',#277,.T.);
#277 = EDGE_LOOP('',(#278));
#278 = ORIENTED_EDGE('',*,*,#154,.T.);
#279 = PLANE('',#280);
#280 = AXIS2_PLACEMENT_3D('',#281,#282,#283);
#281 = CARTESIAN_POINT('',(3.75,-3.325,7.78));
#282 = DIRECTION('',(-0.E+000,-1.,-0.E+000));
#283 = DIRECTION('',(0.E+000,0.E+000,-1.));
#284 = ADVANCED_FACE('',(#285),#305,.T.);
#285 = FACE_BOUND('',#286,.T.);
#286 = EDGE_LOOP('',(#287,#288,#296,#303,#304));
#287 = ORIENTED_EDGE('',*,*,#164,.F.);
#288 = ORIENTED_EDGE('',*,*,#289,.T.);
#289 = EDGE_CURVE('',#165,#290,#292,.T.);
#290 = VERTEX_POINT('',#291);
#291 = CARTESIAN_POINT('',(7.86,-2.05,-2.856));
#292 = LINE('',#293,#294);
#293 = CARTESIAN_POINT('',(7.86,-2.05,7.78));
#294 = VECTOR('',#295,1.);
#295 = DIRECTION('',(-0.E+000,-0.E+000,-1.));
#296 = ORIENTED_EDGE('',*,*,#297,.T.);
#297 = EDGE_CURVE('',#290,#290,#298,.T.);
#298 = CIRCLE('',#299,0.36);
#299 = AXIS2_PLACEMENT_3D('',#300,#301,#302);
#300 = CARTESIAN_POINT('',(7.5,-2.05,-2.856));
#301 = DIRECTION('',(0.E+000,0.E+000,1.));
#302 = DIRECTION('',(1.,0.E+000,0.E+000));
#303 = ORIENTED_EDGE('',*,*,#289,.F.);
#304 = ORIENTED_EDGE('',*,*,#201,.F.);
#305 = CYLINDRICAL_SURFACE('',#306,0.36);
#306 = AXIS2_PLACEMENT_3D('',#307,#308,#309);
#307 = CARTESIAN_POINT('',(7.5,-2.05,7.78));
#308 = DIRECTION('',(0.E+000,0.E+000,1.));
#309 = DIRECTION('',(1.,0.E+000,0.E+000));
#310 = ADVANCED_FACE('',(#311),#331,.T.);
#311 = FACE_BOUND('',#312,.F.);
#312 = EDGE_LOOP('',(#313,#322,#323,#324));
#313 = ORIENTED_EDGE('',*,*,#314,.F.);
#314 = EDGE_CURVE('',#255,#315,#317,.T.);
#315 = VERTEX_POINT('',#316);
#316 = CARTESIAN_POINT('',(0.216,0.E+000,-3.));
#317 = CIRCLE('',#318,0.144);
#318 = AXIS2_PLACEMENT_3D('',#319,#320,#321);
#319 = CARTESIAN_POINT('',(0.216,0.E+000,-2.856));
#320 = DIRECTION('',(-0.E+000,1.,0.E+000));
#321 = DIRECTION('',(1.,0.E+000,0.E+000));
#322 = ORIENTED_EDGE('',*,*,#262,.T.);
#323 = ORIENTED_EDGE('',*,*,#314,.T.);
#324 = ORIENTED_EDGE('',*,*,#325,.F.);
#325 = EDGE_CURVE('',#315,#315,#326,.T.);
#326 = CIRCLE('',#327,0.216);
#327 = AXIS2_PLACEMENT_3D('',#328,#329,#330);
#328 = CARTESIAN_POINT('',(0.E+000,0.E+000,-3.));
#329 = DIRECTION('',(0.E+000,0.E+000,1.));
#330 = DIRECTION('',(1.,0.E+000,0.E+000));
#331 = TOROIDAL_SURFACE('',#332,0.216,0.144);
#332 = AXIS2_PLACEMENT_3D('',#333,#334,#335);
#333 = CARTESIAN_POINT('',(0.E+000,0.E+000,-2.856));
#334 = DIRECTION('',(-0.E+000,-0.E+000,-1.));
#335 = DIRECTION('',(1.,0.E+000,0.E+000));
#336 = ADVANCED_FACE('',(#337),#357,.T.);
#337 = FACE_BOUND('',#338,.F.);
#338 = EDGE_LOOP('',(#339,#348,#349,#350));
#339 = ORIENTED_EDGE('',*,*,#340,.F.);
#340 = EDGE_CURVE('',#290,#341,#343,.T.);
#341 = VERTEX_POINT('',#342);
#342 = CARTESIAN_POINT('',(7.716,-2.05,-3.));
#343 = CIRCLE('',#344,0.144);
#344 = AXIS2_PLACEMENT_3D('',#345,#346,#347);
#345 = CARTESIAN_POINT('',(7.716,-2.05,-2.856));
#346 = DIRECTION('',(-0.E+000,1.,0.E+000));
#347 = DIRECTION('',(1.,0.E+000,0.E+000));
#348 = ORIENTED_EDGE('',*,*,#297,.T.);
#349 = ORIENTED_EDGE('',*,*,#340,.T.);
#350 = ORIENTED_EDGE('',*,*,#351,.F.);
#351 = EDGE_CURVE('',#341,#341,#352,.T.);
#352 = CIRCLE('',#353,0.216);
#353 = AXIS2_PLACEMENT_3D('',#354,#355,#356);
#354 = CARTESIAN_POINT('',(7.5,-2.05,-3.));
#355 = DIRECTION('',(0.E+000,0.E+000,1.));
#356 = DIRECTION('',(1.,0.E+000,0.E+000));
#357 = TOROIDAL_SURFACE('',#358,0.216,0.144);
#358 = AXIS2_PLACEMENT_3D('',#359,#360,#361);
#359 = CARTESIAN_POINT('',(7.5,-2.05,-2.856));
#360 = DIRECTION('',(-0.E+000,-0.E+000,-1.));
#361 = DIRECTION('',(1.,0.E+000,0.E+000));
#362 = ADVANCED_FACE('',(#363),#366,.F.);
#363 = FACE_BOUND('',#364,.F.);
#364 = EDGE_LOOP('',(#365));
#365 = ORIENTED_EDGE('',*,*,#325,.T.);
#366 = PLANE('',#367);
#367 = AXIS2_PLACEMENT_3D('',#368,#369,#370);
#368 = CARTESIAN_POINT('',(-1.483767504926E-017,1.497958850874E-017,-3.)
);
#369 = DIRECTION('',(0.E+000,0.E+000,1.));
#370 = DIRECTION('',(1.,0.E+000,0.E+000));
#371 = ADVANCED_FACE('',(#372),#375,.F.);
#372 = FACE_BOUND('',#373,.F.);
#373 = EDGE_LOOP('',(#374));
#374 = ORIENTED_EDGE('',*,*,#351,.T.);
#375 = PLANE('',#376);
#376 = AXIS2_PLACEMENT_3D('',#377,#378,#379);
#377 = CARTESIAN_POINT('',(7.5,-2.05,-3.));
#378 = DIRECTION('',(0.E+000,0.E+000,1.));
#379 = DIRECTION('',(1.,0.E+000,0.E+000));
#380 = ( GEOMETRIC_REPRESENTATION_CONTEXT(3)
GLOBAL_UNCERTAINTY_ASSIGNED_CONTEXT((#384)) GLOBAL_UNIT_ASSIGNED_CONTEXT
((#381,#382,#383)) REPRESENTATION_CONTEXT('Context #1',
'3D Context with UNIT and UNCERTAINTY') );
#381 = ( LENGTH_UNIT() NAMED_UNIT(*) SI_UNIT(.MILLI.,.METRE.) );
#382 = ( NAMED_UNIT(*) PLANE_ANGLE_UNIT() SI_UNIT($,.RADIAN.) );
#383 = ( NAMED_UNIT(*) SI_UNIT($,.STERADIAN.) SOLID_ANGLE_UNIT() );
#384 = UNCERTAINTY_MEASURE_WITH_UNIT(LENGTH_MEASURE(1.E-007),#381,
'distance_accuracy_value','confusion accuracy');
#385 = PRODUCT_RELATED_PRODUCT_CATEGORY('part',$,(#7));
#386 = MECHANICAL_DESIGN_GEOMETRIC_PRESENTATION_REPRESENTATION('',(#387,
#395,#402,#409,#416,#424,#431,#438,#445,#452,#459),#380);
#387 = STYLED_ITEM('color',(#388),#17);
#388 = PRESENTATION_STYLE_ASSIGNMENT((#389));
#389 = SURFACE_STYLE_USAGE(.BOTH.,#390);
#390 = SURFACE_SIDE_STYLE('',(#391));
#391 = SURFACE_STYLE_FILL_AREA(#392);
#392 = FILL_AREA_STYLE('',(#393));
#393 = FILL_AREA_STYLE_COLOUR('',#394);
#394 = COLOUR_RGB('',0.136999994516,0.402000010014,0.726999998093);
#395 = STYLED_ITEM('color',(#396),#50);
#396 = PRESENTATION_STYLE_ASSIGNMENT((#397));
#397 = SURFACE_STYLE_USAGE(.BOTH.,#398);
#398 = SURFACE_SIDE_STYLE('',(#399));
#399 = SURFACE_STYLE_FILL_AREA(#400);
#400 = FILL_AREA_STYLE('',(#401));
#401 = FILL_AREA_STYLE_COLOUR('',#394);
#402 = STYLED_ITEM('color',(#403),#140);
#403 = PRESENTATION_STYLE_ASSIGNMENT((#404));
#404 = SURFACE_STYLE_USAGE(.BOTH.,#405);
#405 = SURFACE_SIDE_STYLE('',(#406));
#406 = SURFACE_STYLE_FILL_AREA(#407);
#407 = FILL_AREA_STYLE('',(#408));
#408 = FILL_AREA_STYLE_COLOUR('',#394);
#409 = STYLED_ITEM('color',(#410),#240);
#410 = PRESENTATION_STYLE_ASSIGNMENT((#411));
#411 = SURFACE_STYLE_USAGE(.BOTH.,#412);
#412 = SURFACE_SIDE_STYLE('',(#413));
#413 = SURFACE_STYLE_FILL_AREA(#414);
#414 = FILL_AREA_STYLE('',(#415));
#415 = FILL_AREA_STYLE_COLOUR('',#394);
#416 = STYLED_ITEM('color',(#417),#249);
#417 = PRESENTATION_STYLE_ASSIGNMENT((#418));
#418 = SURFACE_STYLE_USAGE(.BOTH.,#419);
#419 = SURFACE_SIDE_STYLE('',(#420));
#420 = SURFACE_STYLE_FILL_AREA(#421);
#421 = FILL_AREA_STYLE('',(#422));
#422 = FILL_AREA_STYLE_COLOUR('',#423);
#423 = COLOUR_RGB('',0.824000000954,0.819999992847,0.78100001812);
#424 = STYLED_ITEM('color',(#425),#275);
#425 = PRESENTATION_STYLE_ASSIGNMENT((#426));
#426 = SURFACE_STYLE_USAGE(.BOTH.,#427);
#427 = SURFACE_SIDE_STYLE('',(#428));
#428 = SURFACE_STYLE_FILL_AREA(#429);
#429 = FILL_AREA_STYLE('',(#430));
#430 = FILL_AREA_STYLE_COLOUR('',#394);
#431 = STYLED_ITEM('color',(#432),#284);
#432 = PRESENTATION_STYLE_ASSIGNMENT((#433));
#433 = SURFACE_STYLE_USAGE(.BOTH.,#434);
#434 = SURFACE_SIDE_STYLE('',(#435));
#435 = SURFACE_STYLE_FILL_AREA(#436);
#436 = FILL_AREA_STYLE('',(#437));
#437 = FILL_AREA_STYLE_COLOUR('',#423);
#438 = STYLED_ITEM('color',(#439),#310);
#439 = PRESENTATION_STYLE_ASSIGNMENT((#440));
#440 = SURFACE_STYLE_USAGE(.BOTH.,#441);
#441 = SURFACE_SIDE_STYLE('',(#442));
#442 = SURFACE_STYLE_FILL_AREA(#443);
#443 = FILL_AREA_STYLE('',(#444));
#444 = FILL_AREA_STYLE_COLOUR('',#423);
#445 = STYLED_ITEM('color',(#446),#336);
#446 = PRESENTATION_STYLE_ASSIGNMENT((#447));
#447 = SURFACE_STYLE_USAGE(.BOTH.,#448);
#448 = SURFACE_SIDE_STYLE('',(#449));
#449 = SURFACE_STYLE_FILL_AREA(#450);
#450 = FILL_AREA_STYLE('',(#451));
#451 = FILL_AREA_STYLE_COLOUR('',#423);
#452 = STYLED_ITEM('color',(#453),#362);
#453 = PRESENTATION_STYLE_ASSIGNMENT((#454));
#454 = SURFACE_STYLE_USAGE(.BOTH.,#455);
#455 = SURFACE_SIDE_STYLE('',(#456));
#456 = SURFACE_STYLE_FILL_AREA(#457);
#457 = FILL_AREA_STYLE('',(#458));
#458 = FILL_AREA_STYLE_COLOUR('',#423);
#459 = STYLED_ITEM('color',(#460),#371);
#460 = PRESENTATION_STYLE_ASSIGNMENT((#461));
#461 = SURFACE_STYLE_USAGE(.BOTH.,#462);
#462 = SURFACE_SIDE_STYLE('',(#463));
#463 = SURFACE_STYLE_FILL_AREA(#464);
#464 = FILL_AREA_STYLE('',(#465));
#465 = FILL_AREA_STYLE_COLOUR('',#423);
ENDSEC;
END-ISO-10303-21;
